  0
SECTION
  2
HEADER
  9
$ACADVER
  1
AC1014
  9
$ACADMAINTVER
 70
     0
  9
$DWGCODEPAGE
  3
ANSI_1252
  9
$INSBASE
 10
0.0
 20
0.0
 30
0.0
  9
$EXTMIN
 10
0.0
 20
0.0
 30
0.0
  9
$EXTMAX
 10
377.550598
 20
361.83139
 30
2.0
  9
$LIMMIN
 10
0.0
 20
0.0
  9
$LIMMAX
 10
420.0
 20
297.0
  9
$ORTHOMODE
 70
     0
  9
$REGENMODE
 70
     1
  9
$FILLMODE
 70
     1
  9
$QTEXTMODE
 70
     0
  9
$MIRRTEXT
 70
     1
  9
$DRAGMODE
 70
     2
  9
$LTSCALE
 40
1.0
  9
$OSMODE
 70
     0
  9
$ATTMODE
 70
     1
  9
$TEXTSIZE
 40
2.5
  9
$TRACEWID
 40
1.0
  9
$TEXTSTYLE
  7
STANDARD
  9
$CLAYER
  8
0
  9
$CELTYPE
  6
BYLAYER
  9
$CECOLOR
 62
   256
  9
$CELTSCALE
 40
1.0
  9
$DELOBJ
 70
     1
  9
$DISPSILH
 70
     0
  9
$DIMSCALE
 40
1.0
  9
$DIMASZ
 40
2.5
  9
$DIMEXO
 40
0.625
  9
$DIMDLI
 40
3.75
  9
$DIMRND
 40
0.0
  9
$DIMDLE
 40
0.0
  9
$DIMEXE
 40
1.25
  9
$DIMTP
 40
0.0
  9
$DIMTM
 40
0.0
  9
$DIMTXT
 40
2.5
  9
$DIMCEN
 40
2.5
  9
$DIMTSZ
 40
0.0
  9
$DIMTOL
 70
     0
  9
$DIMLIM
 70
     0
  9
$DIMTIH
 70
     0
  9
$DIMTOH
 70
     0
  9
$DIMSE1
 70
     0
  9
$DIMSE2
 70
     0
  9
$DIMTAD
 70
     1
  9
$DIMZIN
 70
     8
  9
$DIMBLK
  1

  9
$DIMASO
 70
     1
  9
$DIMSHO
 70
     1
  9
$DIMPOST
  1

  9
$DIMAPOST
  1

  9
$DIMALT
 70
     0
  9
$DIMALTD
 70
     3
  9
$DIMALTF
 40
0.03937
  9
$DIMLFAC
 40
1.0
  9
$DIMTOFL
 70
     1
  9
$DIMTVP
 40
0.0
  9
$DIMTIX
 70
     0
  9
$DIMSOXD
 70
     0
  9
$DIMSAH
 70
     0
  9
$DIMBLK1
  1

  9
$DIMBLK2
  1

  9
$DIMSTYLE
  2

  9
$DIMCLRD
 70
     0
  9
$DIMCLRE
 70
     0
  9
$DIMCLRT
 70
     0
  9
$DIMTFAC
 40
1.0
  9
$DIMGAP
 40
0.625
  9
$DIMJUST
 70
     0
  9
$DIMSD1
 70
     0
  9
$DIMSD2
 70
     0
  9
$DIMTOLJ
 70
     0
  9
$DIMTZIN
 70
     8
  9
$DIMALTZ
 70
     0
  9
$DIMALTTZ
 70
     0
  9
$DIMFIT
 70
     0
  9
$DIMUPT
 70
     0
  9
$DIMUNIT
 70
     2
  9
$DIMDEC
 70
     2
  9
$DIMTDEC
 70
     2
  9
$DIMALTU
 70
     2
  9
$DIMALTTD
 70
     3
  9
$DIMTXSTY
  7
STANDARD
  9
$DIMAUNIT
 70
     0
  9
$LUNITS
 70
     2
  9
$LUPREC
 70
     4
  9
$SKETCHINC
 40
1.0
  9
$FILLETRAD
 40
2.5
  9
$AUNITS
 70
     0
  9
$AUPREC
 70
     0
  9
$MENU
  1
.
  9
$ELEVATION
 40
0.0
  9
$PELEVATION
 40
0.0
  9
$THICKNESS
 40
0.0
  9
$LIMCHECK
 70
     0
  9
$BLIPMODE
 70
     1
  9
$CHAMFERA
 40
2.5
  9
$CHAMFERB
 40
2.5
  9
$CHAMFERC
 40
0.0
  9
$CHAMFERD
 40
0.0
  9
$SKPOLY
 70
     0
  9
$TDCREATE
 40
0.000000000
  9
$TDUPDATE
 40
0.000000000
  9
$TDINDWG
 40
0.0000000000
  9
$TDUSRTIMER
 40
0.0000000000
  9
$USRTIMER
 70
     1
  9
$ANGBASE
 50
0.0
  9
$ANGDIR
 70
     0
  9
$PDMODE
 70
     0
  9
$PDSIZE
 40
0.0
  9
$PLINEWID
 40
0.0
  9
$COORDS
 70
     0
  9
$SPLFRAME
 70
     0
  9
$SPLINETYPE
 70
     6
  9
$SPLINESEGS
 70
     8
  9
$ATTDIA
 70
     0
  9
$ATTREQ
 70
     1
  9
$HANDLING
 70
     1
  9
$HANDSEED
  5
224
  9
$SURFTAB1
 70
     6
  9
$SURFTAB2
 70
     6
  9
$SURFTYPE
 70
     6
  9
$SURFU
 70
     6
  9
$SURFV
 70
     6
  9
$UCSNAME
  2

  9
$UCSORG
 10
0.0
 20
0.0
 30
0.0
  9
$UCSXDIR
 10
1.0
 20
0.0
 30
0.0
  9
$UCSYDIR
 10
0.0
 20
1.0
 30
0.0
  9
$PUCSNAME
  2

  9
$PUCSORG
 10
0.0
 20
0.0
 30
0.0
  9
$PUCSXDIR
 10
1.0
 20
0.0
 30
0.0
  9
$PUCSYDIR
 10
0.0
 20
1.0
 30
0.0
  9
$USERI1
 70
     0
  9
$USERI2
 70
     0
  9
$USERI3
 70
     0
  9
$USERI4
 70
     0
  9
$USERI5
 70
     0
  9
$USERR1
 40
0.0
  9
$USERR2
 40
0.0
  9
$USERR3
 40
0.0
  9
$USERR4
 40
0.0
  9
$USERR5
 40
0.0
  9
$WORLDVIEW
 70
     1
  9
$SHADEDGE
 70
     3
  9
$SHADEDIF
 70
    70
  9
$TILEMODE
 70
     1
  9
$MAXACTVP
 70
    48
  9
$PINSBASE
 10
0.0
 20
0.0
 30
0.0
  9
$PLIMCHECK
 70
     0
  9
$PEXTMIN
 10
0.0
 20
0.0
 30
0.0
  9
$PEXTMAX
 10
377.550598
 20
361.83139
 30
2.0
  9
$PLIMMIN
 10
0.0
 20
0.0
  9
$PLIMMAX
 10
420.0
 20
297.0
  9
$UNITMODE
 70
     0
  9
$VISRETAIN
 70
     0
  9
$PLINEGEN
 70
     0
  9
$PSLTSCALE
 70
     1
  9
$TREEDEPTH
 70
  3020
  9
$PICKSTYLE
 70
     1
  9
$CMLSTYLE
  2
STANDARD
  9
$CMLJUST
 70
     0
  9
$CMLSCALE
 40
20.0
  9
$PROXYGRAPHICS
 70
     1
  9
$MEASUREMENT
 70
     1
  0
ENDSEC
  0
SECTION
  2
CLASSES
  0
CLASS
  1
LWPOLYLINE
  2
AcDbPolyline
  3
"AutoCAD"
 90
        0
280
     0
281
     1
  0
CLASS
  1
IMAGE
  2
AcDbRasterImage
  3
ISM
 90
      127
280
     0
281
     1
  0
CLASS
  1
OLE2FRAME
  2
AcDbOle2Frame
  3
""
 90
        0
280
     0
281
     1
  0
CLASS
  1
HATCH
  2
AcDbHatch
  3
"ACAD_SEDONA"
 90
        0
280
     0
281
     1
  0
CLASS
  1
DICTIONARYVAR
  2
AcDbDictionaryVar
  3
"AutoCAD"
 90
        0
280
     0
281
     0
  0
CLASS
  1
RASTERVARIABLES
  2
AcDbRasterVariables
  3
ISM
 90
        0
280
     0
281
     0
  0
CLASS
  1
IMAGEDEF
  2
AcDbRasterImageDef
  3
ISM
 90
        0
280
     0
281
     0
  0
CLASS
  1
IMAGEDEF_REACTOR
  2
AcDbRasterImageDefReactor
  3
ISM
 90
        1
280
     0
281
     0
  0
CLASS
  1
IDBUFFER
  2
AcDbIdBuffer
  3
"Acad"
 90
        0
280
     0
281
     0
  0
CLASS
  1
SPATIAL_FILTER
  2
AcDbSpatialFilter
  3
"Acad"
 90
        0
280
     0
281
     0
  0
CLASS
  1
XRECORD
  2
AcDbXrecord
  3
"<Built In>"
 90
        0
280
     0
281
     0
  0
CLASS
  1
SORTENTSTABLE
  2
AcDbSortentsTable
  3
"AutoCAD"
 90
        0
280
     0
281
     0
  0
CLASS
  1
LAYER_INDEX
  2
AcDbLayerIndex
  3
"Acad"
 90
        0
280
     0
281
     0
  0
CLASS
  1
SPATIAL_INDEX
  2
AcDbSpatialIndex
  3
"Acad"
 90
        0
280
     0
281
     0
  0
CLASS
  1
OBJECT_PTR
  2
CAseDLPNTableRecord
  3
"ASE-LPNTableRecord"
 90
        1
280
     0
281
     0
  0
CLASS
  1
LAYOUT
  2
AcDbLayout
  3
"AutoCAD 2000"
 90
        0
280
     0
281
     0
  0
CLASS
  1
PLOTSETTINGS
  2
AcDbPlotSettings
  3
"AutoCAD 2000"
 90
        0
280
     0
281
     0
  0
CLASS
  1
ACDBDICTIONARYWDFLT
  2
AcDbDictionaryWithDefault
  3
"AutoCAD 2000"
 90
        0
280
     0
281
     0
  0
CLASS
  1
ACDBPLACEHOLDER
  2
AcDbPlaceHolder
  3
"AutoCAD 2000"
 90
        0
280
     0
281
     0
  0
CLASS
  1
VBA_PROJECT
  2
AcDbVbaProject
  3
"acadvba"
 90
        0
280
     0
281
     0
  0
CLASS
  1
WIPEOUT
  2
AcDbWipeout
  3
WipeOut|AutoCAD Express Tool|expresstools@autodesk.com
 90
      127
280
     0
281
     1
  0
CLASS
  1
WIPEOUTVARIABLES
  2
AcDbWipeoutVariables
  3
WipeOut|AutoCAD Express Tool|expresstools@autodesk.com
 90
        0
280
     0
281
     0
  0
CLASS
  1
RTEXT
  2
RText
  3
RText|AutoCAD Express Tool|expresstools@autodesk.com
 90
        0
280
     0
281
     1
  0
CLASS
  1
ARCALIGNEDTEXT
  2
AcDbArcAlignedText
  3
ATEXT|AutoCAD Express Tool|expresstools@autodesk.com
 90
        0
280
     0
281
     1
  0
ENDSEC
  0
SECTION
  2
TABLES
  0
TABLE
  2
VPORT
  5
7
100
AcDbSymbolTable
 70
     1
  0
VPORT
  5
15
100
AcDbSymbolTableRecord
100
AcDbViewportTableRecord
  2
*ACTIVE
 70
     0
 10
0.0
 20
0.0
 11
1.0
 21
1.0
 12
6.591288
 22
4.579184
 13
0.0
 23
0.0
 14
1.0
 24
1.0
 15
0.0
 25
0.0
 16
0.0
 26
0.0
 36
1.0
 17
0.0
 27
0.0
 37
0.0
 40
9.158369
 41
0.688564
 42
50.0
 43
0.0
 44
0.0
 50
0.0
 51
0.0
 71
     0
 72
   100
 73
     1
 74
     1
 75
     0
 76
     0
 77
     0
 78
     0
  0
ENDTAB
  0
TABLE
  2
LTYPE
  5
4
100
AcDbSymbolTable
 70
     3
  0
LTYPE
  5
11
100
AcDbSymbolTableRecord
100
AcDbLinetypeTableRecord
  2
BYBLOCK
 70
    64
  3

 72
    65
 73
     0
 40
0.0
  0
LTYPE
  5
12
100
AcDbSymbolTableRecord
100
AcDbLinetypeTableRecord
  2
BYLAYER
 70
    64
  3

 72
    65
 73
     0
 40
0.0
  0
LTYPE
  5
13
100
AcDbSymbolTableRecord
100
AcDbLinetypeTableRecord
  2
CONTINUOUS
 70
    64
  3
Solid line
 72
    65
 73
     0
 40
0.0
  0
ENDTAB
  0
TABLE
  2
LAYER
  5
2
100
AcDbSymbolTable
 70
     1
  0
LAYER
  5
14
100
AcDbSymbolTableRecord
100
AcDbLayerTableRecord
  2
0
 70
     0
 62
     7
  6
CONTINUOUS
  0
ENDTAB
  0
TABLE
  2
STYLE
  5
3
100
AcDbSymbolTable
 70
     1
  0
STYLE
  5
17
100
AcDbSymbolTableRecord
100
AcDbTextStyleTableRecord
  2
STANDARD
 70
     0
 40
0.0
 41
1.0
 50
0.0
 71
     0
 42
0.0
  3
txt
  4

  0
ENDTAB
  0
TABLE
  2
VIEW
  5
5
100
AcDbSymbolTable
 70
     0
  0
ENDTAB
  0
TABLE
  2
UCS
  5
6
100
AcDbSymbolTable
 70
     0
  0
ENDTAB
  0
TABLE
  2
APPID
  5
8
100
AcDbSymbolTable
 70
     1
  0
APPID
  5
16
100
AcDbSymbolTableRecord
100
AcDbRegAppTableRecord
  2
ACAD
 70
     0
  0
ENDTAB
  0
TABLE
  2
DIMSTYLE
  5
9
100
AcDbSymbolTable
 70
     1
  0
DIMSTYLE
105
18
100
AcDbSymbolTableRecord
100
AcDbDimStyleTableRecord
  2
STANDARD
 70
     0
  3

  4

  5

  6

  7

 40
1.0
 41
0.18
 42
0.0625
 43
0.38
 44
0.18
 45
0.0
 46
0.0
 47
0.0
 48
0.0
 71
     0
 72
     0
 73
     1
 74
     1
 75
     0
 76
     0
 77
     0
 78
     0
140
0.18
141
0.09
142
0.0
143
25.4
144
1.0
145
0.0
146
1.0
147
0.09
170
     0
171
     2
172
     0
173
     0
174
     0
175
     0
176
     0
177
     0
178
     0
270
     2
271
     4
272
     4
273
     2
274
     2
275
     0
280
     0
281
     0
282
     0
283
     1
284
     0
285
     0
286
     0
287
     3
288
     0
340
17
  0
ENDTAB
  0
TABLE
  2
BLOCK_RECORD
  5
1
100
AcDbSymbolTable
 70
     0
  0
BLOCK_RECORD
  5
A
100
AcDbSymbolTableRecord
100
AcDbBlockTableRecord
  2
*MODEL_SPACE
  0
BLOCK_RECORD
  5
B
100
AcDbSymbolTableRecord
100
AcDbBlockTableRecord
  2
*PAPER_SPACE
  0
ENDTAB
  0
ENDSEC
  0
SECTION
  2
BLOCKS
  0
BLOCK
  5
D
100
AcDbEntity
  8
0
100
AcDbBlockBegin
  2
*MODEL_SPACE
 70
     0
 10
0.0
 20
0.0
 30
0.0
  3
*MODEL_SPACE
  1

  0
ENDBLK
  5
E
100
AcDbEntity
  8
0
100
AcDbBlockEnd
  0
BLOCK
  5
F
100
AcDbEntity
 67
     1
  8
0
100
AcDbBlockBegin
  2
*PAPER_SPACE
 70
     0
 10
0.0
 20
0.0
 30
0.0
  3
*PAPER_SPACE
  1

  0
ENDBLK
  5
10
100
AcDbEntity
 67
     1
  8
0
100
AcDbBlockEnd
  0
ENDSEC
  0
SECTION
  2
ENTITIES
  0
VIEWPORT
  5
223
100
AcDbEntity
 67
     1
  8
0
 62
     0
 48
0.0
100
AcDbViewport
 10
0.0
 20
0.0
 30
0.0
 40
1000.0
 41
1000.0
 68
     1
 69
     1
1001
ACAD
1000
MVIEW
1002
{
1070
    16
1010
0.0
1020
0.0
1030
0.0
1010
0.0
1020
0.0
1030
1.0
1040
0.0
1040
1000.0
1040
0.0
1040
0.0
1040
50.0
1040
0.0
1040
0.0
1070
     0
1070
   100
1070
     1
1070
     1
1070
     0
1070
     0
1070
     0
1070
     0
1040
0.0
1040
0.0
1040
0.0
1040
1.0
1040
1.0
1040
1.0
1040
1.0
1070
     0
1002
{
1002
}
1002
}
  0
LINE
  5
1D
100
AcDbEntity
  8
0
 62
     7
100
AcDbLine
 10
220.0
 20
208.5
 30
0.0
 11
77.0
 21
208.5
 31
0.0
210
0.0
220
0.0
230
1.0
  0
LINE
  5
1E
100
AcDbEntity
  8
0
 62
     7
 48
0.25875
100
AcDbLine
 10
77.0
 20
177.449997
 30
0.0
 11
77.0
 21
187.800003
 31
0.0
210
0.0
220
0.0
230
1.0
  0
LINE
  5
1F
100
AcDbEntity
  8
0
 62
     7
 48
0.25875
100
AcDbLine
 10
77.0
 20
198.149994
 30
0.0
 11
77.0
 21
208.5
 31
0.0
210
0.0
220
0.0
230
1.0
  0
LINE
  5
20
100
AcDbEntity
  8
0
 62
     7
 48
0.25875
100
AcDbLine
 10
77.0
 20
156.75
 30
0.0
 11
77.0
 21
167.100006
 31
0.0
210
0.0
220
0.0
230
1.0
  0
LINE
  5
21
100
AcDbEntity
  8
0
 62
     7
 48
0.25875
100
AcDbLine
 10
77.0
 20
136.050003
 30
0.0
 11
77.0
 21
146.399994
 31
0.0
210
0.0
220
0.0
230
1.0
  0
LINE
  5
22
100
AcDbEntity
  8
0
 62
     7
 48
0.25875
100
AcDbLine
 10
77.0
 20
115.349998
 30
0.0
 11
77.0
 21
125.699997
 31
0.0
210
0.0
220
0.0
230
1.0
  0
LINE
  5
23
100
AcDbEntity
  8
0
 62
     7
 48
0.25875
100
AcDbLine
 10
77.0
 20
94.650002
 30
0.0
 11
77.0
 21
105.0
 31
0.0
210
0.0
220
0.0
230
1.0
  0
LINE
  5
24
100
AcDbEntity
  8
0
 62
     7
 48
0.25875
100
AcDbLine
 10
77.0
 20
73.949997
 30
0.0
 11
77.0
 21
84.300003
 31
0.0
210
0.0
220
0.0
230
1.0
  0
LINE
  5
25
100
AcDbEntity
  8
0
 62
     7
 48
0.25875
100
AcDbLine
 10
77.0
 20
53.25
 30
0.0
 11
77.0
 21
63.599998
 31
0.0
210
0.0
220
0.0
230
1.0
  0
LINE
  5
26
100
AcDbEntity
  8
0
 62
     7
 48
0.25875
100
AcDbLine
 10
77.0
 20
32.549999
 30
0.0
 11
77.0
 21
42.900002
 31
0.0
210
0.0
220
0.0
230
1.0
  0
LINE
  5
27
100
AcDbEntity
  8
0
 62
     7
 48
0.25875
100
AcDbLine
 10
77.0
 20
11.85
 30
0.0
 11
77.0
 21
22.200001
 31
0.0
210
0.0
220
0.0
230
1.0
  0
LINE
  5
28
100
AcDbEntity
  8
0
 62
     7
 48
0.075
100
AcDbLine
 10
80.0
 20
177.449997
 30
0.0
 11
77.0
 21
177.449997
 31
0.0
210
0.0
220
0.0
230
1.0
  0
LINE
  5
29
100
AcDbEntity
  8
0
 62
     7
 48
0.25875
100
AcDbLine
 10
80.0
 20
177.449997
 30
0.0
 11
80.0
 21
167.100006
 31
0.0
210
0.0
220
0.0
230
1.0
  0
LINE
  5
2A
100
AcDbEntity
  8
0
 62
     7
 48
0.075
100
AcDbLine
 10
80.0
 20
167.100006
 30
0.0
 11
77.0
 21
167.100006
 31
0.0
210
0.0
220
0.0
230
1.0
  0
LINE
  5
2B
100
AcDbEntity
  8
0
 62
     7
 48
0.075
100
AcDbLine
 10
80.0
 20
146.399994
 30
0.0
 11
77.0
 21
146.399994
 31
0.0
210
0.0
220
0.0
230
1.0
  0
LINE
  5
2C
100
AcDbEntity
  8
0
 62
     7
 48
0.25875
100
AcDbLine
 10
80.0
 20
156.75
 30
0.0
 11
80.0
 21
146.399994
 31
0.0
210
0.0
220
0.0
230
1.0
  0
LINE
  5
2D
100
AcDbEntity
  8
0
 62
     7
 48
0.075
100
AcDbLine
 10
80.0
 20
156.75
 30
0.0
 11
77.0
 21
156.75
 31
0.0
210
0.0
220
0.0
230
1.0
  0
LINE
  5
2E
100
AcDbEntity
  8
0
 62
     7
 48
0.075
100
AcDbLine
 10
80.0
 20
136.050003
 30
0.0
 11
77.0
 21
136.050003
 31
0.0
210
0.0
220
0.0
230
1.0
  0
LINE
  5
2F
100
AcDbEntity
  8
0
 62
     7
 48
0.25875
100
AcDbLine
 10
80.0
 20
136.050003
 30
0.0
 11
80.0
 21
125.699997
 31
0.0
210
0.0
220
0.0
230
1.0
  0
LINE
  5
30
100
AcDbEntity
  8
0
 62
     7
 48
0.075
100
AcDbLine
 10
80.0
 20
125.699997
 30
0.0
 11
77.0
 21
125.699997
 31
0.0
210
0.0
220
0.0
230
1.0
  0
LINE
  5
31
100
AcDbEntity
  8
0
 62
     7
 48
0.075
100
AcDbLine
 10
80.0
 20
105.0
 30
0.0
 11
77.0
 21
105.0
 31
0.0
210
0.0
220
0.0
230
1.0
  0
LINE
  5
32
100
AcDbEntity
  8
0
 62
     7
 48
0.25875
100
AcDbLine
 10
80.0
 20
115.349998
 30
0.0
 11
80.0
 21
105.0
 31
0.0
210
0.0
220
0.0
230
1.0
  0
LINE
  5
33
100
AcDbEntity
  8
0
 62
     7
 48
0.075
100
AcDbLine
 10
80.0
 20
115.349998
 30
0.0
 11
77.0
 21
115.349998
 31
0.0
210
0.0
220
0.0
230
1.0
  0
LINE
  5
34
100
AcDbEntity
  8
0
 62
     7
 48
0.075
100
AcDbLine
 10
80.0
 20
94.650002
 30
0.0
 11
77.0
 21
94.650002
 31
0.0
210
0.0
220
0.0
230
1.0
  0
LINE
  5
35
100
AcDbEntity
  8
0
 62
     7
 48
0.25875
100
AcDbLine
 10
80.0
 20
94.650002
 30
0.0
 11
80.0
 21
84.300003
 31
0.0
210
0.0
220
0.0
230
1.0
  0
LINE
  5
36
100
AcDbEntity
  8
0
 62
     7
 48
0.075
100
AcDbLine
 10
80.0
 20
84.300003
 30
0.0
 11
77.0
 21
84.300003
 31
0.0
210
0.0
220
0.0
230
1.0
  0
LINE
  5
37
100
AcDbEntity
  8
0
 62
     7
 48
0.075
100
AcDbLine
 10
80.0
 20
73.949997
 30
0.0
 11
77.0
 21
73.949997
 31
0.0
210
0.0
220
0.0
230
1.0
  0
LINE
  5
38
100
AcDbEntity
  8
0
 62
     7
 48
0.1475
100
AcDbLine
 10
80.0
 20
69.5
 30
0.0
 11
80.0
 21
63.599998
 31
0.0
210
0.0
220
0.0
230
1.0
  0
LINE
  5
39
100
AcDbEntity
  8
0
 62
     7
 48
0.075
100
AcDbLine
 10
80.0
 20
69.5
 30
0.0
 11
80.0
 21
72.5
 31
0.0
210
0.0
220
0.0
230
1.0
  0
LINE
  5
3A
100
AcDbEntity
  8
0
 62
     7
 48
0.03625
100
AcDbLine
 10
80.0
 20
73.949997
 30
0.0
 11
80.0
 21
72.5
 31
0.0
210
0.0
220
0.0
230
1.0
  0
LINE
  5
3B
100
AcDbEntity
  8
0
 62
     7
 48
0.075
100
AcDbLine
 10
80.0
 20
63.599998
 30
0.0
 11
77.0
 21
63.599998
 31
0.0
210
0.0
220
0.0
230
1.0
  0
LINE
  5
3C
100
AcDbEntity
  8
0
 62
     7
 48
0.075
100
AcDbLine
 10
80.0
 20
53.25
 30
0.0
 11
77.0
 21
53.25
 31
0.0
210
0.0
220
0.0
230
1.0
  0
LINE
  5
3D
100
AcDbEntity
  8
0
 62
     7
 48
0.25875
100
AcDbLine
 10
80.0
 20
53.25
 30
0.0
 11
80.0
 21
42.900002
 31
0.0
210
0.0
220
0.0
230
1.0
  0
LINE
  5
3E
100
AcDbEntity
  8
0
 62
     7
 48
0.075
100
AcDbLine
 10
80.0
 20
42.900002
 30
0.0
 11
77.0
 21
42.900002
 31
0.0
210
0.0
220
0.0
230
1.0
  0
LINE
  5
3F
100
AcDbEntity
  8
0
 62
     7
 48
0.075
100
AcDbLine
 10
80.0
 20
22.200001
 30
0.0
 11
77.0
 21
22.200001
 31
0.0
210
0.0
220
0.0
230
1.0
  0
LINE
  5
40
100
AcDbEntity
  8
0
 62
     7
 48
0.25875
100
AcDbLine
 10
80.0
 20
32.549999
 30
0.0
 11
80.0
 21
22.200001
 31
0.0
210
0.0
220
0.0
230
1.0
  0
LINE
  5
41
100
AcDbEntity
  8
0
 62
     7
 48
0.075
100
AcDbLine
 10
80.0
 20
32.549999
 30
0.0
 11
77.0
 21
32.549999
 31
0.0
210
0.0
220
0.0
230
1.0
  0
LINE
  5
42
100
AcDbEntity
  8
0
 62
     7
 48
0.075
100
AcDbLine
 10
80.0
 20
11.85
 30
0.0
 11
77.0
 21
11.85
 31
0.0
210
0.0
220
0.0
230
1.0
  0
LINE
  5
43
100
AcDbEntity
  8
0
 62
     7
 48
0.075
100
AcDbLine
 10
80.0
 20
1.5
 30
0.0
 11
80.0
 21
4.5
 31
0.0
210
0.0
220
0.0
230
1.0
  0
LINE
  5
44
100
AcDbEntity
  8
0
 62
     7
 48
0.18375
100
AcDbLine
 10
80.0
 20
11.85
 30
0.0
 11
80.0
 21
4.5
 31
0.0
210
0.0
220
0.0
230
1.0
  0
LINE
  5
45
100
AcDbEntity
  8
0
 62
     7
 48
0.075
100
AcDbLine
 10
80.0
 20
198.149994
 30
0.0
 11
77.0
 21
198.149994
 31
0.0
210
0.0
220
0.0
230
1.0
  0
LINE
  5
46
100
AcDbEntity
  8
0
 62
     7
 48
0.25875
100
AcDbLine
 10
80.0
 20
198.149994
 30
0.0
 11
80.0
 21
187.800003
 31
0.0
210
0.0
220
0.0
230
1.0
  0
LINE
  5
47
100
AcDbEntity
  8
0
 62
     7
 48
0.075
100
AcDbLine
 10
80.0
 20
187.800003
 30
0.0
 11
77.0
 21
187.800003
 31
0.0
210
0.0
220
0.0
230
1.0
  0
LINE
  5
48
100
AcDbEntity
  8
0
 62
     7
100
AcDbLine
 10
80.0
 20
1.5
 30
0.0
 11
217.0
 21
1.5
 31
0.0
210
0.0
220
0.0
230
1.0
  0
LINE
  5
49
100
AcDbEntity
  8
0
 62
     7
 48
0.25875
100
AcDbLine
 10
220.0
 20
42.900002
 30
0.0
 11
220.0
 21
32.549999
 31
0.0
210
0.0
220
0.0
230
1.0
  0
LINE
  5
4A
100
AcDbEntity
  8
0
 62
     7
 48
0.25875
100
AcDbLine
 10
220.0
 20
22.200001
 30
0.0
 11
220.0
 21
11.85
 31
0.0
210
0.0
220
0.0
230
1.0
  0
LINE
  5
4B
100
AcDbEntity
  8
0
 62
     7
 48
0.25875
100
AcDbLine
 10
220.0
 20
63.599998
 30
0.0
 11
220.0
 21
53.25
 31
0.0
210
0.0
220
0.0
230
1.0
  0
LINE
  5
4C
100
AcDbEntity
  8
0
 62
     7
 48
0.25875
100
AcDbLine
 10
220.0
 20
84.300003
 30
0.0
 11
220.0
 21
73.949997
 31
0.0
210
0.0
220
0.0
230
1.0
  0
LINE
  5
4D
100
AcDbEntity
  8
0
 62
     7
 48
0.25875
100
AcDbLine
 10
220.0
 20
105.0
 30
0.0
 11
220.0
 21
94.650002
 31
0.0
210
0.0
220
0.0
230
1.0
  0
LINE
  5
4E
100
AcDbEntity
  8
0
 62
     7
 48
0.25875
100
AcDbLine
 10
220.0
 20
125.699997
 30
0.0
 11
220.0
 21
115.349998
 31
0.0
210
0.0
220
0.0
230
1.0
  0
LINE
  5
4F
100
AcDbEntity
  8
0
 62
     7
 48
0.25875
100
AcDbLine
 10
220.0
 20
146.399994
 30
0.0
 11
220.0
 21
136.050003
 31
0.0
210
0.0
220
0.0
230
1.0
  0
LINE
  5
50
100
AcDbEntity
  8
0
 62
     7
 48
0.25875
100
AcDbLine
 10
220.0
 20
167.100006
 30
0.0
 11
220.0
 21
156.75
 31
0.0
210
0.0
220
0.0
230
1.0
  0
LINE
  5
51
100
AcDbEntity
  8
0
 62
     7
 48
0.25875
100
AcDbLine
 10
220.0
 20
187.800003
 30
0.0
 11
220.0
 21
177.449997
 31
0.0
210
0.0
220
0.0
230
1.0
  0
LINE
  5
52
100
AcDbEntity
  8
0
 62
     7
 48
0.25875
100
AcDbLine
 10
220.0
 20
208.5
 30
0.0
 11
220.0
 21
198.149994
 31
0.0
210
0.0
220
0.0
230
1.0
  0
LINE
  5
53
100
AcDbEntity
  8
0
 62
     7
 48
0.075
100
AcDbLine
 10
220.0
 20
198.149994
 30
0.0
 11
217.0
 21
198.149994
 31
0.0
210
0.0
220
0.0
230
1.0
  0
LINE
  5
54
100
AcDbEntity
  8
0
 62
     7
 48
0.25875
100
AcDbLine
 10
217.0
 20
198.149994
 30
0.0
 11
217.0
 21
187.800003
 31
0.0
210
0.0
220
0.0
230
1.0
  0
LINE
  5
55
100
AcDbEntity
  8
0
 62
     7
 48
0.075
100
AcDbLine
 10
220.0
 20
187.800003
 30
0.0
 11
217.0
 21
187.800003
 31
0.0
210
0.0
220
0.0
230
1.0
  0
LINE
  5
56
100
AcDbEntity
  8
0
 62
     7
 48
0.075
100
AcDbLine
 10
220.0
 20
115.349998
 30
0.0
 11
217.0
 21
115.349998
 31
0.0
210
0.0
220
0.0
230
1.0
  0
LINE
  5
57
100
AcDbEntity
  8
0
 62
     7
 48
0.25875
100
AcDbLine
 10
217.0
 20
115.349998
 30
0.0
 11
217.0
 21
105.0
 31
0.0
210
0.0
220
0.0
230
1.0
  0
LINE
  5
58
100
AcDbEntity
  8
0
 62
     7
 48
0.075
100
AcDbLine
 10
220.0
 20
105.0
 30
0.0
 11
217.0
 21
105.0
 31
0.0
210
0.0
220
0.0
230
1.0
  0
LINE
  5
59
100
AcDbEntity
  8
0
 62
     7
 48
0.075
100
AcDbLine
 10
220.0
 20
73.949997
 30
0.0
 11
217.0
 21
73.949997
 31
0.0
210
0.0
220
0.0
230
1.0
  0
LINE
  5
5A
100
AcDbEntity
  8
0
 62
     7
 48
0.1475
100
AcDbLine
 10
217.0
 20
69.5
 30
0.0
 11
217.0
 21
63.599998
 31
0.0
210
0.0
220
0.0
230
1.0
  0
LINE
  5
5B
100
AcDbEntity
  8
0
 62
     7
 48
0.075
100
AcDbLine
 10
217.0
 20
72.5
 30
0.0
 11
217.0
 21
69.5
 31
0.0
210
0.0
220
0.0
230
1.0
  0
LINE
  5
5C
100
AcDbEntity
  8
0
 62
     7
 48
0.03625
100
AcDbLine
 10
217.0
 20
73.949997
 30
0.0
 11
217.0
 21
72.5
 31
0.0
210
0.0
220
0.0
230
1.0
  0
LINE
  5
5D
100
AcDbEntity
  8
0
 62
     7
 48
0.075
100
AcDbLine
 10
220.0
 20
63.599998
 30
0.0
 11
217.0
 21
63.599998
 31
0.0
210
0.0
220
0.0
230
1.0
  0
LINE
  5
5E
100
AcDbEntity
  8
0
 62
     7
 48
0.075
100
AcDbLine
 10
220.0
 20
94.650002
 30
0.0
 11
217.0
 21
94.650002
 31
0.0
210
0.0
220
0.0
230
1.0
  0
LINE
  5
5F
100
AcDbEntity
  8
0
 62
     7
 48
0.25875
100
AcDbLine
 10
217.0
 20
94.650002
 30
0.0
 11
217.0
 21
84.300003
 31
0.0
210
0.0
220
0.0
230
1.0
  0
LINE
  5
60
100
AcDbEntity
  8
0
 62
     7
 48
0.075
100
AcDbLine
 10
220.0
 20
84.300003
 30
0.0
 11
217.0
 21
84.300003
 31
0.0
210
0.0
220
0.0
230
1.0
  0
LINE
  5
61
100
AcDbEntity
  8
0
 62
     7
 48
0.25875
100
AcDbLine
 10
217.0
 20
53.25
 30
0.0
 11
217.0
 21
42.900002
 31
0.0
210
0.0
220
0.0
230
1.0
  0
LINE
  5
62
100
AcDbEntity
  8
0
 62
     7
 48
0.075
100
AcDbLine
 10
220.0
 20
42.900002
 30
0.0
 11
217.0
 21
42.900002
 31
0.0
210
0.0
220
0.0
230
1.0
  0
LINE
  5
63
100
AcDbEntity
  8
0
 62
     7
 48
0.075
100
AcDbLine
 10
220.0
 20
53.25
 30
0.0
 11
217.0
 21
53.25
 31
0.0
210
0.0
220
0.0
230
1.0
  0
LINE
  5
64
100
AcDbEntity
  8
0
 62
     7
 48
0.075
100
AcDbLine
 10
220.0
 20
146.399994
 30
0.0
 11
217.0
 21
146.399994
 31
0.0
210
0.0
220
0.0
230
1.0
  0
LINE
  5
65
100
AcDbEntity
  8
0
 62
     7
 48
0.075
100
AcDbLine
 10
220.0
 20
156.75
 30
0.0
 11
217.0
 21
156.75
 31
0.0
210
0.0
220
0.0
230
1.0
  0
LINE
  5
66
100
AcDbEntity
  8
0
 62
     7
 48
0.25875
100
AcDbLine
 10
217.0
 20
156.75
 30
0.0
 11
217.0
 21
146.399994
 31
0.0
210
0.0
220
0.0
230
1.0
  0
LINE
  5
67
100
AcDbEntity
  8
0
 62
     7
 48
0.075
100
AcDbLine
 10
220.0
 20
32.549999
 30
0.0
 11
217.0
 21
32.549999
 31
0.0
210
0.0
220
0.0
230
1.0
  0
LINE
  5
68
100
AcDbEntity
  8
0
 62
     7
 48
0.25875
100
AcDbLine
 10
217.0
 20
32.549999
 30
0.0
 11
217.0
 21
22.200001
 31
0.0
210
0.0
220
0.0
230
1.0
  0
LINE
  5
69
100
AcDbEntity
  8
0
 62
     7
 48
0.075
100
AcDbLine
 10
220.0
 20
22.200001
 30
0.0
 11
217.0
 21
22.200001
 31
0.0
210
0.0
220
0.0
230
1.0
  0
LINE
  5
6A
100
AcDbEntity
  8
0
 62
     7
 48
0.25875
100
AcDbLine
 10
217.0
 20
177.449997
 30
0.0
 11
217.0
 21
167.100006
 31
0.0
210
0.0
220
0.0
230
1.0
  0
LINE
  5
6B
100
AcDbEntity
  8
0
 62
     7
 48
0.075
100
AcDbLine
 10
220.0
 20
167.100006
 30
0.0
 11
217.0
 21
167.100006
 31
0.0
210
0.0
220
0.0
230
1.0
  0
LINE
  5
6C
100
AcDbEntity
  8
0
 62
     7
 48
0.075
100
AcDbLine
 10
220.0
 20
177.449997
 30
0.0
 11
217.0
 21
177.449997
 31
0.0
210
0.0
220
0.0
230
1.0
  0
LINE
  5
6D
100
AcDbEntity
  8
0
 62
     7
 48
0.075
100
AcDbLine
 10
220.0
 20
136.050003
 30
0.0
 11
217.0
 21
136.050003
 31
0.0
210
0.0
220
0.0
230
1.0
  0
LINE
  5
6E
100
AcDbEntity
  8
0
 62
     7
 48
0.25875
100
AcDbLine
 10
217.0
 20
136.050003
 30
0.0
 11
217.0
 21
125.699997
 31
0.0
210
0.0
220
0.0
230
1.0
  0
LINE
  5
6F
100
AcDbEntity
  8
0
 62
     7
 48
0.075
100
AcDbLine
 10
220.0
 20
125.699997
 30
0.0
 11
217.0
 21
125.699997
 31
0.0
210
0.0
220
0.0
230
1.0
  0
LINE
  5
70
100
AcDbEntity
  8
0
 62
     7
 48
0.075
100
AcDbLine
 10
220.0
 20
11.85
 30
0.0
 11
217.0
 21
11.85
 31
0.0
210
0.0
220
0.0
230
1.0
  0
LINE
  5
71
100
AcDbEntity
  8
0
 62
     7
 48
0.075
100
AcDbLine
 10
217.0
 20
4.5
 30
0.0
 11
217.0
 21
1.5
 31
0.0
210
0.0
220
0.0
230
1.0
  0
LINE
  5
72
100
AcDbEntity
  8
0
 62
     7
 48
0.18375
100
AcDbLine
 10
217.0
 20
11.85
 30
0.0
 11
217.0
 21
4.5
 31
0.0
210
0.0
220
0.0
230
1.0
  0
LINE
  5
73
100
AcDbEntity
  8
0
 62
     7
100
AcDbLine
 10
224.375916
 20
-2.564546
 30
0.0
 11
224.375916
 21
204.435455
 31
0.0
210
0.0
220
0.0
230
1.0
  0
LINE
  5
74
100
AcDbEntity
  8
0
 62
     7
 48
0.17
100
AcDbLine
 10
278.775909
 20
-2.564546
 30
0.0
 11
285.575928
 21
-2.564546
 31
0.0
210
0.0
220
0.0
230
1.0
  0
LINE
  5
75
100
AcDbEntity
  8
0
 62
     7
 48
0.075
100
AcDbLine
 10
289.375916
 20
-2.564546
 30
0.0
 11
292.375916
 21
-2.564546
 31
0.0
210
0.0
220
0.0
230
1.0
  0
LINE
  5
76
100
AcDbEntity
  8
0
 62
     7
 48
0.17
100
AcDbLine
 10
265.175903
 20
-2.564546
 30
0.0
 11
271.975922
 21
-2.564546
 31
0.0
210
0.0
220
0.0
230
1.0
  0
LINE
  5
77
100
AcDbEntity
  8
0
 62
     7
 48
0.17
100
AcDbLine
 10
251.575912
 20
-2.564546
 30
0.0
 11
258.375916
 21
-2.564546
 31
0.0
210
0.0
220
0.0
230
1.0
  0
LINE
  5
78
100
AcDbEntity
  8
0
 62
     7
 48
0.17
100
AcDbLine
 10
237.975922
 20
-2.564546
 30
0.0
 11
244.775909
 21
-2.564546
 31
0.0
210
0.0
220
0.0
230
1.0
  0
LINE
  5
79
100
AcDbEntity
  8
0
 62
     7
 48
0.17
100
AcDbLine
 10
224.375916
 20
-2.564546
 30
0.0
 11
231.175919
 21
-2.564546
 31
0.0
210
0.0
220
0.0
230
1.0
  0
LINE
  5
7A
100
AcDbEntity
  8
0
 62
     7
 48
0.075
100
AcDbLine
 10
244.775909
 20
-2.564546
 30
0.0
 11
244.775909
 21
0.435454
 31
0.0
210
0.0
220
0.0
230
1.0
  0
LINE
  5
7B
100
AcDbEntity
  8
0
 62
     7
 48
0.17
100
AcDbLine
 10
251.575912
 20
0.435454
 30
0.0
 11
244.775909
 21
0.435454
 31
0.0
210
0.0
220
0.0
230
1.0
  0
LINE
  5
7C
100
AcDbEntity
  8
0
 62
     7
 48
0.075
100
AcDbLine
 10
251.575912
 20
-2.564546
 30
0.0
 11
251.575912
 21
0.435454
 31
0.0
210
0.0
220
0.0
230
1.0
  0
LINE
  5
7D
100
AcDbEntity
  8
0
 62
     7
 48
0.075
100
AcDbLine
 10
231.175919
 20
-2.564546
 30
0.0
 11
231.175919
 21
0.435454
 31
0.0
210
0.0
220
0.0
230
1.0
  0
LINE
  5
7E
100
AcDbEntity
  8
0
 62
     7
 48
0.17
100
AcDbLine
 10
237.975922
 20
0.435454
 30
0.0
 11
231.175919
 21
0.435454
 31
0.0
210
0.0
220
0.0
230
1.0
  0
LINE
  5
7F
100
AcDbEntity
  8
0
 62
     7
 48
0.075
100
AcDbLine
 10
237.975922
 20
-2.564546
 30
0.0
 11
237.975922
 21
0.435454
 31
0.0
210
0.0
220
0.0
230
1.0
  0
LINE
  5
80
100
AcDbEntity
  8
0
 62
     7
 48
0.075
100
AcDbLine
 10
278.775909
 20
-2.564546
 30
0.0
 11
278.775909
 21
0.435454
 31
0.0
210
0.0
220
0.0
230
1.0
  0
LINE
  5
81
100
AcDbEntity
  8
0
 62
     7
 48
0.17
100
AcDbLine
 10
278.775909
 20
0.435454
 30
0.0
 11
271.975922
 21
0.435454
 31
0.0
210
0.0
220
0.0
230
1.0
  0
LINE
  5
82
100
AcDbEntity
  8
0
 62
     7
 48
0.075
100
AcDbLine
 10
271.975922
 20
-2.564546
 30
0.0
 11
271.975922
 21
0.435454
 31
0.0
210
0.0
220
0.0
230
1.0
  0
LINE
  5
83
100
AcDbEntity
  8
0
 62
     7
 48
0.075
100
AcDbLine
 10
265.175903
 20
-2.564546
 30
0.0
 11
265.175903
 21
0.435454
 31
0.0
210
0.0
220
0.0
230
1.0
  0
LINE
  5
84
100
AcDbEntity
  8
0
 62
     7
 48
0.17
100
AcDbLine
 10
265.175903
 20
0.435454
 30
0.0
 11
258.375916
 21
0.435454
 31
0.0
210
0.0
220
0.0
230
1.0
  0
LINE
  5
85
100
AcDbEntity
  8
0
 62
     7
 48
0.075
100
AcDbLine
 10
258.375916
 20
-2.564546
 30
0.0
 11
258.375916
 21
0.435454
 31
0.0
210
0.0
220
0.0
230
1.0
  0
LINE
  5
86
100
AcDbEntity
  8
0
 62
     7
 48
0.075
100
AcDbLine
 10
285.575928
 20
-2.564546
 30
0.0
 11
285.575928
 21
0.435454
 31
0.0
210
0.0
220
0.0
230
1.0
  0
LINE
  5
87
100
AcDbEntity
  8
0
 62
     7
 48
0.095
100
AcDbLine
 10
289.375916
 20
0.435454
 30
0.0
 11
285.575928
 21
0.435454
 31
0.0
210
0.0
220
0.0
230
1.0
  0
LINE
  5
88
100
AcDbEntity
  8
0
 62
     7
 48
0.075
100
AcDbLine
 10
289.375916
 20
-2.564546
 30
0.0
 11
289.375916
 21
0.435454
 31
0.0
210
0.0
220
0.0
230
1.0
  0
LINE
  5
89
100
AcDbEntity
  8
0
 62
     7
 48
0.075
100
AcDbLine
 10
244.775909
 20
65.435455
 30
0.0
 11
244.775909
 21
68.435455
 31
0.0
210
0.0
220
0.0
230
1.0
  0
LINE
  5
8A
100
AcDbEntity
  8
0
 62
     7
 48
0.17
100
AcDbLine
 10
251.575912
 20
65.435455
 30
0.0
 11
244.775909
 21
65.435455
 31
0.0
210
0.0
220
0.0
230
1.0
  0
LINE
  5
8B
100
AcDbEntity
  8
0
 62
     7
 48
0.17
100
AcDbLine
 10
251.575912
 20
68.435455
 30
0.0
 11
244.775909
 21
68.435455
 31
0.0
210
0.0
220
0.0
230
1.0
  0
LINE
  5
8C
100
AcDbEntity
  8
0
 62
     7
 48
0.075
100
AcDbLine
 10
251.575912
 20
65.435455
 30
0.0
 11
251.575912
 21
68.435455
 31
0.0
210
0.0
220
0.0
230
1.0
  0
LINE
  5
8D
100
AcDbEntity
  8
0
 62
     7
 48
0.075
100
AcDbLine
 10
278.775909
 20
65.435455
 30
0.0
 11
278.775909
 21
68.435455
 31
0.0
210
0.0
220
0.0
230
1.0
  0
LINE
  5
8E
100
AcDbEntity
  8
0
 62
     7
 48
0.17
100
AcDbLine
 10
278.775909
 20
65.435455
 30
0.0
 11
271.975922
 21
65.435455
 31
0.0
210
0.0
220
0.0
230
1.0
  0
LINE
  5
8F
100
AcDbEntity
  8
0
 62
     7
 48
0.17
100
AcDbLine
 10
278.775909
 20
68.435455
 30
0.0
 11
271.975922
 21
68.435455
 31
0.0
210
0.0
220
0.0
230
1.0
  0
LINE
  5
90
100
AcDbEntity
  8
0
 62
     7
 48
0.075
100
AcDbLine
 10
271.975922
 20
65.435455
 30
0.0
 11
271.975922
 21
68.435455
 31
0.0
210
0.0
220
0.0
230
1.0
  0
LINE
  5
91
100
AcDbEntity
  8
0
 62
     7
 48
0.075
100
AcDbLine
 10
285.575928
 20
65.435455
 30
0.0
 11
285.575928
 21
68.435455
 31
0.0
210
0.0
220
0.0
230
1.0
  0
LINE
  5
92
100
AcDbEntity
  8
0
 62
     7
 48
0.095
100
AcDbLine
 10
289.375916
 20
65.435455
 30
0.0
 11
285.575928
 21
65.435455
 31
0.0
210
0.0
220
0.0
230
1.0
  0
LINE
  5
93
100
AcDbEntity
  8
0
 62
     7
 48
0.095
100
AcDbLine
 10
289.375916
 20
68.435455
 30
0.0
 11
285.575928
 21
68.435455
 31
0.0
210
0.0
220
0.0
230
1.0
  0
LINE
  5
94
100
AcDbEntity
  8
0
 62
     7
 48
0.075
100
AcDbLine
 10
289.375916
 20
65.435455
 30
0.0
 11
289.375916
 21
68.435455
 31
0.0
210
0.0
220
0.0
230
1.0
  0
LINE
  5
95
100
AcDbEntity
  8
0
 62
     7
 48
0.075
100
AcDbLine
 10
265.175903
 20
65.435455
 30
0.0
 11
265.175903
 21
68.435455
 31
0.0
210
0.0
220
0.0
230
1.0
  0
LINE
  5
96
100
AcDbEntity
  8
0
 62
     7
 48
0.17
100
AcDbLine
 10
265.175903
 20
65.435455
 30
0.0
 11
258.375916
 21
65.435455
 31
0.0
210
0.0
220
0.0
230
1.0
  0
LINE
  5
97
100
AcDbEntity
  8
0
 62
     7
 48
0.17
100
AcDbLine
 10
265.175903
 20
68.435455
 30
0.0
 11
258.375916
 21
68.435455
 31
0.0
210
0.0
220
0.0
230
1.0
  0
LINE
  5
98
100
AcDbEntity
  8
0
 62
     7
 48
0.075
100
AcDbLine
 10
258.375916
 20
65.435455
 30
0.0
 11
258.375916
 21
68.435455
 31
0.0
210
0.0
220
0.0
230
1.0
  0
LINE
  5
99
100
AcDbEntity
  8
0
 62
     7
 48
0.075
100
AcDbLine
 10
231.175919
 20
65.435455
 30
0.0
 11
231.175919
 21
68.435455
 31
0.0
210
0.0
220
0.0
230
1.0
  0
LINE
  5
9A
100
AcDbEntity
  8
0
 62
     7
 48
0.17
100
AcDbLine
 10
237.975922
 20
65.435455
 30
0.0
 11
231.175919
 21
65.435455
 31
0.0
210
0.0
220
0.0
230
1.0
  0
LINE
  5
9B
100
AcDbEntity
  8
0
 62
     7
 48
0.17
100
AcDbLine
 10
237.975922
 20
68.435455
 30
0.0
 11
231.175919
 21
68.435455
 31
0.0
210
0.0
220
0.0
230
1.0
  0
LINE
  5
9C
100
AcDbEntity
  8
0
 62
     7
 48
0.075
100
AcDbLine
 10
237.975922
 20
65.435455
 30
0.0
 11
237.975922
 21
68.435455
 31
0.0
210
0.0
220
0.0
230
1.0
  0
LINE
  5
9D
100
AcDbEntity
  8
0
 62
     7
 48
0.075
100
AcDbLine
 10
244.775909
 20
133.435455
 30
0.0
 11
244.775909
 21
136.435455
 31
0.0
210
0.0
220
0.0
230
1.0
  0
LINE
  5
9E
100
AcDbEntity
  8
0
 62
     7
 48
0.17
100
AcDbLine
 10
251.575912
 20
133.435455
 30
0.0
 11
244.775909
 21
133.435455
 31
0.0
210
0.0
220
0.0
230
1.0
  0
LINE
  5
9F
100
AcDbEntity
  8
0
 62
     7
 48
0.17
100
AcDbLine
 10
251.575912
 20
136.435455
 30
0.0
 11
244.775909
 21
136.435455
 31
0.0
210
0.0
220
0.0
230
1.0
  0
LINE
  5
A0
100
AcDbEntity
  8
0
 62
     7
 48
0.075
100
AcDbLine
 10
251.575912
 20
133.435455
 30
0.0
 11
251.575912
 21
136.435455
 31
0.0
210
0.0
220
0.0
230
1.0
  0
LINE
  5
A1
100
AcDbEntity
  8
0
 62
     7
 48
0.075
100
AcDbLine
 10
278.775909
 20
133.435455
 30
0.0
 11
278.775909
 21
136.435455
 31
0.0
210
0.0
220
0.0
230
1.0
  0
LINE
  5
A2
100
AcDbEntity
  8
0
 62
     7
 48
0.17
100
AcDbLine
 10
278.775909
 20
133.435455
 30
0.0
 11
271.975922
 21
133.435455
 31
0.0
210
0.0
220
0.0
230
1.0
  0
LINE
  5
A3
100
AcDbEntity
  8
0
 62
     7
 48
0.17
100
AcDbLine
 10
278.775909
 20
136.435455
 30
0.0
 11
271.975922
 21
136.435455
 31
0.0
210
0.0
220
0.0
230
1.0
  0
LINE
  5
A4
100
AcDbEntity
  8
0
 62
     7
 48
0.075
100
AcDbLine
 10
271.975922
 20
133.435455
 30
0.0
 11
271.975922
 21
136.435455
 31
0.0
210
0.0
220
0.0
230
1.0
  0
LINE
  5
A5
100
AcDbEntity
  8
0
 62
     7
 48
0.075
100
AcDbLine
 10
285.575928
 20
133.435455
 30
0.0
 11
285.575928
 21
136.435455
 31
0.0
210
0.0
220
0.0
230
1.0
  0
LINE
  5
A6
100
AcDbEntity
  8
0
 62
     7
 48
0.095
100
AcDbLine
 10
289.375916
 20
133.435455
 30
0.0
 11
285.575928
 21
133.435455
 31
0.0
210
0.0
220
0.0
230
1.0
  0
LINE
  5
A7
100
AcDbEntity
  8
0
 62
     7
 48
0.095
100
AcDbLine
 10
289.375916
 20
136.435455
 30
0.0
 11
285.575928
 21
136.435455
 31
0.0
210
0.0
220
0.0
230
1.0
  0
LINE
  5
A8
100
AcDbEntity
  8
0
 62
     7
 48
0.075
100
AcDbLine
 10
265.175903
 20
133.435455
 30
0.0
 11
265.175903
 21
136.435455
 31
0.0
210
0.0
220
0.0
230
1.0
  0
LINE
  5
A9
100
AcDbEntity
  8
0
 62
     7
 48
0.17
100
AcDbLine
 10
265.175903
 20
133.435455
 30
0.0
 11
258.375916
 21
133.435455
 31
0.0
210
0.0
220
0.0
230
1.0
  0
LINE
  5
AA
100
AcDbEntity
  8
0
 62
     7
 48
0.17
100
AcDbLine
 10
265.175903
 20
136.435455
 30
0.0
 11
258.375916
 21
136.435455
 31
0.0
210
0.0
220
0.0
230
1.0
  0
LINE
  5
AB
100
AcDbEntity
  8
0
 62
     7
 48
0.075
100
AcDbLine
 10
258.375916
 20
133.435455
 30
0.0
 11
258.375916
 21
136.435455
 31
0.0
210
0.0
220
0.0
230
1.0
  0
LINE
  5
AC
100
AcDbEntity
  8
0
 62
     7
 48
0.075
100
AcDbLine
 10
231.175919
 20
133.435455
 30
0.0
 11
231.175919
 21
136.435455
 31
0.0
210
0.0
220
0.0
230
1.0
  0
LINE
  5
AD
100
AcDbEntity
  8
0
 62
     7
 48
0.17
100
AcDbLine
 10
237.975922
 20
133.435455
 30
0.0
 11
231.175919
 21
133.435455
 31
0.0
210
0.0
220
0.0
230
1.0
  0
LINE
  5
AE
100
AcDbEntity
  8
0
 62
     7
 48
0.17
100
AcDbLine
 10
237.975922
 20
136.435455
 30
0.0
 11
231.175919
 21
136.435455
 31
0.0
210
0.0
220
0.0
230
1.0
  0
LINE
  5
AF
100
AcDbEntity
  8
0
 62
     7
 48
0.075
100
AcDbLine
 10
237.975922
 20
133.435455
 30
0.0
 11
237.975922
 21
136.435455
 31
0.0
210
0.0
220
0.0
230
1.0
  0
LINE
  5
B0
100
AcDbEntity
  8
0
 62
     7
 48
0.17
100
AcDbLine
 10
244.775909
 20
204.435455
 30
0.0
 11
237.975922
 21
204.435455
 31
0.0
210
0.0
220
0.0
230
1.0
  0
LINE
  5
B1
100
AcDbEntity
  8
0
 62
     7
 48
0.17
100
AcDbLine
 10
231.175919
 20
204.435455
 30
0.0
 11
224.375916
 21
204.435455
 31
0.0
210
0.0
220
0.0
230
1.0
  0
LINE
  5
B2
100
AcDbEntity
  8
0
 62
     7
 48
0.17
100
AcDbLine
 10
258.375916
 20
204.435455
 30
0.0
 11
251.575912
 21
204.435455
 31
0.0
210
0.0
220
0.0
230
1.0
  0
LINE
  5
B3
100
AcDbEntity
  8
0
 62
     7
 48
0.17
100
AcDbLine
 10
271.975922
 20
204.435455
 30
0.0
 11
265.175903
 21
204.435455
 31
0.0
210
0.0
220
0.0
230
1.0
  0
LINE
  5
B4
100
AcDbEntity
  8
0
 62
     7
 48
0.17
100
AcDbLine
 10
285.575928
 20
204.435455
 30
0.0
 11
278.775909
 21
204.435455
 31
0.0
210
0.0
220
0.0
230
1.0
  0
LINE
  5
B5
100
AcDbEntity
  8
0
 62
     7
 48
0.075
100
AcDbLine
 10
285.575928
 20
201.435455
 30
0.0
 11
285.575928
 21
204.435455
 31
0.0
210
0.0
220
0.0
230
1.0
  0
LINE
  5
B6
100
AcDbEntity
  8
0
 62
     7
 48
0.095
100
AcDbLine
 10
289.375916
 20
201.435455
 30
0.0
 11
285.575928
 21
201.435455
 31
0.0
210
0.0
220
0.0
230
1.0
  0
LINE
  5
B7
100
AcDbEntity
  8
0
 62
     7
 48
0.075
100
AcDbLine
 10
244.775909
 20
201.435455
 30
0.0
 11
244.775909
 21
204.435455
 31
0.0
210
0.0
220
0.0
230
1.0
  0
LINE
  5
B8
100
AcDbEntity
  8
0
 62
     7
 48
0.17
100
AcDbLine
 10
251.575912
 20
201.435455
 30
0.0
 11
244.775909
 21
201.435455
 31
0.0
210
0.0
220
0.0
230
1.0
  0
LINE
  5
B9
100
AcDbEntity
  8
0
 62
     7
 48
0.075
100
AcDbLine
 10
251.575912
 20
201.435455
 30
0.0
 11
251.575912
 21
204.435455
 31
0.0
210
0.0
220
0.0
230
1.0
  0
LINE
  5
BA
100
AcDbEntity
  8
0
 62
     7
 48
0.075
100
AcDbLine
 10
265.175903
 20
201.435455
 30
0.0
 11
265.175903
 21
204.435455
 31
0.0
210
0.0
220
0.0
230
1.0
  0
LINE
  5
BB
100
AcDbEntity
  8
0
 62
     7
 48
0.17
100
AcDbLine
 10
265.175903
 20
201.435455
 30
0.0
 11
258.375916
 21
201.435455
 31
0.0
210
0.0
220
0.0
230
1.0
  0
LINE
  5
BC
100
AcDbEntity
  8
0
 62
     7
 48
0.075
100
AcDbLine
 10
258.375916
 20
201.435455
 30
0.0
 11
258.375916
 21
204.435455
 31
0.0
210
0.0
220
0.0
230
1.0
  0
LINE
  5
BD
100
AcDbEntity
  8
0
 62
     7
 48
0.075
100
AcDbLine
 10
278.775909
 20
201.435455
 30
0.0
 11
278.775909
 21
204.435455
 31
0.0
210
0.0
220
0.0
230
1.0
  0
LINE
  5
BE
100
AcDbEntity
  8
0
 62
     7
 48
0.17
100
AcDbLine
 10
278.775909
 20
201.435455
 30
0.0
 11
271.975922
 21
201.435455
 31
0.0
210
0.0
220
0.0
230
1.0
  0
LINE
  5
BF
100
AcDbEntity
  8
0
 62
     7
 48
0.075
100
AcDbLine
 10
271.975922
 20
201.435455
 30
0.0
 11
271.975922
 21
204.435455
 31
0.0
210
0.0
220
0.0
230
1.0
  0
LINE
  5
C0
100
AcDbEntity
  8
0
 62
     7
 48
0.075
100
AcDbLine
 10
231.175919
 20
201.435455
 30
0.0
 11
231.175919
 21
204.435455
 31
0.0
210
0.0
220
0.0
230
1.0
  0
LINE
  5
C1
100
AcDbEntity
  8
0
 62
     7
 48
0.17
100
AcDbLine
 10
237.975922
 20
201.435455
 30
0.0
 11
231.175919
 21
201.435455
 31
0.0
210
0.0
220
0.0
230
1.0
  0
LINE
  5
C2
100
AcDbEntity
  8
0
 62
     7
 48
0.075
100
AcDbLine
 10
237.975922
 20
201.435455
 30
0.0
 11
237.975922
 21
204.435455
 31
0.0
210
0.0
220
0.0
230
1.0
  0
LINE
  5
C3
100
AcDbEntity
  8
0
 62
     7
 48
0.03625
100
AcDbLine
 10
289.375916
 20
133.435455
 30
0.0
 11
289.375916
 21
131.985458
 31
0.0
210
0.0
220
0.0
230
1.0
  0
LINE
  5
C4
100
AcDbEntity
  8
0
 62
     7
 48
0.075
100
AcDbLine
 10
289.375916
 20
131.985458
 30
0.0
 11
292.375916
 21
131.985458
 31
0.0
210
0.0
220
0.0
230
1.0
  0
LINE
  5
C5
100
AcDbEntity
  8
0
 62
     7
 48
0.25875
100
AcDbLine
 10
292.375916
 20
131.985458
 30
0.0
 11
292.375916
 21
121.635452
 31
0.0
210
0.0
220
0.0
230
1.0
  0
LINE
  5
C6
100
AcDbEntity
  8
0
 62
     7
 48
0.075
100
AcDbLine
 10
292.375916
 20
121.635452
 30
0.0
 11
289.375916
 21
121.635452
 31
0.0
210
0.0
220
0.0
230
1.0
  0
LINE
  5
C7
100
AcDbEntity
  8
0
 62
     7
 48
0.25875
100
AcDbLine
 10
289.375916
 20
121.635452
 30
0.0
 11
289.375916
 21
111.285454
 31
0.0
210
0.0
220
0.0
230
1.0
  0
LINE
  5
C8
100
AcDbEntity
  8
0
 62
     7
 48
0.075
100
AcDbLine
 10
289.375916
 20
111.285454
 30
0.0
 11
292.375916
 21
111.285454
 31
0.0
210
0.0
220
0.0
230
1.0
  0
LINE
  5
C9
100
AcDbEntity
  8
0
 62
     7
 48
0.25875
100
AcDbLine
 10
292.375916
 20
111.285454
 30
0.0
 11
292.375916
 21
100.935455
 31
0.0
210
0.0
220
0.0
230
1.0
  0
LINE
  5
CA
100
AcDbEntity
  8
0
 62
     7
 48
0.075
100
AcDbLine
 10
292.375916
 20
100.935455
 30
0.0
 11
289.375916
 21
100.935455
 31
0.0
210
0.0
220
0.0
230
1.0
  0
LINE
  5
CB
100
AcDbEntity
  8
0
 62
     7
 48
0.25875
100
AcDbLine
 10
289.375916
 20
100.935455
 30
0.0
 11
289.375916
 21
90.585457
 31
0.0
210
0.0
220
0.0
230
1.0
  0
LINE
  5
CC
100
AcDbEntity
  8
0
 62
     7
 48
0.075
100
AcDbLine
 10
289.375916
 20
90.585457
 30
0.0
 11
292.375916
 21
90.585457
 31
0.0
210
0.0
220
0.0
230
1.0
  0
LINE
  5
CD
100
AcDbEntity
  8
0
 62
     7
 48
0.25875
100
AcDbLine
 10
292.375916
 20
90.585457
 30
0.0
 11
292.375916
 21
80.235458
 31
0.0
210
0.0
220
0.0
230
1.0
  0
LINE
  5
CE
100
AcDbEntity
  8
0
 62
     7
 48
0.075
100
AcDbLine
 10
292.375916
 20
80.235458
 30
0.0
 11
289.375916
 21
80.235458
 31
0.0
210
0.0
220
0.0
230
1.0
  0
LINE
  5
CF
100
AcDbEntity
  8
0
 62
     7
 48
0.25875
100
AcDbLine
 10
289.375916
 20
80.235458
 30
0.0
 11
289.375916
 21
69.885452
 31
0.0
210
0.0
220
0.0
230
1.0
  0
LINE
  5
D0
100
AcDbEntity
  8
0
 62
     7
 48
0.075
100
AcDbLine
 10
289.375916
 20
69.885452
 30
0.0
 11
292.375916
 21
69.885452
 31
0.0
210
0.0
220
0.0
230
1.0
  0
LINE
  5
D1
100
AcDbEntity
  8
0
 62
     7
 48
0.25875
100
AcDbLine
 10
292.375916
 20
69.885452
 30
0.0
 11
292.375916
 21
59.535454
 31
0.0
210
0.0
220
0.0
230
1.0
  0
LINE
  5
D2
100
AcDbEntity
  8
0
 62
     7
 48
0.075
100
AcDbLine
 10
292.375916
 20
59.535454
 30
0.0
 11
289.375916
 21
59.535454
 31
0.0
210
0.0
220
0.0
230
1.0
  0
LINE
  5
D3
100
AcDbEntity
  8
0
 62
     7
 48
0.25875
100
AcDbLine
 10
289.375916
 20
59.535454
 30
0.0
 11
289.375916
 21
49.185455
 31
0.0
210
0.0
220
0.0
230
1.0
  0
LINE
  5
D4
100
AcDbEntity
  8
0
 62
     7
 48
0.075
100
AcDbLine
 10
289.375916
 20
49.185455
 30
0.0
 11
292.375916
 21
49.185455
 31
0.0
210
0.0
220
0.0
230
1.0
  0
LINE
  5
D5
100
AcDbEntity
  8
0
 62
     7
 48
0.25875
100
AcDbLine
 10
292.375916
 20
49.185455
 30
0.0
 11
292.375916
 21
38.835457
 31
0.0
210
0.0
220
0.0
230
1.0
  0
LINE
  5
D6
100
AcDbEntity
  8
0
 62
     7
 48
0.075
100
AcDbLine
 10
292.375916
 20
38.835457
 30
0.0
 11
289.375916
 21
38.835457
 31
0.0
210
0.0
220
0.0
230
1.0
  0
LINE
  5
D7
100
AcDbEntity
  8
0
 62
     7
 48
0.25875
100
AcDbLine
 10
289.375916
 20
38.835457
 30
0.0
 11
289.375916
 21
28.485453
 31
0.0
210
0.0
220
0.0
230
1.0
  0
LINE
  5
D8
100
AcDbEntity
  8
0
 62
     7
 48
0.075
100
AcDbLine
 10
289.375916
 20
28.485453
 30
0.0
 11
292.375916
 21
28.485453
 31
0.0
210
0.0
220
0.0
230
1.0
  0
LINE
  5
D9
100
AcDbEntity
  8
0
 62
     7
 48
0.25875
100
AcDbLine
 10
292.375916
 20
28.485453
 30
0.0
 11
292.375916
 21
18.135454
 31
0.0
210
0.0
220
0.0
230
1.0
  0
LINE
  5
DA
100
AcDbEntity
  8
0
 62
     7
 48
0.075
100
AcDbLine
 10
292.375916
 20
18.135454
 30
0.0
 11
289.375916
 21
18.135454
 31
0.0
210
0.0
220
0.0
230
1.0
  0
LINE
  5
DB
100
AcDbEntity
  8
0
 62
     7
 48
0.25875
100
AcDbLine
 10
289.375916
 20
18.135454
 30
0.0
 11
289.375916
 21
7.785454
 31
0.0
210
0.0
220
0.0
230
1.0
  0
LINE
  5
DC
100
AcDbEntity
  8
0
 62
     7
 48
0.075
100
AcDbLine
 10
289.375916
 20
7.785454
 30
0.0
 11
292.375916
 21
7.785454
 31
0.0
210
0.0
220
0.0
230
1.0
  0
LINE
  5
DD
100
AcDbEntity
  8
0
 62
     7
 48
0.25875
100
AcDbLine
 10
292.375916
 20
7.785454
 30
0.0
 11
292.375916
 21
-2.564546
 31
0.0
210
0.0
220
0.0
230
1.0
  0
LINE
  5
DE
100
AcDbEntity
  8
0
 62
     7
 48
0.18375
100
AcDbLine
 10
289.375916
 20
201.435455
 30
0.0
 11
289.375916
 21
194.085449
 31
0.0
210
0.0
220
0.0
230
1.0
  0
LINE
  5
DF
100
AcDbEntity
  8
0
 62
     7
 48
0.075
100
AcDbLine
 10
289.375916
 20
194.085449
 30
0.0
 11
292.375916
 21
194.085449
 31
0.0
210
0.0
220
0.0
230
1.0
  0
LINE
  5
E0
100
AcDbEntity
  8
0
 62
     7
 48
0.25875
100
AcDbLine
 10
292.375916
 20
194.085449
 30
0.0
 11
292.375916
 21
183.735458
 31
0.0
210
0.0
220
0.0
230
1.0
  0
LINE
  5
E1
100
AcDbEntity
  8
0
 62
     7
 48
0.075
100
AcDbLine
 10
292.375916
 20
183.735458
 30
0.0
 11
289.375916
 21
183.735458
 31
0.0
210
0.0
220
0.0
230
1.0
  0
LINE
  5
E2
100
AcDbEntity
  8
0
 62
     7
 48
0.25875
100
AcDbLine
 10
289.375916
 20
183.735458
 30
0.0
 11
289.375916
 21
173.385452
 31
0.0
210
0.0
220
0.0
230
1.0
  0
LINE
  5
E3
100
AcDbEntity
  8
0
 62
     7
 48
0.075
100
AcDbLine
 10
289.375916
 20
173.385452
 30
0.0
 11
292.375916
 21
173.385452
 31
0.0
210
0.0
220
0.0
230
1.0
  0
LINE
  5
E4
100
AcDbEntity
  8
0
 62
     7
 48
0.25875
100
AcDbLine
 10
292.375916
 20
173.385452
 30
0.0
 11
292.375916
 21
163.035461
 31
0.0
210
0.0
220
0.0
230
1.0
  0
LINE
  5
E5
100
AcDbEntity
  8
0
 62
     7
 48
0.075
100
AcDbLine
 10
292.375916
 20
163.035461
 30
0.0
 11
289.375916
 21
163.035461
 31
0.0
210
0.0
220
0.0
230
1.0
  0
LINE
  5
E6
100
AcDbEntity
  8
0
 62
     7
 48
0.25875
100
AcDbLine
 10
289.375916
 20
163.035461
 30
0.0
 11
289.375916
 21
152.685455
 31
0.0
210
0.0
220
0.0
230
1.0
  0
LINE
  5
E7
100
AcDbEntity
  8
0
 62
     7
 48
0.075
100
AcDbLine
 10
289.375916
 20
152.685455
 30
0.0
 11
292.375916
 21
152.685455
 31
0.0
210
0.0
220
0.0
230
1.0
  0
LINE
  5
E8
100
AcDbEntity
  8
0
 62
     7
 48
0.25875
100
AcDbLine
 10
292.375916
 20
152.685455
 30
0.0
 11
292.375916
 21
142.335449
 31
0.0
210
0.0
220
0.0
230
1.0
  0
LINE
  5
E9
100
AcDbEntity
  8
0
 62
     7
 48
0.075
100
AcDbLine
 10
292.375916
 20
142.335449
 30
0.0
 11
289.375916
 21
142.335449
 31
0.0
210
0.0
220
0.0
230
1.0
  0
LINE
  5
EA
100
AcDbEntity
  8
0
 62
     7
 48
0.1475
100
AcDbLine
 10
289.375916
 20
142.335449
 30
0.0
 11
289.375916
 21
136.435455
 31
0.0
210
0.0
220
0.0
230
1.0
  0
LINE
  5
EB
100
AcDbEntity
  8
0
 62
     7
100
AcDbLine
 10
309.550598
 20
-1.705663
 30
0.0
 11
309.550598
 21
205.294342
 31
0.0
210
0.0
220
0.0
230
1.0
  0
LINE
  5
EC
100
AcDbEntity
  8
0
 62
     7
 48
0.17
100
AcDbLine
 10
363.950592
 20
-1.705663
 30
0.0
 11
370.75061
 21
-1.705663
 31
0.0
210
0.0
220
0.0
230
1.0
  0
LINE
  5
ED
100
AcDbEntity
  8
0
 62
     7
 48
0.075
100
AcDbLine
 10
374.550598
 20
-1.705663
 30
0.0
 11
377.550598
 21
-1.705663
 31
0.0
210
0.0
220
0.0
230
1.0
  0
LINE
  5
EE
100
AcDbEntity
  8
0
 62
     7
 48
0.17
100
AcDbLine
 10
350.350586
 20
-1.705663
 30
0.0
 11
357.150604
 21
-1.705663
 31
0.0
210
0.0
220
0.0
230
1.0
  0
LINE
  5
EF
100
AcDbEntity
  8
0
 62
     7
 48
0.17
100
AcDbLine
 10
336.75061
 20
-1.705663
 30
0.0
 11
343.550598
 21
-1.705663
 31
0.0
210
0.0
220
0.0
230
1.0
  0
LINE
  5
F0
100
AcDbEntity
  8
0
 62
     7
 48
0.17
100
AcDbLine
 10
323.150604
 20
-1.705663
 30
0.0
 11
329.950592
 21
-1.705663
 31
0.0
210
0.0
220
0.0
230
1.0
  0
LINE
  5
F1
100
AcDbEntity
  8
0
 62
     7
 48
0.17
100
AcDbLine
 10
309.550598
 20
-1.705663
 30
0.0
 11
316.350586
 21
-1.705663
 31
0.0
210
0.0
220
0.0
230
1.0
  0
LINE
  5
F2
100
AcDbEntity
  8
0
 62
     7
 48
0.075
100
AcDbLine
 10
329.950592
 20
-1.705663
 30
0.0
 11
329.950592
 21
1.294337
 31
0.0
210
0.0
220
0.0
230
1.0
  0
LINE
  5
F3
100
AcDbEntity
  8
0
 62
     7
 48
0.17
100
AcDbLine
 10
336.75061
 20
1.294337
 30
0.0
 11
329.950592
 21
1.294337
 31
0.0
210
0.0
220
0.0
230
1.0
  0
LINE
  5
F4
100
AcDbEntity
  8
0
 62
     7
 48
0.075
100
AcDbLine
 10
336.75061
 20
-1.705663
 30
0.0
 11
336.75061
 21
1.294337
 31
0.0
210
0.0
220
0.0
230
1.0
  0
LINE
  5
F5
100
AcDbEntity
  8
0
 62
     7
 48
0.075
100
AcDbLine
 10
316.350586
 20
-1.705663
 30
0.0
 11
316.350586
 21
1.294337
 31
0.0
210
0.0
220
0.0
230
1.0
  0
LINE
  5
F6
100
AcDbEntity
  8
0
 62
     7
 48
0.17
100
AcDbLine
 10
323.150604
 20
1.294337
 30
0.0
 11
316.350586
 21
1.294337
 31
0.0
210
0.0
220
0.0
230
1.0
  0
LINE
  5
F7
100
AcDbEntity
  8
0
 62
     7
 48
0.075
100
AcDbLine
 10
323.150604
 20
-1.705663
 30
0.0
 11
323.150604
 21
1.294337
 31
0.0
210
0.0
220
0.0
230
1.0
  0
LINE
  5
F8
100
AcDbEntity
  8
0
 62
     7
 48
0.075
100
AcDbLine
 10
363.950592
 20
-1.705663
 30
0.0
 11
363.950592
 21
1.294337
 31
0.0
210
0.0
220
0.0
230
1.0
  0
LINE
  5
F9
100
AcDbEntity
  8
0
 62
     7
 48
0.17
100
AcDbLine
 10
363.950592
 20
1.294337
 30
0.0
 11
357.150604
 21
1.294337
 31
0.0
210
0.0
220
0.0
230
1.0
  0
LINE
  5
FA
100
AcDbEntity
  8
0
 62
     7
 48
0.075
100
AcDbLine
 10
357.150604
 20
-1.705663
 30
0.0
 11
357.150604
 21
1.294337
 31
0.0
210
0.0
220
0.0
230
1.0
  0
LINE
  5
FB
100
AcDbEntity
  8
0
 62
     7
 48
0.075
100
AcDbLine
 10
350.350586
 20
-1.705663
 30
0.0
 11
350.350586
 21
1.294337
 31
0.0
210
0.0
220
0.0
230
1.0
  0
LINE
  5
FC
100
AcDbEntity
  8
0
 62
     7
 48
0.17
100
AcDbLine
 10
350.350586
 20
1.294337
 30
0.0
 11
343.550598
 21
1.294337
 31
0.0
210
0.0
220
0.0
230
1.0
  0
LINE
  5
FD
100
AcDbEntity
  8
0
 62
     7
 48
0.075
100
AcDbLine
 10
343.550598
 20
-1.705663
 30
0.0
 11
343.550598
 21
1.294337
 31
0.0
210
0.0
220
0.0
230
1.0
  0
LINE
  5
FE
100
AcDbEntity
  8
0
 62
     7
 48
0.075
100
AcDbLine
 10
370.75061
 20
-1.705663
 30
0.0
 11
370.75061
 21
1.294337
 31
0.0
210
0.0
220
0.0
230
1.0
  0
LINE
  5
FF
100
AcDbEntity
  8
0
 62
     7
 48
0.095
100
AcDbLine
 10
374.550598
 20
1.294337
 30
0.0
 11
370.75061
 21
1.294337
 31
0.0
210
0.0
220
0.0
230
1.0
  0
LINE
  5
100
100
AcDbEntity
  8
0
 62
     7
 48
0.075
100
AcDbLine
 10
374.550598
 20
-1.705663
 30
0.0
 11
374.550598
 21
1.294337
 31
0.0
210
0.0
220
0.0
230
1.0
  0
LINE
  5
101
100
AcDbEntity
  8
0
 62
     7
 48
0.075
100
AcDbLine
 10
329.950592
 20
66.294334
 30
0.0
 11
329.950592
 21
69.294334
 31
0.0
210
0.0
220
0.0
230
1.0
  0
LINE
  5
102
100
AcDbEntity
  8
0
 62
     7
 48
0.17
100
AcDbLine
 10
336.75061
 20
66.294334
 30
0.0
 11
329.950592
 21
66.294334
 31
0.0
210
0.0
220
0.0
230
1.0
  0
LINE
  5
103
100
AcDbEntity
  8
0
 62
     7
 48
0.17
100
AcDbLine
 10
336.75061
 20
69.294334
 30
0.0
 11
329.950592
 21
69.294334
 31
0.0
210
0.0
220
0.0
230
1.0
  0
LINE
  5
104
100
AcDbEntity
  8
0
 62
     7
 48
0.075
100
AcDbLine
 10
336.75061
 20
66.294334
 30
0.0
 11
336.75061
 21
69.294334
 31
0.0
210
0.0
220
0.0
230
1.0
  0
LINE
  5
105
100
AcDbEntity
  8
0
 62
     7
 48
0.075
100
AcDbLine
 10
363.950592
 20
66.294334
 30
0.0
 11
363.950592
 21
69.294334
 31
0.0
210
0.0
220
0.0
230
1.0
  0
LINE
  5
106
100
AcDbEntity
  8
0
 62
     7
 48
0.17
100
AcDbLine
 10
363.950592
 20
66.294334
 30
0.0
 11
357.150604
 21
66.294334
 31
0.0
210
0.0
220
0.0
230
1.0
  0
LINE
  5
107
100
AcDbEntity
  8
0
 62
     7
 48
0.17
100
AcDbLine
 10
363.950592
 20
69.294334
 30
0.0
 11
357.150604
 21
69.294334
 31
0.0
210
0.0
220
0.0
230
1.0
  0
LINE
  5
108
100
AcDbEntity
  8
0
 62
     7
 48
0.075
100
AcDbLine
 10
357.150604
 20
66.294334
 30
0.0
 11
357.150604
 21
69.294334
 31
0.0
210
0.0
220
0.0
230
1.0
  0
LINE
  5
109
100
AcDbEntity
  8
0
 62
     7
 48
0.075
100
AcDbLine
 10
370.75061
 20
66.294334
 30
0.0
 11
370.75061
 21
69.294334
 31
0.0
210
0.0
220
0.0
230
1.0
  0
LINE
  5
10A
100
AcDbEntity
  8
0
 62
     7
 48
0.095
100
AcDbLine
 10
374.550598
 20
66.294334
 30
0.0
 11
370.75061
 21
66.294334
 31
0.0
210
0.0
220
0.0
230
1.0
  0
LINE
  5
10B
100
AcDbEntity
  8
0
 62
     7
 48
0.095
100
AcDbLine
 10
374.550598
 20
69.294334
 30
0.0
 11
370.75061
 21
69.294334
 31
0.0
210
0.0
220
0.0
230
1.0
  0
LINE
  5
10C
100
AcDbEntity
  8
0
 62
     7
 48
0.075
100
AcDbLine
 10
374.550598
 20
66.294334
 30
0.0
 11
374.550598
 21
69.294334
 31
0.0
210
0.0
220
0.0
230
1.0
  0
LINE
  5
10D
100
AcDbEntity
  8
0
 62
     7
 48
0.075
100
AcDbLine
 10
350.350586
 20
66.294334
 30
0.0
 11
350.350586
 21
69.294334
 31
0.0
210
0.0
220
0.0
230
1.0
  0
LINE
  5
10E
100
AcDbEntity
  8
0
 62
     7
 48
0.17
100
AcDbLine
 10
350.350586
 20
66.294334
 30
0.0
 11
343.550598
 21
66.294334
 31
0.0
210
0.0
220
0.0
230
1.0
  0
LINE
  5
10F
100
AcDbEntity
  8
0
 62
     7
 48
0.17
100
AcDbLine
 10
350.350586
 20
69.294334
 30
0.0
 11
343.550598
 21
69.294334
 31
0.0
210
0.0
220
0.0
230
1.0
  0
LINE
  5
110
100
AcDbEntity
  8
0
 62
     7
 48
0.075
100
AcDbLine
 10
343.550598
 20
66.294334
 30
0.0
 11
343.550598
 21
69.294334
 31
0.0
210
0.0
220
0.0
230
1.0
  0
LINE
  5
111
100
AcDbEntity
  8
0
 62
     7
 48
0.075
100
AcDbLine
 10
316.350586
 20
66.294334
 30
0.0
 11
316.350586
 21
69.294334
 31
0.0
210
0.0
220
0.0
230
1.0
  0
LINE
  5
112
100
AcDbEntity
  8
0
 62
     7
 48
0.17
100
AcDbLine
 10
323.150604
 20
66.294334
 30
0.0
 11
316.350586
 21
66.294334
 31
0.0
210
0.0
220
0.0
230
1.0
  0
LINE
  5
113
100
AcDbEntity
  8
0
 62
     7
 48
0.17
100
AcDbLine
 10
323.150604
 20
69.294334
 30
0.0
 11
316.350586
 21
69.294334
 31
0.0
210
0.0
220
0.0
230
1.0
  0
LINE
  5
114
100
AcDbEntity
  8
0
 62
     7
 48
0.075
100
AcDbLine
 10
323.150604
 20
66.294334
 30
0.0
 11
323.150604
 21
69.294334
 31
0.0
210
0.0
220
0.0
230
1.0
  0
LINE
  5
115
100
AcDbEntity
  8
0
 62
     7
 48
0.075
100
AcDbLine
 10
329.950592
 20
134.294342
 30
0.0
 11
329.950592
 21
137.294342
 31
0.0
210
0.0
220
0.0
230
1.0
  0
LINE
  5
116
100
AcDbEntity
  8
0
 62
     7
 48
0.17
100
AcDbLine
 10
336.75061
 20
134.294342
 30
0.0
 11
329.950592
 21
134.294342
 31
0.0
210
0.0
220
0.0
230
1.0
  0
LINE
  5
117
100
AcDbEntity
  8
0
 62
     7
 48
0.17
100
AcDbLine
 10
336.75061
 20
137.294342
 30
0.0
 11
329.950592
 21
137.294342
 31
0.0
210
0.0
220
0.0
230
1.0
  0
LINE
  5
118
100
AcDbEntity
  8
0
 62
     7
 48
0.075
100
AcDbLine
 10
336.75061
 20
134.294342
 30
0.0
 11
336.75061
 21
137.294342
 31
0.0
210
0.0
220
0.0
230
1.0
  0
LINE
  5
119
100
AcDbEntity
  8
0
 62
     7
 48
0.075
100
AcDbLine
 10
363.950592
 20
134.294342
 30
0.0
 11
363.950592
 21
137.294342
 31
0.0
210
0.0
220
0.0
230
1.0
  0
LINE
  5
11A
100
AcDbEntity
  8
0
 62
     7
 48
0.17
100
AcDbLine
 10
363.950592
 20
134.294342
 30
0.0
 11
357.150604
 21
134.294342
 31
0.0
210
0.0
220
0.0
230
1.0
  0
LINE
  5
11B
100
AcDbEntity
  8
0
 62
     7
 48
0.17
100
AcDbLine
 10
363.950592
 20
137.294342
 30
0.0
 11
357.150604
 21
137.294342
 31
0.0
210
0.0
220
0.0
230
1.0
  0
LINE
  5
11C
100
AcDbEntity
  8
0
 62
     7
 48
0.075
100
AcDbLine
 10
357.150604
 20
134.294342
 30
0.0
 11
357.150604
 21
137.294342
 31
0.0
210
0.0
220
0.0
230
1.0
  0
LINE
  5
11D
100
AcDbEntity
  8
0
 62
     7
 48
0.075
100
AcDbLine
 10
370.75061
 20
134.294342
 30
0.0
 11
370.75061
 21
137.294342
 31
0.0
210
0.0
220
0.0
230
1.0
  0
LINE
  5
11E
100
AcDbEntity
  8
0
 62
     7
 48
0.095
100
AcDbLine
 10
374.550598
 20
134.294342
 30
0.0
 11
370.75061
 21
134.294342
 31
0.0
210
0.0
220
0.0
230
1.0
  0
LINE
  5
11F
100
AcDbEntity
  8
0
 62
     7
 48
0.095
100
AcDbLine
 10
374.550598
 20
137.294342
 30
0.0
 11
370.75061
 21
137.294342
 31
0.0
210
0.0
220
0.0
230
1.0
  0
LINE
  5
120
100
AcDbEntity
  8
0
 62
     7
 48
0.075
100
AcDbLine
 10
350.350586
 20
134.294342
 30
0.0
 11
350.350586
 21
137.294342
 31
0.0
210
0.0
220
0.0
230
1.0
  0
LINE
  5
121
100
AcDbEntity
  8
0
 62
     7
 48
0.17
100
AcDbLine
 10
350.350586
 20
134.294342
 30
0.0
 11
343.550598
 21
134.294342
 31
0.0
210
0.0
220
0.0
230
1.0
  0
LINE
  5
122
100
AcDbEntity
  8
0
 62
     7
 48
0.17
100
AcDbLine
 10
350.350586
 20
137.294342
 30
0.0
 11
343.550598
 21
137.294342
 31
0.0
210
0.0
220
0.0
230
1.0
  0
LINE
  5
123
100
AcDbEntity
  8
0
 62
     7
 48
0.075
100
AcDbLine
 10
343.550598
 20
134.294342
 30
0.0
 11
343.550598
 21
137.294342
 31
0.0
210
0.0
220
0.0
230
1.0
  0
LINE
  5
124
100
AcDbEntity
  8
0
 62
     7
 48
0.075
100
AcDbLine
 10
316.350586
 20
134.294342
 30
0.0
 11
316.350586
 21
137.294342
 31
0.0
210
0.0
220
0.0
230
1.0
  0
LINE
  5
125
100
AcDbEntity
  8
0
 62
     7
 48
0.17
100
AcDbLine
 10
323.150604
 20
134.294342
 30
0.0
 11
316.350586
 21
134.294342
 31
0.0
210
0.0
220
0.0
230
1.0
  0
LINE
  5
126
100
AcDbEntity
  8
0
 62
     7
 48
0.17
100
AcDbLine
 10
323.150604
 20
137.294342
 30
0.0
 11
316.350586
 21
137.294342
 31
0.0
210
0.0
220
0.0
230
1.0
  0
LINE
  5
127
100
AcDbEntity
  8
0
 62
     7
 48
0.075
100
AcDbLine
 10
323.150604
 20
134.294342
 30
0.0
 11
323.150604
 21
137.294342
 31
0.0
210
0.0
220
0.0
230
1.0
  0
LINE
  5
128
100
AcDbEntity
  8
0
 62
     7
 48
0.17
100
AcDbLine
 10
329.950592
 20
205.294342
 30
0.0
 11
323.150604
 21
205.294342
 31
0.0
210
0.0
220
0.0
230
1.0
  0
LINE
  5
129
100
AcDbEntity
  8
0
 62
     7
 48
0.17
100
AcDbLine
 10
316.350586
 20
205.294342
 30
0.0
 11
309.550598
 21
205.294342
 31
0.0
210
0.0
220
0.0
230
1.0
  0
LINE
  5
12A
100
AcDbEntity
  8
0
 62
     7
 48
0.17
100
AcDbLine
 10
343.550598
 20
205.294342
 30
0.0
 11
336.75061
 21
205.294342
 31
0.0
210
0.0
220
0.0
230
1.0
  0
LINE
  5
12B
100
AcDbEntity
  8
0
 62
     7
 48
0.17
100
AcDbLine
 10
357.150604
 20
205.294342
 30
0.0
 11
350.350586
 21
205.294342
 31
0.0
210
0.0
220
0.0
230
1.0
  0
LINE
  5
12C
100
AcDbEntity
  8
0
 62
     7
 48
0.17
100
AcDbLine
 10
370.75061
 20
205.294342
 30
0.0
 11
363.950592
 21
205.294342
 31
0.0
210
0.0
220
0.0
230
1.0
  0
LINE
  5
12D
100
AcDbEntity
  8
0
 62
     7
 48
0.075
100
AcDbLine
 10
370.75061
 20
202.294342
 30
0.0
 11
370.75061
 21
205.294342
 31
0.0
210
0.0
220
0.0
230
1.0
  0
LINE
  5
12E
100
AcDbEntity
  8
0
 62
     7
 48
0.095
100
AcDbLine
 10
374.550598
 20
202.294342
 30
0.0
 11
370.75061
 21
202.294342
 31
0.0
210
0.0
220
0.0
230
1.0
  0
LINE
  5
12F
100
AcDbEntity
  8
0
 62
     7
 48
0.075
100
AcDbLine
 10
329.950592
 20
202.294342
 30
0.0
 11
329.950592
 21
205.294342
 31
0.0
210
0.0
220
0.0
230
1.0
  0
LINE
  5
130
100
AcDbEntity
  8
0
 62
     7
 48
0.17
100
AcDbLine
 10
336.75061
 20
202.294342
 30
0.0
 11
329.950592
 21
202.294342
 31
0.0
210
0.0
220
0.0
230
1.0
  0
LINE
  5
131
100
AcDbEntity
  8
0
 62
     7
 48
0.075
100
AcDbLine
 10
336.75061
 20
202.294342
 30
0.0
 11
336.75061
 21
205.294342
 31
0.0
210
0.0
220
0.0
230
1.0
  0
LINE
  5
132
100
AcDbEntity
  8
0
 62
     7
 48
0.075
100
AcDbLine
 10
350.350586
 20
202.294342
 30
0.0
 11
350.350586
 21
205.294342
 31
0.0
210
0.0
220
0.0
230
1.0
  0
LINE
  5
133
100
AcDbEntity
  8
0
 62
     7
 48
0.17
100
AcDbLine
 10
350.350586
 20
202.294342
 30
0.0
 11
343.550598
 21
202.294342
 31
0.0
210
0.0
220
0.0
230
1.0
  0
LINE
  5
134
100
AcDbEntity
  8
0
 62
     7
 48
0.075
100
AcDbLine
 10
343.550598
 20
202.294342
 30
0.0
 11
343.550598
 21
205.294342
 31
0.0
210
0.0
220
0.0
230
1.0
  0
LINE
  5
135
100
AcDbEntity
  8
0
 62
     7
 48
0.075
100
AcDbLine
 10
363.950592
 20
202.294342
 30
0.0
 11
363.950592
 21
205.294342
 31
0.0
210
0.0
220
0.0
230
1.0
  0
LINE
  5
136
100
AcDbEntity
  8
0
 62
     7
 48
0.17
100
AcDbLine
 10
363.950592
 20
202.294342
 30
0.0
 11
357.150604
 21
202.294342
 31
0.0
210
0.0
220
0.0
230
1.0
  0
LINE
  5
137
100
AcDbEntity
  8
0
 62
     7
 48
0.075
100
AcDbLine
 10
357.150604
 20
202.294342
 30
0.0
 11
357.150604
 21
205.294342
 31
0.0
210
0.0
220
0.0
230
1.0
  0
LINE
  5
138
100
AcDbEntity
  8
0
 62
     7
 48
0.075
100
AcDbLine
 10
316.350586
 20
202.294342
 30
0.0
 11
316.350586
 21
205.294342
 31
0.0
210
0.0
220
0.0
230
1.0
  0
LINE
  5
139
100
AcDbEntity
  8
0
 62
     7
 48
0.17
100
AcDbLine
 10
323.150604
 20
202.294342
 30
0.0
 11
316.350586
 21
202.294342
 31
0.0
210
0.0
220
0.0
230
1.0
  0
LINE
  5
13A
100
AcDbEntity
  8
0
 62
     7
 48
0.075
100
AcDbLine
 10
323.150604
 20
202.294342
 30
0.0
 11
323.150604
 21
205.294342
 31
0.0
210
0.0
220
0.0
230
1.0
  0
LINE
  5
13B
100
AcDbEntity
  8
0
 62
     7
 48
0.03625
100
AcDbLine
 10
374.550598
 20
134.294342
 30
0.0
 11
374.550598
 21
132.844345
 31
0.0
210
0.0
220
0.0
230
1.0
  0
LINE
  5
13C
100
AcDbEntity
  8
0
 62
     7
 48
0.075
100
AcDbLine
 10
374.550598
 20
132.844345
 30
0.0
 11
377.550598
 21
132.844345
 31
0.0
210
0.0
220
0.0
230
1.0
  0
LINE
  5
13D
100
AcDbEntity
  8
0
 62
     7
 48
0.25875
100
AcDbLine
 10
377.550598
 20
132.844345
 30
0.0
 11
377.550598
 21
122.494331
 31
0.0
210
0.0
220
0.0
230
1.0
  0
LINE
  5
13E
100
AcDbEntity
  8
0
 62
     7
 48
0.075
100
AcDbLine
 10
377.550598
 20
122.494331
 30
0.0
 11
374.550598
 21
122.494331
 31
0.0
210
0.0
220
0.0
230
1.0
  0
LINE
  5
13F
100
AcDbEntity
  8
0
 62
     7
 48
0.25875
100
AcDbLine
 10
374.550598
 20
122.494331
 30
0.0
 11
374.550598
 21
112.144333
 31
0.0
210
0.0
220
0.0
230
1.0
  0
LINE
  5
140
100
AcDbEntity
  8
0
 62
     7
 48
0.075
100
AcDbLine
 10
374.550598
 20
112.144333
 30
0.0
 11
377.550598
 21
112.144333
 31
0.0
210
0.0
220
0.0
230
1.0
  0
LINE
  5
141
100
AcDbEntity
  8
0
 62
     7
 48
0.25875
100
AcDbLine
 10
377.550598
 20
112.144333
 30
0.0
 11
377.550598
 21
101.794334
 31
0.0
210
0.0
220
0.0
230
1.0
  0
LINE
  5
142
100
AcDbEntity
  8
0
 62
     7
 48
0.075
100
AcDbLine
 10
377.550598
 20
101.794334
 30
0.0
 11
374.550598
 21
101.794334
 31
0.0
210
0.0
220
0.0
230
1.0
  0
LINE
  5
143
100
AcDbEntity
  8
0
 62
     7
 48
0.25875
100
AcDbLine
 10
374.550598
 20
101.794334
 30
0.0
 11
374.550598
 21
91.444336
 31
0.0
210
0.0
220
0.0
230
1.0
  0
LINE
  5
144
100
AcDbEntity
  8
0
 62
     7
 48
0.075
100
AcDbLine
 10
374.550598
 20
91.444336
 30
0.0
 11
377.550598
 21
91.444336
 31
0.0
210
0.0
220
0.0
230
1.0
  0
LINE
  5
145
100
AcDbEntity
  8
0
 62
     7
 48
0.25875
100
AcDbLine
 10
377.550598
 20
91.444336
 30
0.0
 11
377.550598
 21
81.094337
 31
0.0
210
0.0
220
0.0
230
1.0
  0
LINE
  5
146
100
AcDbEntity
  8
0
 62
     7
 48
0.075
100
AcDbLine
 10
377.550598
 20
81.094337
 30
0.0
 11
374.550598
 21
81.094337
 31
0.0
210
0.0
220
0.0
230
1.0
  0
LINE
  5
147
100
AcDbEntity
  8
0
 62
     7
 48
0.25875
100
AcDbLine
 10
374.550598
 20
81.094337
 30
0.0
 11
374.550598
 21
70.744331
 31
0.0
210
0.0
220
0.0
230
1.0
  0
LINE
  5
148
100
AcDbEntity
  8
0
 62
     7
 48
0.075
100
AcDbLine
 10
374.550598
 20
70.744331
 30
0.0
 11
377.550598
 21
70.744331
 31
0.0
210
0.0
220
0.0
230
1.0
  0
LINE
  5
149
100
AcDbEntity
  8
0
 62
     7
 48
0.25875
100
AcDbLine
 10
377.550598
 20
70.744331
 30
0.0
 11
377.550598
 21
60.394337
 31
0.0
210
0.0
220
0.0
230
1.0
  0
LINE
  5
14A
100
AcDbEntity
  8
0
 62
     7
 48
0.075
100
AcDbLine
 10
377.550598
 20
60.394337
 30
0.0
 11
374.550598
 21
60.394337
 31
0.0
210
0.0
220
0.0
230
1.0
  0
LINE
  5
14B
100
AcDbEntity
  8
0
 62
     7
 48
0.25875
100
AcDbLine
 10
374.550598
 20
60.394337
 30
0.0
 11
374.550598
 21
50.044338
 31
0.0
210
0.0
220
0.0
230
1.0
  0
LINE
  5
14C
100
AcDbEntity
  8
0
 62
     7
 48
0.075
100
AcDbLine
 10
374.550598
 20
50.044338
 30
0.0
 11
377.550598
 21
50.044338
 31
0.0
210
0.0
220
0.0
230
1.0
  0
LINE
  5
14D
100
AcDbEntity
  8
0
 62
     7
 48
0.25875
100
AcDbLine
 10
377.550598
 20
50.044338
 30
0.0
 11
377.550598
 21
39.69434
 31
0.0
210
0.0
220
0.0
230
1.0
  0
LINE
  5
14E
100
AcDbEntity
  8
0
 62
     7
 48
0.075
100
AcDbLine
 10
377.550598
 20
39.69434
 30
0.0
 11
374.550598
 21
39.69434
 31
0.0
210
0.0
220
0.0
230
1.0
  0
LINE
  5
14F
100
AcDbEntity
  8
0
 62
     7
 48
0.25875
100
AcDbLine
 10
374.550598
 20
39.69434
 30
0.0
 11
374.550598
 21
29.344336
 31
0.0
210
0.0
220
0.0
230
1.0
  0
LINE
  5
150
100
AcDbEntity
  8
0
 62
     7
 48
0.075
100
AcDbLine
 10
374.550598
 20
29.344336
 30
0.0
 11
377.550598
 21
29.344336
 31
0.0
210
0.0
220
0.0
230
1.0
  0
LINE
  5
151
100
AcDbEntity
  8
0
 62
     7
 48
0.25875
100
AcDbLine
 10
377.550598
 20
29.344336
 30
0.0
 11
377.550598
 21
18.994337
 31
0.0
210
0.0
220
0.0
230
1.0
  0
LINE
  5
152
100
AcDbEntity
  8
0
 62
     7
 48
0.075
100
AcDbLine
 10
377.550598
 20
18.994337
 30
0.0
 11
374.550598
 21
18.994337
 31
0.0
210
0.0
220
0.0
230
1.0
  0
LINE
  5
153
100
AcDbEntity
  8
0
 62
     7
 48
0.25875
100
AcDbLine
 10
374.550598
 20
18.994337
 30
0.0
 11
374.550598
 21
8.644337
 31
0.0
210
0.0
220
0.0
230
1.0
  0
LINE
  5
154
100
AcDbEntity
  8
0
 62
     7
 48
0.075
100
AcDbLine
 10
374.550598
 20
8.644337
 30
0.0
 11
377.550598
 21
8.644337
 31
0.0
210
0.0
220
0.0
230
1.0
  0
LINE
  5
155
100
AcDbEntity
  8
0
 62
     7
 48
0.25875
100
AcDbLine
 10
377.550598
 20
8.644337
 30
0.0
 11
377.550598
 21
-1.705663
 31
0.0
210
0.0
220
0.0
230
1.0
  0
LINE
  5
156
100
AcDbEntity
  8
0
 62
     7
 48
0.18375
100
AcDbLine
 10
374.550598
 20
202.294342
 30
0.0
 11
374.550598
 21
194.944336
 31
0.0
210
0.0
220
0.0
230
1.0
  0
LINE
  5
157
100
AcDbEntity
  8
0
 62
     7
 48
0.075
100
AcDbLine
 10
374.550598
 20
194.944336
 30
0.0
 11
377.550598
 21
194.944336
 31
0.0
210
0.0
220
0.0
230
1.0
  0
LINE
  5
158
100
AcDbEntity
  8
0
 62
     7
 48
0.25875
100
AcDbLine
 10
377.550598
 20
194.944336
 30
0.0
 11
377.550598
 21
184.594345
 31
0.0
210
0.0
220
0.0
230
1.0
  0
LINE
  5
159
100
AcDbEntity
  8
0
 62
     7
 48
0.075
100
AcDbLine
 10
377.550598
 20
184.594345
 30
0.0
 11
374.550598
 21
184.594345
 31
0.0
210
0.0
220
0.0
230
1.0
  0
LINE
  5
15A
100
AcDbEntity
  8
0
 62
     7
 48
0.25875
100
AcDbLine
 10
374.550598
 20
184.594345
 30
0.0
 11
374.550598
 21
174.244339
 31
0.0
210
0.0
220
0.0
230
1.0
  0
LINE
  5
15B
100
AcDbEntity
  8
0
 62
     7
 48
0.075
100
AcDbLine
 10
374.550598
 20
174.244339
 30
0.0
 11
377.550598
 21
174.244339
 31
0.0
210
0.0
220
0.0
230
1.0
  0
LINE
  5
15C
100
AcDbEntity
  8
0
 62
     7
 48
0.25875
100
AcDbLine
 10
377.550598
 20
174.244339
 30
0.0
 11
377.550598
 21
163.894348
 31
0.0
210
0.0
220
0.0
230
1.0
  0
LINE
  5
15D
100
AcDbEntity
  8
0
 62
     7
 48
0.075
100
AcDbLine
 10
377.550598
 20
163.894348
 30
0.0
 11
374.550598
 21
163.894348
 31
0.0
210
0.0
220
0.0
230
1.0
  0
LINE
  5
15E
100
AcDbEntity
  8
0
 62
     7
 48
0.25875
100
AcDbLine
 10
374.550598
 20
163.894348
 30
0.0
 11
374.550598
 21
153.544342
 31
0.0
210
0.0
220
0.0
230
1.0
  0
LINE
  5
15F
100
AcDbEntity
  8
0
 62
     7
 48
0.075
100
AcDbLine
 10
374.550598
 20
153.544342
 30
0.0
 11
377.550598
 21
153.544342
 31
0.0
210
0.0
220
0.0
230
1.0
  0
LINE
  5
160
100
AcDbEntity
  8
0
 62
     7
 48
0.25875
100
AcDbLine
 10
377.550598
 20
153.544342
 30
0.0
 11
377.550598
 21
143.194336
 31
0.0
210
0.0
220
0.0
230
1.0
  0
LINE
  5
161
100
AcDbEntity
  8
0
 62
     7
 48
0.075
100
AcDbLine
 10
377.550598
 20
143.194336
 30
0.0
 11
374.550598
 21
143.194336
 31
0.0
210
0.0
220
0.0
230
1.0
  0
LINE
  5
162
100
AcDbEntity
  8
0
 62
     7
 48
0.1475
100
AcDbLine
 10
374.550598
 20
143.194336
 30
0.0
 11
374.550598
 21
137.294342
 31
0.0
210
0.0
220
0.0
230
1.0
  0
LINE
  5
163
100
AcDbEntity
  8
0
 62
     7
100
AcDbLine
 10
218.65094
 20
284.613617
 30
0.0
 11
75.65094
 21
284.613617
 31
0.0
210
0.0
220
0.0
230
1.0
  0
LINE
  5
164
100
AcDbEntity
  8
0
 62
     7
 48
0.17
100
AcDbLine
 10
218.65094
 20
226.41362
 30
0.0
 11
218.65094
 21
233.213623
 31
0.0
210
0.0
220
0.0
230
1.0
  0
LINE
  5
165
100
AcDbEntity
  8
0
 62
     7
 48
0.17
100
AcDbLine
 10
218.65094
 20
240.013611
 30
0.0
 11
218.65094
 21
246.813614
 31
0.0
210
0.0
220
0.0
230
1.0
  0
LINE
  5
166
100
AcDbEntity
  8
0
 62
     7
 48
0.17
100
AcDbLine
 10
218.65094
 20
267.213623
 30
0.0
 11
218.65094
 21
274.013611
 31
0.0
210
0.0
220
0.0
230
1.0
  0
LINE
  5
167
100
AcDbEntity
  8
0
 62
     7
 48
0.095
100
AcDbLine
 10
218.65094
 20
280.813629
 30
0.0
 11
218.65094
 21
284.613617
 31
0.0
210
0.0
220
0.0
230
1.0
  0
LINE
  5
168
100
AcDbEntity
  8
0
 62
     7
 48
0.17
100
AcDbLine
 10
218.65094
 20
253.613617
 30
0.0
 11
218.65094
 21
260.413605
 31
0.0
210
0.0
220
0.0
230
1.0
  0
LINE
  5
169
100
AcDbEntity
  8
0
 62
     7
 48
0.17
100
AcDbLine
 10
75.65094
 20
274.013611
 30
0.0
 11
75.65094
 21
267.213623
 31
0.0
210
0.0
220
0.0
230
1.0
  0
LINE
  5
16A
100
AcDbEntity
  8
0
 62
     7
 48
0.095
100
AcDbLine
 10
75.65094
 20
284.613617
 30
0.0
 11
75.65094
 21
280.813629
 31
0.0
210
0.0
220
0.0
230
1.0
  0
LINE
  5
16B
100
AcDbEntity
  8
0
 62
     7
 48
0.17
100
AcDbLine
 10
75.65094
 20
260.413605
 30
0.0
 11
75.65094
 21
253.613617
 31
0.0
210
0.0
220
0.0
230
1.0
  0
LINE
  5
16C
100
AcDbEntity
  8
0
 62
     7
 48
0.17
100
AcDbLine
 10
75.65094
 20
246.813614
 30
0.0
 11
75.65094
 21
240.013611
 31
0.0
210
0.0
220
0.0
230
1.0
  0
LINE
  5
16D
100
AcDbEntity
  8
0
 62
     7
 48
0.17
100
AcDbLine
 10
75.65094
 20
233.213623
 30
0.0
 11
75.65094
 21
226.41362
 31
0.0
210
0.0
220
0.0
230
1.0
  0
LINE
  5
16E
100
AcDbEntity
  8
0
 62
     7
 48
0.075
100
AcDbLine
 10
218.65094
 20
226.41362
 30
0.0
 11
215.65094
 21
226.41362
 31
0.0
210
0.0
220
0.0
230
1.0
  0
LINE
  5
16F
100
AcDbEntity
  8
0
 62
     7
 48
0.17
100
AcDbLine
 10
215.65094
 20
219.613617
 30
0.0
 11
215.65094
 21
226.41362
 31
0.0
210
0.0
220
0.0
230
1.0
  0
LINE
  5
170
100
AcDbEntity
  8
0
 62
     7
 48
0.17
100
AcDbLine
 10
78.65094
 20
219.613617
 30
0.0
 11
78.65094
 21
226.41362
 31
0.0
210
0.0
220
0.0
230
1.0
  0
LINE
  5
171
100
AcDbEntity
  8
0
 62
     7
 48
0.075
100
AcDbLine
 10
75.65094
 20
226.41362
 30
0.0
 11
78.65094
 21
226.41362
 31
0.0
210
0.0
220
0.0
230
1.0
  0
LINE
  5
172
100
AcDbEntity
  8
0
 62
     7
 48
0.075
100
AcDbLine
 10
78.65094
 20
274.013611
 30
0.0
 11
75.65094
 21
274.013611
 31
0.0
210
0.0
220
0.0
230
1.0
  0
LINE
  5
173
100
AcDbEntity
  8
0
 62
     7
 48
0.17
100
AcDbLine
 10
78.65094
 20
274.013611
 30
0.0
 11
78.65094
 21
280.813629
 31
0.0
210
0.0
220
0.0
230
1.0
  0
LINE
  5
174
100
AcDbEntity
  8
0
 62
     7
 48
0.075
100
AcDbLine
 10
75.65094
 20
280.813629
 30
0.0
 11
78.65094
 21
280.813629
 31
0.0
210
0.0
220
0.0
230
1.0
  0
LINE
  5
175
100
AcDbEntity
  8
0
 62
     7
 48
0.075
100
AcDbLine
 10
218.65094
 20
280.813629
 30
0.0
 11
215.65094
 21
280.813629
 31
0.0
210
0.0
220
0.0
230
1.0
  0
LINE
  5
176
100
AcDbEntity
  8
0
 62
     7
 48
0.17
100
AcDbLine
 10
215.65094
 20
274.013611
 30
0.0
 11
215.65094
 21
280.813629
 31
0.0
210
0.0
220
0.0
230
1.0
  0
LINE
  5
177
100
AcDbEntity
  8
0
 62
     7
 48
0.075
100
AcDbLine
 10
215.65094
 20
274.013611
 30
0.0
 11
218.65094
 21
274.013611
 31
0.0
210
0.0
220
0.0
230
1.0
  0
LINE
  5
178
100
AcDbEntity
  8
0
 62
     7
 48
0.075
100
AcDbLine
 10
78.65094
 20
233.213623
 30
0.0
 11
75.65094
 21
233.213623
 31
0.0
210
0.0
220
0.0
230
1.0
  0
LINE
  5
179
100
AcDbEntity
  8
0
 62
     7
 48
0.17
100
AcDbLine
 10
78.65094
 20
233.213623
 30
0.0
 11
78.65094
 21
240.013611
 31
0.0
210
0.0
220
0.0
230
1.0
  0
LINE
  5
17A
100
AcDbEntity
  8
0
 62
     7
 48
0.075
100
AcDbLine
 10
75.65094
 20
240.013611
 30
0.0
 11
78.65094
 21
240.013611
 31
0.0
210
0.0
220
0.0
230
1.0
  0
LINE
  5
17B
100
AcDbEntity
  8
0
 62
     7
 48
0.075
100
AcDbLine
 10
78.65094
 20
260.413605
 30
0.0
 11
75.65094
 21
260.413605
 31
0.0
210
0.0
220
0.0
230
1.0
  0
LINE
  5
17C
100
AcDbEntity
  8
0
 62
     7
 48
0.17
100
AcDbLine
 10
78.65094
 20
260.413605
 30
0.0
 11
78.65094
 21
267.213623
 31
0.0
210
0.0
220
0.0
230
1.0
  0
LINE
  5
17D
100
AcDbEntity
  8
0
 62
     7
 48
0.075
100
AcDbLine
 10
75.65094
 20
267.213623
 30
0.0
 11
78.65094
 21
267.213623
 31
0.0
210
0.0
220
0.0
230
1.0
  0
LINE
  5
17E
100
AcDbEntity
  8
0
 62
     7
 48
0.075
100
AcDbLine
 10
218.65094
 20
240.013611
 30
0.0
 11
215.65094
 21
240.013611
 31
0.0
210
0.0
220
0.0
230
1.0
  0
LINE
  5
17F
100
AcDbEntity
  8
0
 62
     7
 48
0.17
100
AcDbLine
 10
215.65094
 20
233.213623
 30
0.0
 11
215.65094
 21
240.013611
 31
0.0
210
0.0
220
0.0
230
1.0
  0
LINE
  5
180
100
AcDbEntity
  8
0
 62
     7
 48
0.075
100
AcDbLine
 10
215.65094
 20
233.213623
 30
0.0
 11
218.65094
 21
233.213623
 31
0.0
210
0.0
220
0.0
230
1.0
  0
LINE
  5
181
100
AcDbEntity
  8
0
 62
     7
 48
0.075
100
AcDbLine
 10
78.65094
 20
246.813614
 30
0.0
 11
75.65094
 21
246.813614
 31
0.0
210
0.0
220
0.0
230
1.0
  0
LINE
  5
182
100
AcDbEntity
  8
0
 62
     7
 48
0.17
100
AcDbLine
 10
78.65094
 20
246.813614
 30
0.0
 11
78.65094
 21
253.613617
 31
0.0
210
0.0
220
0.0
230
1.0
  0
LINE
  5
183
100
AcDbEntity
  8
0
 62
     7
 48
0.075
100
AcDbLine
 10
75.65094
 20
253.613617
 30
0.0
 11
78.65094
 21
253.613617
 31
0.0
210
0.0
220
0.0
230
1.0
  0
LINE
  5
184
100
AcDbEntity
  8
0
 62
     7
 48
0.075
100
AcDbLine
 10
218.65094
 20
253.613617
 30
0.0
 11
215.65094
 21
253.613617
 31
0.0
210
0.0
220
0.0
230
1.0
  0
LINE
  5
185
100
AcDbEntity
  8
0
 62
     7
 48
0.17
100
AcDbLine
 10
215.65094
 20
246.813614
 30
0.0
 11
215.65094
 21
253.613617
 31
0.0
210
0.0
220
0.0
230
1.0
  0
LINE
  5
186
100
AcDbEntity
  8
0
 62
     7
 48
0.075
100
AcDbLine
 10
215.65094
 20
246.813614
 30
0.0
 11
218.65094
 21
246.813614
 31
0.0
210
0.0
220
0.0
230
1.0
  0
LINE
  5
187
100
AcDbEntity
  8
0
 62
     7
 48
0.075
100
AcDbLine
 10
218.65094
 20
267.213623
 30
0.0
 11
215.65094
 21
267.213623
 31
0.0
210
0.0
220
0.0
230
1.0
  0
LINE
  5
188
100
AcDbEntity
  8
0
 62
     7
 48
0.17
100
AcDbLine
 10
215.65094
 20
260.413605
 30
0.0
 11
215.65094
 21
267.213623
 31
0.0
210
0.0
220
0.0
230
1.0
  0
LINE
  5
189
100
AcDbEntity
  8
0
 62
     7
 48
0.075
100
AcDbLine
 10
215.65094
 20
260.413605
 30
0.0
 11
218.65094
 21
260.413605
 31
0.0
210
0.0
220
0.0
230
1.0
  0
LINE
  5
18A
100
AcDbEntity
  8
0
 62
     7
100
AcDbLine
 10
78.65094
 20
219.613617
 30
0.0
 11
145.65094
 21
219.613617
 31
0.0
210
0.0
220
0.0
230
1.0
  0
LINE
  5
18B
100
AcDbEntity
  8
0
 62
     7
100
AcDbLine
 10
148.65094
 20
219.613617
 30
0.0
 11
215.65094
 21
219.613617
 31
0.0
210
0.0
220
0.0
230
1.0
  0
LINE
  5
18C
100
AcDbEntity
  8
0
 62
     7
100
AcDbLine
 10
145.65094
 20
252.113617
 30
0.0
 11
145.65094
 21
219.613617
 31
0.0
210
0.0
220
0.0
230
1.0
  0
LINE
  5
18D
100
AcDbEntity
  8
0
 62
     7
 48
0.075
100
AcDbLine
 10
145.65094
 20
252.113617
 30
0.0
 11
148.65094
 21
252.113617
 31
0.0
210
0.0
220
0.0
230
1.0
  0
LINE
  5
18E
100
AcDbEntity
  8
0
 62
     7
100
AcDbLine
 10
148.65094
 20
252.113617
 30
0.0
 11
148.65094
 21
219.613617
 31
0.0
210
0.0
220
0.0
230
1.0
  0
LINE
  5
18F
100
AcDbEntity
  8
0
 62
     7
100
AcDbLine
 10
219.285889
 20
361.83139
 30
0.0
 11
76.285889
 21
361.83139
 31
0.0
210
0.0
220
0.0
230
1.0
  0
LINE
  5
190
100
AcDbEntity
  8
0
 62
     7
 48
0.17
100
AcDbLine
 10
219.285889
 20
303.631378
 30
0.0
 11
219.285889
 21
310.431396
 31
0.0
210
0.0
220
0.0
230
1.0
  0
LINE
  5
191
100
AcDbEntity
  8
0
 62
     7
 48
0.17
100
AcDbLine
 10
219.285889
 20
317.231384
 30
0.0
 11
219.285889
 21
324.031403
 31
0.0
210
0.0
220
0.0
230
1.0
  0
LINE
  5
192
100
AcDbEntity
  8
0
 62
     7
 48
0.17
100
AcDbLine
 10
219.285889
 20
344.431396
 30
0.0
 11
219.285889
 21
351.231384
 31
0.0
210
0.0
220
0.0
230
1.0
  0
LINE
  5
193
100
AcDbEntity
  8
0
 62
     7
 48
0.095
100
AcDbLine
 10
219.285889
 20
358.031403
 30
0.0
 11
219.285889
 21
361.83139
 31
0.0
210
0.0
220
0.0
230
1.0
  0
LINE
  5
194
100
AcDbEntity
  8
0
 62
     7
 48
0.17
100
AcDbLine
 10
219.285889
 20
330.83139
 30
0.0
 11
219.285889
 21
337.631378
 31
0.0
210
0.0
220
0.0
230
1.0
  0
LINE
  5
195
100
AcDbEntity
  8
0
 62
     7
 48
0.17
100
AcDbLine
 10
76.285889
 20
351.231384
 30
0.0
 11
76.285889
 21
344.431396
 31
0.0
210
0.0
220
0.0
230
1.0
  0
LINE
  5
196
100
AcDbEntity
  8
0
 62
     7
 48
0.095
100
AcDbLine
 10
76.285889
 20
361.83139
 30
0.0
 11
76.285889
 21
358.031403
 31
0.0
210
0.0
220
0.0
230
1.0
  0
LINE
  5
197
100
AcDbEntity
  8
0
 62
     7
 48
0.17
100
AcDbLine
 10
76.285889
 20
337.631378
 30
0.0
 11
76.285889
 21
330.83139
 31
0.0
210
0.0
220
0.0
230
1.0
  0
LINE
  5
198
100
AcDbEntity
  8
0
 62
     7
 48
0.17
100
AcDbLine
 10
76.285889
 20
324.031403
 30
0.0
 11
76.285889
 21
317.231384
 31
0.0
210
0.0
220
0.0
230
1.0
  0
LINE
  5
199
100
AcDbEntity
  8
0
 62
     7
 48
0.17
100
AcDbLine
 10
76.285889
 20
310.431396
 30
0.0
 11
76.285889
 21
303.631378
 31
0.0
210
0.0
220
0.0
230
1.0
  0
LINE
  5
19A
100
AcDbEntity
  8
0
 62
     7
 48
0.075
100
AcDbLine
 10
219.285889
 20
303.631378
 30
0.0
 11
216.285889
 21
303.631378
 31
0.0
210
0.0
220
0.0
230
1.0
  0
LINE
  5
19B
100
AcDbEntity
  8
0
 62
     7
 48
0.17
100
AcDbLine
 10
216.285889
 20
296.83139
 30
0.0
 11
216.285889
 21
303.631378
 31
0.0
210
0.0
220
0.0
230
1.0
  0
LINE
  5
19C
100
AcDbEntity
  8
0
 62
     7
 48
0.17
100
AcDbLine
 10
79.285889
 20
296.83139
 30
0.0
 11
79.285889
 21
303.631378
 31
0.0
210
0.0
220
0.0
230
1.0
  0
LINE
  5
19D
100
AcDbEntity
  8
0
 62
     7
 48
0.075
100
AcDbLine
 10
76.285889
 20
303.631378
 30
0.0
 11
79.285889
 21
303.631378
 31
0.0
210
0.0
220
0.0
230
1.0
  0
LINE
  5
19E
100
AcDbEntity
  8
0
 62
     7
 48
0.075
100
AcDbLine
 10
79.285889
 20
351.231384
 30
0.0
 11
76.285889
 21
351.231384
 31
0.0
210
0.0
220
0.0
230
1.0
  0
LINE
  5
19F
100
AcDbEntity
  8
0
 62
     7
 48
0.17
100
AcDbLine
 10
79.285889
 20
351.231384
 30
0.0
 11
79.285889
 21
358.031403
 31
0.0
210
0.0
220
0.0
230
1.0
  0
LINE
  5
1A0
100
AcDbEntity
  8
0
 62
     7
 48
0.075
100
AcDbLine
 10
76.285889
 20
358.031403
 30
0.0
 11
79.285889
 21
358.031403
 31
0.0
210
0.0
220
0.0
230
1.0
  0
LINE
  5
1A1
100
AcDbEntity
  8
0
 62
     7
 48
0.075
100
AcDbLine
 10
219.285889
 20
358.031403
 30
0.0
 11
216.285889
 21
358.031403
 31
0.0
210
0.0
220
0.0
230
1.0
  0
LINE
  5
1A2
100
AcDbEntity
  8
0
 62
     7
 48
0.17
100
AcDbLine
 10
216.285889
 20
351.231384
 30
0.0
 11
216.285889
 21
358.031403
 31
0.0
210
0.0
220
0.0
230
1.0
  0
LINE
  5
1A3
100
AcDbEntity
  8
0
 62
     7
 48
0.075
100
AcDbLine
 10
216.285889
 20
351.231384
 30
0.0
 11
219.285889
 21
351.231384
 31
0.0
210
0.0
220
0.0
230
1.0
  0
LINE
  5
1A4
100
AcDbEntity
  8
0
 62
     7
 48
0.075
100
AcDbLine
 10
79.285889
 20
310.431396
 30
0.0
 11
76.285889
 21
310.431396
 31
0.0
210
0.0
220
0.0
230
1.0
  0
LINE
  5
1A5
100
AcDbEntity
  8
0
 62
     7
 48
0.17
100
AcDbLine
 10
79.285889
 20
310.431396
 30
0.0
 11
79.285889
 21
317.231384
 31
0.0
210
0.0
220
0.0
230
1.0
  0
LINE
  5
1A6
100
AcDbEntity
  8
0
 62
     7
 48
0.075
100
AcDbLine
 10
76.285889
 20
317.231384
 30
0.0
 11
79.285889
 21
317.231384
 31
0.0
210
0.0
220
0.0
230
1.0
  0
LINE
  5
1A7
100
AcDbEntity
  8
0
 62
     7
 48
0.075
100
AcDbLine
 10
79.285889
 20
337.631378
 30
0.0
 11
76.285889
 21
337.631378
 31
0.0
210
0.0
220
0.0
230
1.0
  0
LINE
  5
1A8
100
AcDbEntity
  8
0
 62
     7
 48
0.17
100
AcDbLine
 10
79.285889
 20
337.631378
 30
0.0
 11
79.285889
 21
344.431396
 31
0.0
210
0.0
220
0.0
230
1.0
  0
LINE
  5
1A9
100
AcDbEntity
  8
0
 62
     7
 48
0.075
100
AcDbLine
 10
76.285889
 20
344.431396
 30
0.0
 11
79.285889
 21
344.431396
 31
0.0
210
0.0
220
0.0
230
1.0
  0
LINE
  5
1AA
100
AcDbEntity
  8
0
 62
     7
 48
0.075
100
AcDbLine
 10
219.285889
 20
317.231384
 30
0.0
 11
216.285889
 21
317.231384
 31
0.0
210
0.0
220
0.0
230
1.0
  0
LINE
  5
1AB
100
AcDbEntity
  8
0
 62
     7
 48
0.17
100
AcDbLine
 10
216.285889
 20
310.431396
 30
0.0
 11
216.285889
 21
317.231384
 31
0.0
210
0.0
220
0.0
230
1.0
  0
LINE
  5
1AC
100
AcDbEntity
  8
0
 62
     7
 48
0.075
100
AcDbLine
 10
216.285889
 20
310.431396
 30
0.0
 11
219.285889
 21
310.431396
 31
0.0
210
0.0
220
0.0
230
1.0
  0
LINE
  5
1AD
100
AcDbEntity
  8
0
 62
     7
 48
0.075
100
AcDbLine
 10
79.285889
 20
324.031403
 30
0.0
 11
76.285889
 21
324.031403
 31
0.0
210
0.0
220
0.0
230
1.0
  0
LINE
  5
1AE
100
AcDbEntity
  8
0
 62
     7
 48
0.17
100
AcDbLine
 10
79.285889
 20
324.031403
 30
0.0
 11
79.285889
 21
330.83139
 31
0.0
210
0.0
220
0.0
230
1.0
  0
LINE
  5
1AF
100
AcDbEntity
  8
0
 62
     7
 48
0.075
100
AcDbLine
 10
76.285889
 20
330.83139
 30
0.0
 11
79.285889
 21
330.83139
 31
0.0
210
0.0
220
0.0
230
1.0
  0
LINE
  5
1B0
100
AcDbEntity
  8
0
 62
     7
 48
0.075
100
AcDbLine
 10
219.285889
 20
330.83139
 30
0.0
 11
216.285889
 21
330.83139
 31
0.0
210
0.0
220
0.0
230
1.0
  0
LINE
  5
1B1
100
AcDbEntity
  8
0
 62
     7
 48
0.17
100
AcDbLine
 10
216.285889
 20
324.031403
 30
0.0
 11
216.285889
 21
330.83139
 31
0.0
210
0.0
220
0.0
230
1.0
  0
LINE
  5
1B2
100
AcDbEntity
  8
0
 62
     7
 48
0.075
100
AcDbLine
 10
216.285889
 20
324.031403
 30
0.0
 11
219.285889
 21
324.031403
 31
0.0
210
0.0
220
0.0
230
1.0
  0
LINE
  5
1B3
100
AcDbEntity
  8
0
 62
     7
 48
0.075
100
AcDbLine
 10
219.285889
 20
344.431396
 30
0.0
 11
216.285889
 21
344.431396
 31
0.0
210
0.0
220
0.0
230
1.0
  0
LINE
  5
1B4
100
AcDbEntity
  8
0
 62
     7
 48
0.17
100
AcDbLine
 10
216.285889
 20
337.631378
 30
0.0
 11
216.285889
 21
344.431396
 31
0.0
210
0.0
220
0.0
230
1.0
  0
LINE
  5
1B5
100
AcDbEntity
  8
0
 62
     7
 48
0.075
100
AcDbLine
 10
216.285889
 20
337.631378
 30
0.0
 11
219.285889
 21
337.631378
 31
0.0
210
0.0
220
0.0
230
1.0
  0
LINE
  5
1B6
100
AcDbEntity
  8
0
 62
     7
100
AcDbLine
 10
79.285889
 20
296.83139
 30
0.0
 11
146.285889
 21
296.83139
 31
0.0
210
0.0
220
0.0
230
1.0
  0
LINE
  5
1B7
100
AcDbEntity
  8
0
 62
     7
100
AcDbLine
 10
149.285889
 20
296.83139
 30
0.0
 11
216.285889
 21
296.83139
 31
0.0
210
0.0
220
0.0
230
1.0
  0
LINE
  5
1B8
100
AcDbEntity
  8
0
 62
     7
100
AcDbLine
 10
146.285889
 20
329.33139
 30
0.0
 11
146.285889
 21
296.83139
 31
0.0
210
0.0
220
0.0
230
1.0
  0
LINE
  5
1B9
100
AcDbEntity
  8
0
 62
     7
 48
0.075
100
AcDbLine
 10
146.285889
 20
329.33139
 30
0.0
 11
149.285889
 21
329.33139
 31
0.0
210
0.0
220
0.0
230
1.0
  0
LINE
  5
1BA
100
AcDbEntity
  8
0
 62
     7
100
AcDbLine
 10
149.285889
 20
329.33139
 30
0.0
 11
149.285889
 21
296.83139
 31
0.0
210
0.0
220
0.0
230
1.0
  0
LINE
  5
1BB
100
AcDbEntity
  8
0
 62
     7
100
AcDbLine
 10
367.607483
 20
279.33139
 30
0.0
 11
224.607483
 21
279.33139
 31
0.0
210
0.0
220
0.0
230
1.0
  0
LINE
  5
1BC
100
AcDbEntity
  8
0
 62
     7
 48
0.17
100
AcDbLine
 10
367.607483
 20
221.131393
 30
0.0
 11
367.607483
 21
227.931396
 31
0.0
210
0.0
220
0.0
230
1.0
  0
LINE
  5
1BD
100
AcDbEntity
  8
0
 62
     7
 48
0.17
100
AcDbLine
 10
367.607483
 20
234.731384
 30
0.0
 11
367.607483
 21
241.531387
 31
0.0
210
0.0
220
0.0
230
1.0
  0
LINE
  5
1BE
100
AcDbEntity
  8
0
 62
     7
 48
0.17
100
AcDbLine
 10
367.607483
 20
261.931396
 30
0.0
 11
367.607483
 21
268.731384
 31
0.0
210
0.0
220
0.0
230
1.0
  0
LINE
  5
1BF
100
AcDbEntity
  8
0
 62
     7
 48
0.095
100
AcDbLine
 10
367.607483
 20
275.531403
 30
0.0
 11
367.607483
 21
279.33139
 31
0.0
210
0.0
220
0.0
230
1.0
  0
LINE
  5
1C0
100
AcDbEntity
  8
0
 62
     7
 48
0.17
100
AcDbLine
 10
367.607483
 20
248.33139
 30
0.0
 11
367.607483
 21
255.131393
 31
0.0
210
0.0
220
0.0
230
1.0
  0
LINE
  5
1C1
100
AcDbEntity
  8
0
 62
     7
 48
0.17
100
AcDbLine
 10
224.607483
 20
268.731384
 30
0.0
 11
224.607483
 21
261.931396
 31
0.0
210
0.0
220
0.0
230
1.0
  0
LINE
  5
1C2
100
AcDbEntity
  8
0
 62
     7
 48
0.095
100
AcDbLine
 10
224.607483
 20
279.33139
 30
0.0
 11
224.607483
 21
275.531403
 31
0.0
210
0.0
220
0.0
230
1.0
  0
LINE
  5
1C3
100
AcDbEntity
  8
0
 62
     7
 48
0.17
100
AcDbLine
 10
224.607483
 20
255.131393
 30
0.0
 11
224.607483
 21
248.33139
 31
0.0
210
0.0
220
0.0
230
1.0
  0
LINE
  5
1C4
100
AcDbEntity
  8
0
 62
     7
 48
0.17
100
AcDbLine
 10
224.607483
 20
241.531387
 30
0.0
 11
224.607483
 21
234.731384
 31
0.0
210
0.0
220
0.0
230
1.0
  0
LINE
  5
1C5
100
AcDbEntity
  8
0
 62
     7
 48
0.17
100
AcDbLine
 10
224.607483
 20
227.931396
 30
0.0
 11
224.607483
 21
221.131393
 31
0.0
210
0.0
220
0.0
230
1.0
  0
LINE
  5
1C6
100
AcDbEntity
  8
0
 62
     7
 48
0.075
100
AcDbLine
 10
367.607483
 20
221.131393
 30
0.0
 11
364.607483
 21
221.131393
 31
0.0
210
0.0
220
0.0
230
1.0
  0
LINE
  5
1C7
100
AcDbEntity
  8
0
 62
     7
 48
0.17
100
AcDbLine
 10
364.607483
 20
214.33139
 30
0.0
 11
364.607483
 21
221.131393
 31
0.0
210
0.0
220
0.0
230
1.0
  0
LINE
  5
1C8
100
AcDbEntity
  8
0
 62
     7
 48
0.17
100
AcDbLine
 10
227.607483
 20
214.33139
 30
0.0
 11
227.607483
 21
221.131393
 31
0.0
210
0.0
220
0.0
230
1.0
  0
LINE
  5
1C9
100
AcDbEntity
  8
0
 62
     7
 48
0.075
100
AcDbLine
 10
224.607483
 20
221.131393
 30
0.0
 11
227.607483
 21
221.131393
 31
0.0
210
0.0
220
0.0
230
1.0
  0
LINE
  5
1CA
100
AcDbEntity
  8
0
 62
     7
 48
0.075
100
AcDbLine
 10
227.607483
 20
268.731384
 30
0.0
 11
224.607483
 21
268.731384
 31
0.0
210
0.0
220
0.0
230
1.0
  0
LINE
  5
1CB
100
AcDbEntity
  8
0
 62
     7
 48
0.17
100
AcDbLine
 10
227.607483
 20
268.731384
 30
0.0
 11
227.607483
 21
275.531403
 31
0.0
210
0.0
220
0.0
230
1.0
  0
LINE
  5
1CC
100
AcDbEntity
  8
0
 62
     7
 48
0.075
100
AcDbLine
 10
224.607483
 20
275.531403
 30
0.0
 11
227.607483
 21
275.531403
 31
0.0
210
0.0
220
0.0
230
1.0
  0
LINE
  5
1CD
100
AcDbEntity
  8
0
 62
     7
 48
0.075
100
AcDbLine
 10
367.607483
 20
275.531403
 30
0.0
 11
364.607483
 21
275.531403
 31
0.0
210
0.0
220
0.0
230
1.0
  0
LINE
  5
1CE
100
AcDbEntity
  8
0
 62
     7
 48
0.17
100
AcDbLine
 10
364.607483
 20
268.731384
 30
0.0
 11
364.607483
 21
275.531403
 31
0.0
210
0.0
220
0.0
230
1.0
  0
LINE
  5
1CF
100
AcDbEntity
  8
0
 62
     7
 48
0.075
100
AcDbLine
 10
364.607483
 20
268.731384
 30
0.0
 11
367.607483
 21
268.731384
 31
0.0
210
0.0
220
0.0
230
1.0
  0
LINE
  5
1D0
100
AcDbEntity
  8
0
 62
     7
 48
0.075
100
AcDbLine
 10
227.607483
 20
227.931396
 30
0.0
 11
224.607483
 21
227.931396
 31
0.0
210
0.0
220
0.0
230
1.0
  0
LINE
  5
1D1
100
AcDbEntity
  8
0
 62
     7
 48
0.17
100
AcDbLine
 10
227.607483
 20
227.931396
 30
0.0
 11
227.607483
 21
234.731384
 31
0.0
210
0.0
220
0.0
230
1.0
  0
LINE
  5
1D2
100
AcDbEntity
  8
0
 62
     7
 48
0.075
100
AcDbLine
 10
224.607483
 20
234.731384
 30
0.0
 11
227.607483
 21
234.731384
 31
0.0
210
0.0
220
0.0
230
1.0
  0
LINE
  5
1D3
100
AcDbEntity
  8
0
 62
     7
 48
0.075
100
AcDbLine
 10
227.607483
 20
255.131393
 30
0.0
 11
224.607483
 21
255.131393
 31
0.0
210
0.0
220
0.0
230
1.0
  0
LINE
  5
1D4
100
AcDbEntity
  8
0
 62
     7
 48
0.17
100
AcDbLine
 10
227.607483
 20
255.131393
 30
0.0
 11
227.607483
 21
261.931396
 31
0.0
210
0.0
220
0.0
230
1.0
  0
LINE
  5
1D5
100
AcDbEntity
  8
0
 62
     7
 48
0.075
100
AcDbLine
 10
224.607483
 20
261.931396
 30
0.0
 11
227.607483
 21
261.931396
 31
0.0
210
0.0
220
0.0
230
1.0
  0
LINE
  5
1D6
100
AcDbEntity
  8
0
 62
     7
 48
0.075
100
AcDbLine
 10
367.607483
 20
234.731384
 30
0.0
 11
364.607483
 21
234.731384
 31
0.0
210
0.0
220
0.0
230
1.0
  0
LINE
  5
1D7
100
AcDbEntity
  8
0
 62
     7
 48
0.17
100
AcDbLine
 10
364.607483
 20
227.931396
 30
0.0
 11
364.607483
 21
234.731384
 31
0.0
210
0.0
220
0.0
230
1.0
  0
LINE
  5
1D8
100
AcDbEntity
  8
0
 62
     7
 48
0.075
100
AcDbLine
 10
364.607483
 20
227.931396
 30
0.0
 11
367.607483
 21
227.931396
 31
0.0
210
0.0
220
0.0
230
1.0
  0
LINE
  5
1D9
100
AcDbEntity
  8
0
 62
     7
 48
0.075
100
AcDbLine
 10
227.607483
 20
241.531387
 30
0.0
 11
224.607483
 21
241.531387
 31
0.0
210
0.0
220
0.0
230
1.0
  0
LINE
  5
1DA
100
AcDbEntity
  8
0
 62
     7
 48
0.17
100
AcDbLine
 10
227.607483
 20
241.531387
 30
0.0
 11
227.607483
 21
248.33139
 31
0.0
210
0.0
220
0.0
230
1.0
  0
LINE
  5
1DB
100
AcDbEntity
  8
0
 62
     7
 48
0.075
100
AcDbLine
 10
224.607483
 20
248.33139
 30
0.0
 11
227.607483
 21
248.33139
 31
0.0
210
0.0
220
0.0
230
1.0
  0
LINE
  5
1DC
100
AcDbEntity
  8
0
 62
     7
 48
0.075
100
AcDbLine
 10
367.607483
 20
248.33139
 30
0.0
 11
364.607483
 21
248.33139
 31
0.0
210
0.0
220
0.0
230
1.0
  0
LINE
  5
1DD
100
AcDbEntity
  8
0
 62
     7
 48
0.17
100
AcDbLine
 10
364.607483
 20
241.531387
 30
0.0
 11
364.607483
 21
248.33139
 31
0.0
210
0.0
220
0.0
230
1.0
  0
LINE
  5
1DE
100
AcDbEntity
  8
0
 62
     7
 48
0.075
100
AcDbLine
 10
364.607483
 20
241.531387
 30
0.0
 11
367.607483
 21
241.531387
 31
0.0
210
0.0
220
0.0
230
1.0
  0
LINE
  5
1DF
100
AcDbEntity
  8
0
 62
     7
 48
0.075
100
AcDbLine
 10
367.607483
 20
261.931396
 30
0.0
 11
364.607483
 21
261.931396
 31
0.0
210
0.0
220
0.0
230
1.0
  0
LINE
  5
1E0
100
AcDbEntity
  8
0
 62
     7
 48
0.17
100
AcDbLine
 10
364.607483
 20
255.131393
 30
0.0
 11
364.607483
 21
261.931396
 31
0.0
210
0.0
220
0.0
230
1.0
  0
LINE
  5
1E1
100
AcDbEntity
  8
0
 62
     7
 48
0.075
100
AcDbLine
 10
364.607483
 20
255.131393
 30
0.0
 11
367.607483
 21
255.131393
 31
0.0
210
0.0
220
0.0
230
1.0
  0
LINE
  5
1E2
100
AcDbEntity
  8
0
 62
     7
100
AcDbLine
 10
227.607483
 20
214.33139
 30
0.0
 11
294.607483
 21
214.33139
 31
0.0
210
0.0
220
0.0
230
1.0
  0
LINE
  5
1E3
100
AcDbEntity
  8
0
 62
     7
100
AcDbLine
 10
297.607483
 20
214.33139
 30
0.0
 11
364.607483
 21
214.33139
 31
0.0
210
0.0
220
0.0
230
1.0
  0
LINE
  5
1E4
100
AcDbEntity
  8
0
 62
     7
100
AcDbLine
 10
294.607483
 20
246.83139
 30
0.0
 11
294.607483
 21
214.33139
 31
0.0
210
0.0
220
0.0
230
1.0
  0
LINE
  5
1E5
100
AcDbEntity
  8
0
 62
     7
 48
0.075
100
AcDbLine
 10
294.607483
 20
246.83139
 30
0.0
 11
297.607483
 21
246.83139
 31
0.0
210
0.0
220
0.0
230
1.0
  0
LINE
  5
1E6
100
AcDbEntity
  8
0
 62
     7
100
AcDbLine
 10
297.607483
 20
246.83139
 30
0.0
 11
297.607483
 21
214.33139
 31
0.0
210
0.0
220
0.0
230
1.0
  0
LINE
  5
1E7
100
AcDbEntity
  8
0
 62
     7
100
AcDbLine
 10
367.509521
 20
361.060303
 30
0.0
 11
224.509537
 21
361.060303
 31
0.0
210
0.0
220
0.0
230
1.0
  0
LINE
  5
1E8
100
AcDbEntity
  8
0
 62
     7
 48
0.17
100
AcDbLine
 10
367.509521
 20
302.860291
 30
0.0
 11
367.509521
 21
309.660309
 31
0.0
210
0.0
220
0.0
230
1.0
  0
LINE
  5
1E9
100
AcDbEntity
  8
0
 62
     7
 48
0.17
100
AcDbLine
 10
367.509521
 20
316.460297
 30
0.0
 11
367.509521
 21
323.260315
 31
0.0
210
0.0
220
0.0
230
1.0
  0
LINE
  5
1EA
100
AcDbEntity
  8
0
 62
     7
 48
0.17
100
AcDbLine
 10
367.509521
 20
343.660309
 30
0.0
 11
367.509521
 21
350.460297
 31
0.0
210
0.0
220
0.0
230
1.0
  0
LINE
  5
1EB
100
AcDbEntity
  8
0
 62
     7
 48
0.095
100
AcDbLine
 10
367.509521
 20
357.260315
 30
0.0
 11
367.509521
 21
361.060303
 31
0.0
210
0.0
220
0.0
230
1.0
  0
LINE
  5
1EC
100
AcDbEntity
  8
0
 62
     7
 48
0.17
100
AcDbLine
 10
367.509521
 20
330.060303
 30
0.0
 11
367.509521
 21
336.860291
 31
0.0
210
0.0
220
0.0
230
1.0
  0
LINE
  5
1ED
100
AcDbEntity
  8
0
 62
     7
 48
0.17
100
AcDbLine
 10
224.509537
 20
350.460297
 30
0.0
 11
224.509537
 21
343.660309
 31
0.0
210
0.0
220
0.0
230
1.0
  0
LINE
  5
1EE
100
AcDbEntity
  8
0
 62
     7
 48
0.095
100
AcDbLine
 10
224.509537
 20
361.060303
 30
0.0
 11
224.509537
 21
357.260315
 31
0.0
210
0.0
220
0.0
230
1.0
  0
LINE
  5
1EF
100
AcDbEntity
  8
0
 62
     7
 48
0.17
100
AcDbLine
 10
224.509537
 20
336.860291
 30
0.0
 11
224.509537
 21
330.060303
 31
0.0
210
0.0
220
0.0
230
1.0
  0
LINE
  5
1F0
100
AcDbEntity
  8
0
 62
     7
 48
0.17
100
AcDbLine
 10
224.509537
 20
323.260315
 30
0.0
 11
224.509537
 21
316.460297
 31
0.0
210
0.0
220
0.0
230
1.0
  0
LINE
  5
1F1
100
AcDbEntity
  8
0
 62
     7
 48
0.17
100
AcDbLine
 10
224.509537
 20
309.660309
 30
0.0
 11
224.509537
 21
302.860291
 31
0.0
210
0.0
220
0.0
230
1.0
  0
LINE
  5
1F2
100
AcDbEntity
  8
0
 62
     7
 48
0.075
100
AcDbLine
 10
367.509521
 20
302.860291
 30
0.0
 11
364.509521
 21
302.860291
 31
0.0
210
0.0
220
0.0
230
1.0
  0
LINE
  5
1F3
100
AcDbEntity
  8
0
 62
     7
 48
0.17
100
AcDbLine
 10
364.509521
 20
296.060303
 30
0.0
 11
364.509521
 21
302.860291
 31
0.0
210
0.0
220
0.0
230
1.0
  0
LINE
  5
1F4
100
AcDbEntity
  8
0
 62
     7
 48
0.17
100
AcDbLine
 10
227.509537
 20
296.060303
 30
0.0
 11
227.509537
 21
302.860291
 31
0.0
210
0.0
220
0.0
230
1.0
  0
LINE
  5
1F5
100
AcDbEntity
  8
0
 62
     7
 48
0.075
100
AcDbLine
 10
224.509537
 20
302.860291
 30
0.0
 11
227.509537
 21
302.860291
 31
0.0
210
0.0
220
0.0
230
1.0
  0
LINE
  5
1F6
100
AcDbEntity
  8
0
 62
     7
 48
0.075
100
AcDbLine
 10
227.509537
 20
350.460297
 30
0.0
 11
224.509537
 21
350.460297
 31
0.0
210
0.0
220
0.0
230
1.0
  0
LINE
  5
1F7
100
AcDbEntity
  8
0
 62
     7
 48
0.17
100
AcDbLine
 10
227.509537
 20
350.460297
 30
0.0
 11
227.509537
 21
357.260315
 31
0.0
210
0.0
220
0.0
230
1.0
  0
LINE
  5
1F8
100
AcDbEntity
  8
0
 62
     7
 48
0.075
100
AcDbLine
 10
224.509537
 20
357.260315
 30
0.0
 11
227.509537
 21
357.260315
 31
0.0
210
0.0
220
0.0
230
1.0
  0
LINE
  5
1F9
100
AcDbEntity
  8
0
 62
     7
 48
0.075
100
AcDbLine
 10
367.509521
 20
357.260315
 30
0.0
 11
364.509521
 21
357.260315
 31
0.0
210
0.0
220
0.0
230
1.0
  0
LINE
  5
1FA
100
AcDbEntity
  8
0
 62
     7
 48
0.17
100
AcDbLine
 10
364.509521
 20
350.460297
 30
0.0
 11
364.509521
 21
357.260315
 31
0.0
210
0.0
220
0.0
230
1.0
  0
LINE
  5
1FB
100
AcDbEntity
  8
0
 62
     7
 48
0.075
100
AcDbLine
 10
364.509521
 20
350.460297
 30
0.0
 11
367.509521
 21
350.460297
 31
0.0
210
0.0
220
0.0
230
1.0
  0
LINE
  5
1FC
100
AcDbEntity
  8
0
 62
     7
 48
0.075
100
AcDbLine
 10
227.509537
 20
309.660309
 30
0.0
 11
224.509537
 21
309.660309
 31
0.0
210
0.0
220
0.0
230
1.0
  0
LINE
  5
1FD
100
AcDbEntity
  8
0
 62
     7
 48
0.17
100
AcDbLine
 10
227.509537
 20
309.660309
 30
0.0
 11
227.509537
 21
316.460297
 31
0.0
210
0.0
220
0.0
230
1.0
  0
LINE
  5
1FE
100
AcDbEntity
  8
0
 62
     7
 48
0.075
100
AcDbLine
 10
224.509537
 20
316.460297
 30
0.0
 11
227.509537
 21
316.460297
 31
0.0
210
0.0
220
0.0
230
1.0
  0
LINE
  5
1FF
100
AcDbEntity
  8
0
 62
     7
 48
0.075
100
AcDbLine
 10
227.509537
 20
336.860291
 30
0.0
 11
224.509537
 21
336.860291
 31
0.0
210
0.0
220
0.0
230
1.0
  0
LINE
  5
200
100
AcDbEntity
  8
0
 62
     7
 48
0.17
100
AcDbLine
 10
227.509537
 20
336.860291
 30
0.0
 11
227.509537
 21
343.660309
 31
0.0
210
0.0
220
0.0
230
1.0
  0
LINE
  5
201
100
AcDbEntity
  8
0
 62
     7
 48
0.075
100
AcDbLine
 10
224.509537
 20
343.660309
 30
0.0
 11
227.509537
 21
343.660309
 31
0.0
210
0.0
220
0.0
230
1.0
  0
LINE
  5
202
100
AcDbEntity
  8
0
 62
     7
 48
0.075
100
AcDbLine
 10
367.509521
 20
316.460297
 30
0.0
 11
364.509521
 21
316.460297
 31
0.0
210
0.0
220
0.0
230
1.0
  0
LINE
  5
203
100
AcDbEntity
  8
0
 62
     7
 48
0.17
100
AcDbLine
 10
364.509521
 20
309.660309
 30
0.0
 11
364.509521
 21
316.460297
 31
0.0
210
0.0
220
0.0
230
1.0
  0
LINE
  5
204
100
AcDbEntity
  8
0
 62
     7
 48
0.075
100
AcDbLine
 10
364.509521
 20
309.660309
 30
0.0
 11
367.509521
 21
309.660309
 31
0.0
210
0.0
220
0.0
230
1.0
  0
LINE
  5
205
100
AcDbEntity
  8
0
 62
     7
 48
0.075
100
AcDbLine
 10
227.509537
 20
323.260315
 30
0.0
 11
224.509537
 21
323.260315
 31
0.0
210
0.0
220
0.0
230
1.0
  0
LINE
  5
206
100
AcDbEntity
  8
0
 62
     7
 48
0.17
100
AcDbLine
 10
227.509537
 20
323.260315
 30
0.0
 11
227.509537
 21
330.060303
 31
0.0
210
0.0
220
0.0
230
1.0
  0
LINE
  5
207
100
AcDbEntity
  8
0
 62
     7
 48
0.075
100
AcDbLine
 10
224.509537
 20
330.060303
 30
0.0
 11
227.509537
 21
330.060303
 31
0.0
210
0.0
220
0.0
230
1.0
  0
LINE
  5
208
100
AcDbEntity
  8
0
 62
     7
 48
0.075
100
AcDbLine
 10
367.509521
 20
330.060303
 30
0.0
 11
364.509521
 21
330.060303
 31
0.0
210
0.0
220
0.0
230
1.0
  0
LINE
  5
209
100
AcDbEntity
  8
0
 62
     7
 48
0.17
100
AcDbLine
 10
364.509521
 20
323.260315
 30
0.0
 11
364.509521
 21
330.060303
 31
0.0
210
0.0
220
0.0
230
1.0
  0
LINE
  5
20A
100
AcDbEntity
  8
0
 62
     7
 48
0.075
100
AcDbLine
 10
364.509521
 20
323.260315
 30
0.0
 11
367.509521
 21
323.260315
 31
0.0
210
0.0
220
0.0
230
1.0
  0
LINE
  5
20B
100
AcDbEntity
  8
0
 62
     7
 48
0.075
100
AcDbLine
 10
367.509521
 20
343.660309
 30
0.0
 11
364.509521
 21
343.660309
 31
0.0
210
0.0
220
0.0
230
1.0
  0
LINE
  5
20C
100
AcDbEntity
  8
0
 62
     7
 48
0.17
100
AcDbLine
 10
364.509521
 20
336.860291
 30
0.0
 11
364.509521
 21
343.660309
 31
0.0
210
0.0
220
0.0
230
1.0
  0
LINE
  5
20D
100
AcDbEntity
  8
0
 62
     7
 48
0.075
100
AcDbLine
 10
364.509521
 20
336.860291
 30
0.0
 11
367.509521
 21
336.860291
 31
0.0
210
0.0
220
0.0
230
1.0
  0
LINE
  5
20E
100
AcDbEntity
  8
0
 62
     7
100
AcDbLine
 10
227.509537
 20
296.060303
 30
0.0
 11
294.509521
 21
296.060303
 31
0.0
210
0.0
220
0.0
230
1.0
  0
LINE
  5
20F
100
AcDbEntity
  8
0
 62
     7
100
AcDbLine
 10
297.509521
 20
296.060303
 30
0.0
 11
364.509521
 21
296.060303
 31
0.0
210
0.0
220
0.0
230
1.0
  0
LINE
  5
210
100
AcDbEntity
  8
0
 62
     7
100
AcDbLine
 10
294.509521
 20
328.560303
 30
0.0
 11
294.509521
 21
296.060303
 31
0.0
210
0.0
220
0.0
230
1.0
  0
LINE
  5
211
100
AcDbEntity
  8
0
 62
     7
 48
0.075
100
AcDbLine
 10
294.509521
 20
328.560303
 30
0.0
 11
297.509521
 21
328.560303
 31
0.0
210
0.0
220
0.0
230
1.0
  0
LINE
  5
212
100
AcDbEntity
  8
0
 62
     7
100
AcDbLine
 10
297.509521
 20
328.560303
 30
0.0
 11
297.509521
 21
296.060303
 31
0.0
210
0.0
220
0.0
230
1.0
  0
LINE
  5
213
100
AcDbEntity
  8
0
 62
     7
100
AcDbLine
 10
1.688782
 20
153.566208
 30
0.0
 11
1.688782
 21
360.566223
 31
0.0
210
0.0
220
0.0
230
1.0
  0
LINE
  5
214
100
AcDbEntity
  8
0
 62
     7
100
AcDbLine
 10
66.688782
 20
292.566223
 30
0.0
 11
34.188782
 21
292.566223
 31
0.0
210
0.0
220
0.0
230
1.0
  0
LINE
  5
215
100
AcDbEntity
  8
0
 62
     7
 48
0.075
100
AcDbLine
 10
34.188782
 20
292.566223
 30
0.0
 11
34.188782
 21
289.566223
 31
0.0
210
0.0
220
0.0
230
1.0
  0
LINE
  5
216
100
AcDbEntity
  8
0
 62
     7
100
AcDbLine
 10
34.188782
 20
289.566223
 30
0.0
 11
66.688782
 21
289.566223
 31
0.0
210
0.0
220
0.0
230
1.0
  0
LINE
  5
217
100
AcDbEntity
  8
0
 62
     7
100
AcDbLine
 10
66.688782
 20
289.566223
 30
0.0
 11
66.688782
 21
224.566208
 31
0.0
210
0.0
220
0.0
230
1.0
  0
LINE
  5
218
100
AcDbEntity
  8
0
 62
     7
100
AcDbLine
 10
66.688782
 20
224.566208
 30
0.0
 11
34.188782
 21
224.566208
 31
0.0
210
0.0
220
0.0
230
1.0
  0
LINE
  5
219
100
AcDbEntity
  8
0
 62
     7
 48
0.075
100
AcDbLine
 10
34.188782
 20
224.566208
 30
0.0
 11
34.188782
 21
221.566208
 31
0.0
210
0.0
220
0.0
230
1.0
  0
LINE
  5
21A
100
AcDbEntity
  8
0
 62
     7
100
AcDbLine
 10
34.188782
 20
221.566208
 30
0.0
 11
66.688782
 21
221.566208
 31
0.0
210
0.0
220
0.0
230
1.0
  0
LINE
  5
21B
100
AcDbEntity
  8
0
 62
     7
100
AcDbLine
 10
66.688782
 20
221.566208
 30
0.0
 11
66.688782
 21
156.566208
 31
0.0
210
0.0
220
0.0
230
1.0
  0
LINE
  5
21C
100
AcDbEntity
  8
0
 62
     7
100
AcDbLine
 10
66.688782
 20
156.566208
 30
0.0
 11
34.188782
 21
156.566208
 31
0.0
210
0.0
220
0.0
230
1.0
  0
LINE
  5
21D
100
AcDbEntity
  8
0
 62
     7
 48
0.075
100
AcDbLine
 10
34.188782
 20
156.566208
 30
0.0
 11
34.188782
 21
153.566208
 31
0.0
210
0.0
220
0.0
230
1.0
  0
LINE
  5
21E
100
AcDbEntity
  8
0
 62
     7
100
AcDbLine
 10
34.188782
 20
153.566208
 30
0.0
 11
1.688782
 21
153.566208
 31
0.0
210
0.0
220
0.0
230
1.0
  0
LINE
  5
21F
100
AcDbEntity
  8
0
 62
     7
100
AcDbLine
 10
1.688782
 20
360.566223
 30
0.0
 11
34.188782
 21
360.566223
 31
0.0
210
0.0
220
0.0
230
1.0
  0
LINE
  5
220
100
AcDbEntity
  8
0
 62
     7
 48
0.075
100
AcDbLine
 10
34.188782
 20
360.566223
 30
0.0
 11
34.188782
 21
357.566223
 31
0.0
210
0.0
220
0.0
230
1.0
  0
LINE
  5
221
100
AcDbEntity
  8
0
 62
     7
100
AcDbLine
 10
34.188782
 20
357.566223
 30
0.0
 11
66.688782
 21
357.566223
 31
0.0
210
0.0
220
0.0
230
1.0
  0
LINE
  5
222
100
AcDbEntity
  8
0
 62
     7
100
AcDbLine
 10
66.688782
 20
357.566223
 30
0.0
 11
66.688782
 21
292.566223
 31
0.0
210
0.0
220
0.0
230
1.0
  0
ENDSEC
  0
SECTION
  2
OBJECTS
  0
DICTIONARY
  5
19
100
AcDbDictionary
  3
ACAD_GROUP
350
1A
  3
ACAD_MLINESTYLE
350
1B
  0
DICTIONARY
  5
1A
102
{ACAD_REACTORS
330
19
102
}
100
AcDbDictionary
  0
DICTIONARY
  5
1B
102
{ACAD_REACTORS
330
19
102
}
100
AcDbDictionary
  3
STANDARD
350
1C
  0
MLINESTYLE
  5
1C
102
{ACAD_REACTORS
330
1B
102
}
100
AcDbMlineStyle
  2
STANDARD
 70
     0
  3

 62
     0
 51
90.0
 52
90.0
 71
     2
 49
0.5
 62
   256
  6
BYLAYER
 49
-0.5
 62
   256
  6
BYLAYER
  0
ENDSEC
  0
EOF
