  0
SECTION
  2
HEADER
  9
$ACADVER
  1
AC1015
  9
$ACADMAINTVER
 70
     6
  9
$DWGCODEPAGE
  3
ANSI_932
  9
$INSBASE
 10
0.0
 20
0.0
 30
0.0
  9
$EXTMIN
 10
1.000000000000000E+20
 20
1.000000000000000E+20
 30
1.000000000000000E+20
  9
$EXTMAX
 10
-1.000000000000000E+20
 20
-1.000000000000000E+20
 30
-1.000000000000000E+20
  9
$LIMMIN
 10
0.0
 20
0.0
  9
$LIMMAX
 10
12.0
 20
9.0
  9
$ORTHOMODE
 70
     0
  9
$REGENMODE
 70
     1
  9
$FILLMODE
 70
     1
  9
$QTEXTMODE
 70
     0
  9
$MIRRTEXT
 70
     1
  9
$LTSCALE
 40
1.0
  9
$ATTMODE
 70
     1
  9
$TEXTSIZE
 40
0.2
  9
$TRACEWID
 40
0.05
  9
$TEXTSTYLE
  7
Standard
  9
$CLAYER
  8
0
  9
$CELTYPE
  6
ByLayer
  9
$CECOLOR
 62
   256
  9
$CELTSCALE
 40
1.0
  9
$DISPSILH
 70
     0
  9
$DIMSCALE
 40
1.0
  9
$DIMASZ
 40
0.18
  9
$DIMEXO
 40
0.0625
  9
$DIMDLI
 40
0.38
  9
$DIMRND
 40
0.0
  9
$DIMDLE
 40
0.0
  9
$DIMEXE
 40
0.18
  9
$DIMTP
 40
0.0
  9
$DIMTM
 40
0.0
  9
$DIMTXT
 40
0.18
  9
$DIMCEN
 40
0.09
  9
$DIMTSZ
 40
0.0
  9
$DIMTOL
 70
     0
  9
$DIMLIM
 70
     0
  9
$DIMTIH
 70
     1
  9
$DIMTOH
 70
     1
  9
$DIMSE1
 70
     0
  9
$DIMSE2
 70
     0
  9
$DIMTAD
 70
     0
  9
$DIMZIN
 70
     0
  9
$DIMBLK
  1

  9
$DIMASO
 70
     1
  9
$DIMSHO
 70
     1
  9
$DIMPOST
  1

  9
$DIMAPOST
  1

  9
$DIMALT
 70
     0
  9
$DIMALTD
 70
     2
  9
$DIMALTF
 40
25.4
  9
$DIMLFAC
 40
1.0
  9
$DIMTOFL
 70
     0
  9
$DIMTVP
 40
0.0
  9
$DIMTIX
 70
     0
  9
$DIMSOXD
 70
     0
  9
$DIMSAH
 70
     0
  9
$DIMBLK1
  1

  9
$DIMBLK2
  1

  9
$DIMSTYLE
  2
Standard
  9
$DIMCLRD
 70
     0
  9
$DIMCLRE
 70
     0
  9
$DIMCLRT
 70
     0
  9
$DIMTFAC
 40
1.0
  9
$DIMGAP
 40
0.09
  9
$DIMJUST
 70
     0
  9
$DIMSD1
 70
     0
  9
$DIMSD2
 70
     0
  9
$DIMTOLJ
 70
     1
  9
$DIMTZIN
 70
     0
  9
$DIMALTZ
 70
     0
  9
$DIMALTTZ
 70
     0
  9
$DIMUPT
 70
     0
  9
$DIMDEC
 70
     4
  9
$DIMTDEC
 70
     4
  9
$DIMALTU
 70
     2
  9
$DIMALTTD
 70
     2
  9
$DIMTXSTY
  7
Standard
  9
$DIMAUNIT
 70
     0
  9
$DIMADEC
 70
     0
  9
$DIMALTRND
 40
0.0
  9
$DIMAZIN
 70
     0
  9
$DIMDSEP
 70
    46
  9
$DIMATFIT
 70
     3
  9
$DIMFRAC
 70
     0
  9
$DIMLDRBLK
  1

  9
$DIMLUNIT
 70
     2
  9
$DIMLWD
 70
    -2
  9
$DIMLWE
 70
    -2
  9
$DIMTMOVE
 70
     0
  9
$LUNITS
 70
     2
  9
$LUPREC
 70
     4
  9
$SKETCHINC
 40
0.1
  9
$FILLETRAD
 40
0.5
  9
$AUNITS
 70
     0
  9
$AUPREC
 70
     0
  9
$MENU
  1
.
  9
$ELEVATION
 40
0.0
  9
$PELEVATION
 40
0.0
  9
$THICKNESS
 40
0.0
  9
$LIMCHECK
 70
     0
  9
$CHAMFERA
 40
0.5
  9
$CHAMFERB
 40
0.5
  9
$CHAMFERC
 40
1.0
  9
$CHAMFERD
 40
0.0
  9
$SKPOLY
 70
     0
  9
$TDCREATE
 40
2458886.466527778
  9
$TDUCREATE
 40
2458886.424861111
  9
$TDUPDATE
 40
2458886.466527789
  9
$TDUUPDATE
 40
2458886.424861123
  9
$TDINDWG
 40
0.0000000116
  9
$TDUSRTIMER
 40
0.0000000116
  9
$USRTIMER
 70
     1
  9
$ANGBASE
 50
0.0
  9
$ANGDIR
 70
     0
  9
$PDMODE
 70
     0
  9
$PDSIZE
 40
0.0
  9
$PLINEWID
 40
0.0
  9
$SPLFRAME
 70
     0
  9
$SPLINETYPE
 70
     6
  9
$SPLINESEGS
 70
     8
  9
$HANDSEED
  5
332
  9
$SURFTAB1
 70
     6
  9
$SURFTAB2
 70
     6
  9
$SURFTYPE
 70
     6
  9
$SURFU
 70
     6
  9
$SURFV
 70
     6
  9
$UCSBASE
  2

  9
$UCSNAME
  2

  9
$UCSORG
 10
0.0
 20
0.0
 30
0.0
  9
$UCSXDIR
 10
1.0
 20
0.0
 30
0.0
  9
$UCSYDIR
 10
0.0
 20
1.0
 30
0.0
  9
$UCSORTHOREF
  2

  9
$UCSORTHOVIEW
 70
     0
  9
$UCSORGTOP
 10
0.0
 20
0.0
 30
0.0
  9
$UCSORGBOTTOM
 10
0.0
 20
0.0
 30
0.0
  9
$UCSORGLEFT
 10
0.0
 20
0.0
 30
0.0
  9
$UCSORGRIGHT
 10
0.0
 20
0.0
 30
0.0
  9
$UCSORGFRONT
 10
0.0
 20
0.0
 30
0.0
  9
$UCSORGBACK
 10
0.0
 20
0.0
 30
0.0
  9
$PUCSBASE
  2

  9
$PUCSNAME
  2

  9
$PUCSORG
 10
0.0
 20
0.0
 30
0.0
  9
$PUCSXDIR
 10
1.0
 20
0.0
 30
0.0
  9
$PUCSYDIR
 10
0.0
 20
1.0
 30
0.0
  9
$PUCSORTHOREF
  2

  9
$PUCSORTHOVIEW
 70
     0
  9
$PUCSORGTOP
 10
0.0
 20
0.0
 30
0.0
  9
$PUCSORGBOTTOM
 10
0.0
 20
0.0
 30
0.0
  9
$PUCSORGLEFT
 10
0.0
 20
0.0
 30
0.0
  9
$PUCSORGRIGHT
 10
0.0
 20
0.0
 30
0.0
  9
$PUCSORGFRONT
 10
0.0
 20
0.0
 30
0.0
  9
$PUCSORGBACK
 10
0.0
 20
0.0
 30
0.0
  9
$USERI1
 70
     0
  9
$USERI2
 70
     0
  9
$USERI3
 70
     0
  9
$USERI4
 70
     0
  9
$USERI5
 70
     0
  9
$USERR1
 40
0.0
  9
$USERR2
 40
0.0
  9
$USERR3
 40
0.0
  9
$USERR4
 40
0.0
  9
$USERR5
 40
0.0
  9
$WORLDVIEW
 70
     1
  9
$SHADEDGE
 70
     3
  9
$SHADEDIF
 70
    70
  9
$TILEMODE
 70
     1
  9
$MAXACTVP
 70
    64
  9
$PINSBASE
 10
0.0
 20
0.0
 30
0.0
  9
$PLIMCHECK
 70
     0
  9
$PEXTMIN
 10
1.000000000000000E+20
 20
1.000000000000000E+20
 30
1.000000000000000E+20
  9
$PEXTMAX
 10
-1.000000000000000E+20
 20
-1.000000000000000E+20
 30
-1.000000000000000E+20
  9
$PLIMMIN
 10
0.0
 20
0.0
  9
$PLIMMAX
 10
12.0
 20
9.0
  9
$UNITMODE
 70
     0
  9
$VISRETAIN
 70
     1
  9
$PLINEGEN
 70
     0
  9
$PSLTSCALE
 70
     1
  9
$TREEDEPTH
 70
  3020
  9
$CMLSTYLE
  2
Standard
  9
$CMLJUST
 70
     0
  9
$CMLSCALE
 40
1.0
  9
$PROXYGRAPHICS
 70
     1
  9
$MEASUREMENT
 70
     0
  9
$CELWEIGHT
370
    -1
  9
$ENDCAPS
280
     0
  9
$JOINSTYLE
280
     0
  9
$LWDISPLAY
290
     1
  9
$INSUNITS
 70
     1
  9
$HYPERLINKBASE
  1

  9
$STYLESHEET
  1

  9
$XEDIT
290
     1
  9
$CEPSNTYPE
380
     0
  9
$PSTYLEMODE
290
     1
  9
$FINGERPRINTGUID
  2
{93741870-9E8B-F4A4-4222-481CF2DBBBBA}
  9
$VERSIONGUID
  2
{FAEB1C32-E019-11D5-929B-00C0DF256EC4}
  9
$EXTNAMES
290
     1
  9
$PSVPSCALE
 40
0.0
  9
$OLESTARTUP
290
     0
  0
ENDSEC
  0
SECTION
  2
CLASSES
  0
CLASS
  1
ACDBDICTIONARYWDFLT
  2
AcDbDictionaryWithDefault
  3
ObjectDBX Classes
 90
        0
280
     0
281
     0
  0
CLASS
  1
VISUALSTYLE
  2
AcDbVisualStyle
  3
ObjectDBX Classes
 90
     4095
280
     0
281
     0
  0
CLASS
  1
ACDBPLACEHOLDER
  2
AcDbPlaceHolder
  3
ObjectDBX Classes
 90
        0
280
     0
281
     0
  0
CLASS
  1
LAYOUT
  2
AcDbLayout
  3
ObjectDBX Classes
 90
        0
280
     0
281
     0
  0
ENDSEC
  0
SECTION
  2
TABLES
  0
TABLE
  2
VPORT
  5
8
330
0
100
AcDbSymbolTable
 70
     1
  0
VPORT
  5
29
330
8
100
AcDbSymbolTableRecord
100
AcDbViewportTableRecord
  2
*Active
 70
     0
 10
0.0
 20
0.0
 11
1.0
 21
1.0
 12
0.0
 22
0.0
 13
0.0
 23
0.0
 14
0.5
 24
0.5
 15
0.5
 25
0.5
 16
0.0
 26
0.0
 36
1.0
 17
300.0004651485242
 27
-149.9992851730037
 37
0.0
 40
299.9985703460073
 41
2.000012632076977
 42
50.0
 43
0.0
 44
0.0
 50
0.0
 51
0.0
 71
     0
 72
   100
 73
     1
 74
     3
 75
     0
 76
     0
 77
     0
 78
     0
281
     0
 65
     1
110
0.0
120
0.0
130
0.0
111
1.0
121
0.0
131
0.0
112
0.0
122
1.0
132
0.0
 79
     0
146
0.0
  0
ENDTAB
  0
TABLE
  2
LTYPE
  5
5
330
0
100
AcDbSymbolTable
 70
     1
  0
LTYPE
  5
14
330
5
100
AcDbSymbolTableRecord
100
AcDbLinetypeTableRecord
  2
ByBlock
 70
     0
  3

 72
    65
 73
     0
 40
0.0
  0
LTYPE
  5
15
330
5
100
AcDbSymbolTableRecord
100
AcDbLinetypeTableRecord
  2
ByLayer
 70
     0
  3

 72
    65
 73
     0
 40
0.0
  0
LTYPE
  5
16
330
5
100
AcDbSymbolTableRecord
100
AcDbLinetypeTableRecord
  2
Continuous
 70
     0
  3
Solid line
 72
    65
 73
     0
 40
0.0
  0
ENDTAB
  0
TABLE
  2
LAYER
  5
2
330
0
100
AcDbSymbolTable
 70
     2
  0
LAYER
  5
10
330
2
100
AcDbSymbolTableRecord
100
AcDbLayerTableRecord
  2
0
 70
     0
 62
     7
  6
Continuous
370
    -3
390
F
  0
LAYER
  5
3B
330
2
100
AcDbSymbolTableRecord
100
AcDbLayerTableRecord
  2
Calque 1
 70
     0
 62
     7
  6
Continuous
370
    -3
390
F
  0
ENDTAB
  0
TABLE
  2
STYLE
  5
3
330
0
100
AcDbSymbolTable
 70
     1
  0
STYLE
  5
11
330
3
100
AcDbSymbolTableRecord
100
AcDbTextStyleTableRecord
  2
Standard
 70
     0
 40
0.0
 41
1.0
 50
0.0
 71
     0
 42
0.2
  3
txt
  4

  0
ENDTAB
  0
TABLE
  2
VIEW
  5
6
330
0
100
AcDbSymbolTable
 70
     0
  0
ENDTAB
  0
TABLE
  2
UCS
  5
7
330
0
100
AcDbSymbolTable
 70
     0
  0
ENDTAB
  0
TABLE
  2
APPID
  5
9
330
0
100
AcDbSymbolTable
 70
     1
  0
APPID
  5
12
330
9
100
AcDbSymbolTableRecord
100
AcDbRegAppTableRecord
  2
ACAD
 70
     0
  0
ENDTAB
  0
TABLE
  2
DIMSTYLE
  5
A
330
0
100
AcDbSymbolTable
 70
     1
100
AcDbDimStyleTable
  0
DIMSTYLE
105
27
330
A
100
AcDbSymbolTableRecord
100
AcDbDimStyleTableRecord
  2
Standard
 70
     0
340
11
  0
ENDTAB
  0
TABLE
  2
BLOCK_RECORD
  5
1
330
0
100
AcDbSymbolTable
 70
    65
  0
BLOCK_RECORD
  5
1F
330
1
100
AcDbSymbolTableRecord
100
AcDbBlockTableRecord
  2
*Model_Space
340
22
  0
BLOCK_RECORD
  5
1B
330
1
100
AcDbSymbolTableRecord
100
AcDbBlockTableRecord
  2
*Paper_Space
340
1E
  0
BLOCK_RECORD
  5
23
330
1
100
AcDbSymbolTableRecord
100
AcDbBlockTableRecord
  2
*Paper_Space0
340
26
  0
BLOCK_RECORD
  5
3C
330
1
100
AcDbSymbolTableRecord
100
AcDbBlockTableRecord
  2
block 2
340
0
102
{BLKREFS
331
3D
102
}
  0
BLOCK_RECORD
  5
40
330
1
100
AcDbSymbolTableRecord
100
AcDbBlockTableRecord
  2
block 3
340
0
102
{BLKREFS
331
41
102
}
  0
BLOCK_RECORD
  5
4C
330
1
100
AcDbSymbolTableRecord
100
AcDbBlockTableRecord
  2
block 4
340
0
102
{BLKREFS
331
4D
102
}
  0
BLOCK_RECORD
  5
58
330
1
100
AcDbSymbolTableRecord
100
AcDbBlockTableRecord
  2
block 5
340
0
102
{BLKREFS
331
59
102
}
  0
BLOCK_RECORD
  5
64
330
1
100
AcDbSymbolTableRecord
100
AcDbBlockTableRecord
  2
block 6
340
0
102
{BLKREFS
331
65
102
}
  0
BLOCK_RECORD
  5
70
330
1
100
AcDbSymbolTableRecord
100
AcDbBlockTableRecord
  2
block 7
340
0
102
{BLKREFS
331
71
102
}
  0
BLOCK_RECORD
  5
7C
330
1
100
AcDbSymbolTableRecord
100
AcDbBlockTableRecord
  2
block 8
340
0
102
{BLKREFS
331
7D
102
}
  0
BLOCK_RECORD
  5
88
330
1
100
AcDbSymbolTableRecord
100
AcDbBlockTableRecord
  2
block 9
340
0
102
{BLKREFS
331
89
102
}
  0
BLOCK_RECORD
  5
94
330
1
100
AcDbSymbolTableRecord
100
AcDbBlockTableRecord
  2
block 10
340
0
102
{BLKREFS
331
95
102
}
  0
BLOCK_RECORD
  5
A0
330
1
100
AcDbSymbolTableRecord
100
AcDbBlockTableRecord
  2
block 11
340
0
102
{BLKREFS
331
A1
102
}
  0
BLOCK_RECORD
  5
AC
330
1
100
AcDbSymbolTableRecord
100
AcDbBlockTableRecord
  2
block 12
340
0
102
{BLKREFS
331
AD
102
}
  0
BLOCK_RECORD
  5
B8
330
1
100
AcDbSymbolTableRecord
100
AcDbBlockTableRecord
  2
block 13
340
0
102
{BLKREFS
331
B9
102
}
  0
BLOCK_RECORD
  5
C4
330
1
100
AcDbSymbolTableRecord
100
AcDbBlockTableRecord
  2
block 14
340
0
102
{BLKREFS
331
C5
102
}
  0
BLOCK_RECORD
  5
D0
330
1
100
AcDbSymbolTableRecord
100
AcDbBlockTableRecord
  2
block 15
340
0
102
{BLKREFS
331
D1
102
}
  0
BLOCK_RECORD
  5
DC
330
1
100
AcDbSymbolTableRecord
100
AcDbBlockTableRecord
  2
block 16
340
0
102
{BLKREFS
331
DD
102
}
  0
BLOCK_RECORD
  5
E8
330
1
100
AcDbSymbolTableRecord
100
AcDbBlockTableRecord
  2
block 17
340
0
102
{BLKREFS
331
E9
102
}
  0
BLOCK_RECORD
  5
F4
330
1
100
AcDbSymbolTableRecord
100
AcDbBlockTableRecord
  2
block 18
340
0
102
{BLKREFS
331
F5
102
}
  0
BLOCK_RECORD
  5
100
330
1
100
AcDbSymbolTableRecord
100
AcDbBlockTableRecord
  2
block 19
340
0
102
{BLKREFS
331
101
102
}
  0
BLOCK_RECORD
  5
10C
330
1
100
AcDbSymbolTableRecord
100
AcDbBlockTableRecord
  2
block 20
340
0
102
{BLKREFS
331
10D
102
}
  0
BLOCK_RECORD
  5
118
330
1
100
AcDbSymbolTableRecord
100
AcDbBlockTableRecord
  2
block 21
340
0
102
{BLKREFS
331
119
102
}
  0
BLOCK_RECORD
  5
124
330
1
100
AcDbSymbolTableRecord
100
AcDbBlockTableRecord
  2
block 22
340
0
102
{BLKREFS
331
125
102
}
  0
BLOCK_RECORD
  5
130
330
1
100
AcDbSymbolTableRecord
100
AcDbBlockTableRecord
  2
block 23
340
0
102
{BLKREFS
331
131
102
}
  0
BLOCK_RECORD
  5
13C
330
1
100
AcDbSymbolTableRecord
100
AcDbBlockTableRecord
  2
block 24
340
0
102
{BLKREFS
331
13D
102
}
  0
BLOCK_RECORD
  5
148
330
1
100
AcDbSymbolTableRecord
100
AcDbBlockTableRecord
  2
block 25
340
0
102
{BLKREFS
331
149
102
}
  0
BLOCK_RECORD
  5
154
330
1
100
AcDbSymbolTableRecord
100
AcDbBlockTableRecord
  2
block 26
340
0
102
{BLKREFS
331
155
102
}
  0
BLOCK_RECORD
  5
160
330
1
100
AcDbSymbolTableRecord
100
AcDbBlockTableRecord
  2
block 27
340
0
102
{BLKREFS
331
161
102
}
  0
BLOCK_RECORD
  5
164
330
1
100
AcDbSymbolTableRecord
100
AcDbBlockTableRecord
  2
block 28
340
0
102
{BLKREFS
331
165
102
}
  0
BLOCK_RECORD
  5
170
330
1
100
AcDbSymbolTableRecord
100
AcDbBlockTableRecord
  2
block 29
340
0
102
{BLKREFS
331
171
102
}
  0
BLOCK_RECORD
  5
17C
330
1
100
AcDbSymbolTableRecord
100
AcDbBlockTableRecord
  2
block 30
340
0
102
{BLKREFS
331
17D
102
}
  0
BLOCK_RECORD
  5
188
330
1
100
AcDbSymbolTableRecord
100
AcDbBlockTableRecord
  2
block 31
340
0
102
{BLKREFS
331
189
102
}
  0
BLOCK_RECORD
  5
194
330
1
100
AcDbSymbolTableRecord
100
AcDbBlockTableRecord
  2
block 32
340
0
102
{BLKREFS
331
195
102
}
  0
BLOCK_RECORD
  5
1A0
330
1
100
AcDbSymbolTableRecord
100
AcDbBlockTableRecord
  2
block 33
340
0
102
{BLKREFS
331
1A1
102
}
  0
BLOCK_RECORD
  5
1AC
330
1
100
AcDbSymbolTableRecord
100
AcDbBlockTableRecord
  2
block 34
340
0
102
{BLKREFS
331
1AD
102
}
  0
BLOCK_RECORD
  5
1B8
330
1
100
AcDbSymbolTableRecord
100
AcDbBlockTableRecord
  2
block 35
340
0
102
{BLKREFS
331
1B9
102
}
  0
BLOCK_RECORD
  5
1C4
330
1
100
AcDbSymbolTableRecord
100
AcDbBlockTableRecord
  2
block 36
340
0
102
{BLKREFS
331
1C5
102
}
  0
BLOCK_RECORD
  5
1D0
330
1
100
AcDbSymbolTableRecord
100
AcDbBlockTableRecord
  2
block 37
340
0
102
{BLKREFS
331
1D1
102
}
  0
BLOCK_RECORD
  5
1DC
330
1
100
AcDbSymbolTableRecord
100
AcDbBlockTableRecord
  2
block 38
340
0
102
{BLKREFS
331
1DD
102
}
  0
BLOCK_RECORD
  5
1E8
330
1
100
AcDbSymbolTableRecord
100
AcDbBlockTableRecord
  2
block 39
340
0
102
{BLKREFS
331
1E9
102
}
  0
BLOCK_RECORD
  5
1F4
330
1
100
AcDbSymbolTableRecord
100
AcDbBlockTableRecord
  2
block 40
340
0
102
{BLKREFS
331
1F5
102
}
  0
BLOCK_RECORD
  5
200
330
1
100
AcDbSymbolTableRecord
100
AcDbBlockTableRecord
  2
block 41
340
0
102
{BLKREFS
331
201
102
}
  0
BLOCK_RECORD
  5
20C
330
1
100
AcDbSymbolTableRecord
100
AcDbBlockTableRecord
  2
block 42
340
0
102
{BLKREFS
331
20D
102
}
  0
BLOCK_RECORD
  5
218
330
1
100
AcDbSymbolTableRecord
100
AcDbBlockTableRecord
  2
block 43
340
0
102
{BLKREFS
331
219
102
}
  0
BLOCK_RECORD
  5
224
330
1
100
AcDbSymbolTableRecord
100
AcDbBlockTableRecord
  2
block 44
340
0
102
{BLKREFS
331
225
102
}
  0
BLOCK_RECORD
  5
230
330
1
100
AcDbSymbolTableRecord
100
AcDbBlockTableRecord
  2
block 45
340
0
102
{BLKREFS
331
231
102
}
  0
BLOCK_RECORD
  5
23C
330
1
100
AcDbSymbolTableRecord
100
AcDbBlockTableRecord
  2
block 46
340
0
102
{BLKREFS
331
23D
102
}
  0
BLOCK_RECORD
  5
248
330
1
100
AcDbSymbolTableRecord
100
AcDbBlockTableRecord
  2
block 47
340
0
102
{BLKREFS
331
249
102
}
  0
BLOCK_RECORD
  5
254
330
1
100
AcDbSymbolTableRecord
100
AcDbBlockTableRecord
  2
block 48
340
0
102
{BLKREFS
331
255
102
}
  0
BLOCK_RECORD
  5
260
330
1
100
AcDbSymbolTableRecord
100
AcDbBlockTableRecord
  2
block 49
340
0
102
{BLKREFS
331
261
102
}
  0
BLOCK_RECORD
  5
26C
330
1
100
AcDbSymbolTableRecord
100
AcDbBlockTableRecord
  2
block 50
340
0
102
{BLKREFS
331
26D
102
}
  0
BLOCK_RECORD
  5
278
330
1
100
AcDbSymbolTableRecord
100
AcDbBlockTableRecord
  2
block 51
340
0
102
{BLKREFS
331
279
102
}
  0
BLOCK_RECORD
  5
284
330
1
100
AcDbSymbolTableRecord
100
AcDbBlockTableRecord
  2
block 52
340
0
102
{BLKREFS
331
285
102
}
  0
BLOCK_RECORD
  5
288
330
1
100
AcDbSymbolTableRecord
100
AcDbBlockTableRecord
  2
block 53
340
0
102
{BLKREFS
331
289
102
}
  0
BLOCK_RECORD
  5
28D
330
1
100
AcDbSymbolTableRecord
100
AcDbBlockTableRecord
  2
block 54
340
0
102
{BLKREFS
331
28E
102
}
  0
BLOCK_RECORD
  5
292
330
1
100
AcDbSymbolTableRecord
100
AcDbBlockTableRecord
  2
block 55
340
0
102
{BLKREFS
331
293
102
}
  0
BLOCK_RECORD
  5
297
330
1
100
AcDbSymbolTableRecord
100
AcDbBlockTableRecord
  2
block 56
340
0
102
{BLKREFS
331
298
102
}
  0
BLOCK_RECORD
  5
29C
330
1
100
AcDbSymbolTableRecord
100
AcDbBlockTableRecord
  2
block 57
340
0
102
{BLKREFS
331
29D
102
}
  0
BLOCK_RECORD
  5
2A1
330
1
100
AcDbSymbolTableRecord
100
AcDbBlockTableRecord
  2
block 58
340
0
102
{BLKREFS
331
2A2
102
}
  0
BLOCK_RECORD
  5
2A6
330
1
100
AcDbSymbolTableRecord
100
AcDbBlockTableRecord
  2
block 59
340
0
102
{BLKREFS
331
2A7
102
}
  0
BLOCK_RECORD
  5
2AB
330
1
100
AcDbSymbolTableRecord
100
AcDbBlockTableRecord
  2
block 60
340
0
102
{BLKREFS
331
2AC
102
}
  0
BLOCK_RECORD
  5
2B0
330
1
100
AcDbSymbolTableRecord
100
AcDbBlockTableRecord
  2
block 61
340
0
102
{BLKREFS
331
2B1
102
}
  0
BLOCK_RECORD
  5
2B5
330
1
100
AcDbSymbolTableRecord
100
AcDbBlockTableRecord
  2
block 62
340
0
102
{BLKREFS
331
2B6
102
}
  0
BLOCK_RECORD
  5
2BA
330
1
100
AcDbSymbolTableRecord
100
AcDbBlockTableRecord
  2
block 63
340
0
102
{BLKREFS
331
2BB
102
}
  0
BLOCK_RECORD
  5
2BF
330
1
100
AcDbSymbolTableRecord
100
AcDbBlockTableRecord
  2
block 64
340
0
102
{BLKREFS
331
2C0
102
}
  0
BLOCK_RECORD
  5
2C4
330
1
100
AcDbSymbolTableRecord
100
AcDbBlockTableRecord
  2
block 65
340
0
102
{BLKREFS
331
2C5
102
}
  0
ENDTAB
  0
ENDSEC
  0
SECTION
  2
BLOCKS
  0
BLOCK
  5
20
330
1F
100
AcDbEntity
  8
0
100
AcDbBlockBegin
  2
*Model_Space
 70
     0
 71
     0
 10
0.0
 20
0.0
 30
0.0
  3
*Model_Space
  1

  0
ENDBLK
  5
21
330
1F
100
AcDbEntity
  8
0
100
AcDbBlockEnd
  0
BLOCK
  5
1C
330
1B
100
AcDbEntity
 67
     1
  8
0
100
AcDbBlockBegin
  2
*Paper_Space
 70
     0
 71
     0
 10
0.0
 20
0.0
 30
0.0
  3
*Paper_Space
  1

  0
ENDBLK
  5
1D
330
1B
100
AcDbEntity
 67
     1
  8
0
100
AcDbBlockEnd
  0
BLOCK
  5
24
330
23
100
AcDbEntity
  8
0
100
AcDbBlockBegin
  2
*Paper_Space0
 70
     0
 71
     0
 10
0.0
 20
0.0
 30
0.0
  3
*Paper_Space0
  1

  0
ENDBLK
  5
25
330
23
100
AcDbEntity
  8
0
100
AcDbBlockEnd
  0
BLOCK
  5
3E
330
3C
100
AcDbEntity
  8
0
100
AcDbBlockBegin
  2
block 2
 70
     0
 71
     0
 10
0.0
 20
0.0
 30
0.0
  3
block 2
  1

  0
INSERT
  5
41
330
3C
100
AcDbEntity
  8
Calque 1
100
AcDbBlockReference
  2
block 3
 10
0.0
 20
0.0
 30
0.0
  0
INSERT
  5
4D
330
3C
100
AcDbEntity
  8
Calque 1
100
AcDbBlockReference
  2
block 4
 10
0.0
 20
0.0
 30
0.0
  0
INSERT
  5
59
330
3C
100
AcDbEntity
  8
Calque 1
100
AcDbBlockReference
  2
block 5
 10
0.0
 20
0.0
 30
0.0
  0
INSERT
  5
65
330
3C
100
AcDbEntity
  8
Calque 1
100
AcDbBlockReference
  2
block 6
 10
0.0
 20
0.0
 30
0.0
  0
INSERT
  5
71
330
3C
100
AcDbEntity
  8
Calque 1
100
AcDbBlockReference
  2
block 7
 10
0.0
 20
0.0
 30
0.0
  0
INSERT
  5
7D
330
3C
100
AcDbEntity
  8
Calque 1
100
AcDbBlockReference
  2
block 8
 10
0.0
 20
0.0
 30
0.0
  0
INSERT
  5
89
330
3C
100
AcDbEntity
  8
Calque 1
100
AcDbBlockReference
  2
block 9
 10
0.0
 20
0.0
 30
0.0
  0
INSERT
  5
95
330
3C
100
AcDbEntity
  8
Calque 1
100
AcDbBlockReference
  2
block 10
 10
0.0
 20
0.0
 30
0.0
  0
INSERT
  5
A1
330
3C
100
AcDbEntity
  8
Calque 1
100
AcDbBlockReference
  2
block 11
 10
0.0
 20
0.0
 30
0.0
  0
INSERT
  5
AD
330
3C
100
AcDbEntity
  8
Calque 1
100
AcDbBlockReference
  2
block 12
 10
0.0
 20
0.0
 30
0.0
  0
INSERT
  5
B9
330
3C
100
AcDbEntity
  8
Calque 1
100
AcDbBlockReference
  2
block 13
 10
0.0
 20
0.0
 30
0.0
  0
INSERT
  5
C5
330
3C
100
AcDbEntity
  8
Calque 1
100
AcDbBlockReference
  2
block 14
 10
0.0
 20
0.0
 30
0.0
  0
INSERT
  5
D1
330
3C
100
AcDbEntity
  8
Calque 1
100
AcDbBlockReference
  2
block 15
 10
0.0
 20
0.0
 30
0.0
  0
INSERT
  5
DD
330
3C
100
AcDbEntity
  8
Calque 1
100
AcDbBlockReference
  2
block 16
 10
0.0
 20
0.0
 30
0.0
  0
INSERT
  5
E9
330
3C
100
AcDbEntity
  8
Calque 1
100
AcDbBlockReference
  2
block 17
 10
0.0
 20
0.0
 30
0.0
  0
INSERT
  5
F5
330
3C
100
AcDbEntity
  8
Calque 1
100
AcDbBlockReference
  2
block 18
 10
0.0
 20
0.0
 30
0.0
  0
INSERT
  5
101
330
3C
100
AcDbEntity
  8
Calque 1
100
AcDbBlockReference
  2
block 19
 10
0.0
 20
0.0
 30
0.0
  0
INSERT
  5
10D
330
3C
100
AcDbEntity
  8
Calque 1
100
AcDbBlockReference
  2
block 20
 10
0.0
 20
0.0
 30
0.0
  0
INSERT
  5
119
330
3C
100
AcDbEntity
  8
Calque 1
100
AcDbBlockReference
  2
block 21
 10
0.0
 20
0.0
 30
0.0
  0
INSERT
  5
125
330
3C
100
AcDbEntity
  8
Calque 1
100
AcDbBlockReference
  2
block 22
 10
0.0
 20
0.0
 30
0.0
  0
INSERT
  5
131
330
3C
100
AcDbEntity
  8
Calque 1
100
AcDbBlockReference
  2
block 23
 10
0.0
 20
0.0
 30
0.0
  0
INSERT
  5
13D
330
3C
100
AcDbEntity
  8
Calque 1
100
AcDbBlockReference
  2
block 24
 10
0.0
 20
0.0
 30
0.0
  0
INSERT
  5
149
330
3C
100
AcDbEntity
  8
Calque 1
100
AcDbBlockReference
  2
block 25
 10
0.0
 20
0.0
 30
0.0
  0
INSERT
  5
155
330
3C
100
AcDbEntity
  8
Calque 1
100
AcDbBlockReference
  2
block 26
 10
0.0
 20
0.0
 30
0.0
  0
ENDBLK
  5
3F
330
3C
100
AcDbEntity
  8
0
100
AcDbBlockEnd
  0
BLOCK
  5
42
330
40
100
AcDbEntity
  8
0
100
AcDbBlockBegin
  2
block 3
 70
     0
 71
     0
 10
0.0
 20
0.0
 30
0.0
  3
block 3
  1

  0
SPLINE
  5
44
330
40
100
AcDbEntity
  8
Calque 1
370
     0
100
AcDbSpline
210
0.0
220
0.0
230
1.0
 70
     8
 71
     3
 72
    20
 73
    16
 74
     0
 42
0.0000000001
 43
0.0000000001
 40
0.0
 40
0.0
 40
0.0
 40
0.0
 40
1.0
 40
1.0
 40
1.0
 40
2.0
 40
2.0
 40
2.0
 40
3.0
 40
3.0
 40
3.0
 40
4.0
 40
4.0
 40
4.0
 40
5.0
 40
5.0
 40
5.0
 40
5.0
 10
95.30615503259708
 20
-26.02993570312793
 30
0.0
 10
95.30615503259708
 20
-26.02993570312793
 30
0.0
 10
95.30615503259708
 20
-45.58119709146928
 30
0.0
 10
95.30615503259708
 20
-45.58119709146928
 30
0.0
 10
95.30615503259708
 20
-47.37884791567265
 30
0.0
 10
94.15273706413544
 20
-48.83681232503038
 30
0.0
 10
92.73025713827577
 20
-48.83681232503038
 30
0.0
 10
92.73025713827577
 20
-48.83681232503038
 30
0.0
 10
66.35391708410597
 20
-48.83681232503038
 30
0.0
 10
66.35391708410597
 20
-48.83681232503038
 30
0.0
 10
64.93126490347204
 20
-48.83681232503038
 30
0.0
 10
63.77801918978466
 20
-47.37884791567265
 30
0.0
 10
63.77801918978466
 20
-45.58119709146928
 30
0.0
 10
63.77801918978466
 20
-45.58119709146928
 30
0.0
 10
63.77801918978466
 20
-25.86594915803004
 30
0.0
 10
63.77801918978466
 20
-25.86594915803004
 30
0.0
  0
POLYLINE
  5
45
330
40
100
AcDbEntity
  8
Calque 1
370
     0
100
AcDb2dPolyline
 66
     1
 10
0.0
 20
0.0
 30
0.0
  0
VERTEX
  5
46
330
45
100
AcDbEntity
  8
Calque 1
370
     0
100
AcDbVertex
100
AcDb2dVertex
 10
63.77801918978466
 20
-25.86594915803004
 30
0.0
  0
VERTEX
  5
2D1
330
45
100
AcDbEntity
  8
0
100
AcDbVertex
100
AcDb2dVertex
 10
63.77801918978466
 20
-25.86594915803004
 30
0.0
  0
SEQEND
  5
47
330
45
100
AcDbEntity
  8
Calque 1
370
     0
  0
POLYLINE
  5
48
330
40
100
AcDbEntity
  8
Calque 1
370
     0
100
AcDb2dPolyline
 66
     1
 10
0.0
 20
0.0
 30
0.0
  0
VERTEX
  5
49
330
48
100
AcDbEntity
  8
Calque 1
370
     0
100
AcDbVertex
100
AcDb2dVertex
 10
95.25878496967489
 20
-26.02993570312793
 30
0.0
  0
VERTEX
  5
2D2
330
48
100
AcDbEntity
  8
0
100
AcDbVertex
100
AcDb2dVertex
 10
95.25878496967489
 20
-26.02993570312793
 30
0.0
  0
SEQEND
  5
4A
330
48
100
AcDbEntity
  8
Calque 1
370
     0
  0
SPLINE
  5
4B
330
40
100
AcDbEntity
  8
Calque 1
370
     0
100
AcDbSpline
210
0.0
220
0.0
230
1.0
 70
     8
 71
     3
 72
    23
 73
    19
 74
     0
 42
0.0000000001
 43
0.0000000001
 40
0.0
 40
0.0
 40
0.0
 40
0.0
 40
1.0
 40
1.0
 40
1.0
 40
2.0
 40
2.0
 40
2.0
 40
3.0
 40
3.0
 40
3.0
 40
4.0
 40
4.0
 40
4.0
 40
5.0
 40
5.0
 40
5.0
 40
6.0
 40
6.0
 40
6.0
 40
6.0
 10
95.30615503259708
 20
-26.1494805164661
 30
0.0
 10
95.30615503259708
 20
-21.97557508131166
 30
0.0
 10
92.66531708837881
 20
-18.28484428796351
 30
0.0
 10
88.62180851734108
 20
-16.04846055371358
 30
0.0
 10
88.62180851734108
 20
-16.04846055371358
 30
0.0
 10
88.01564396671137
 20
-15.72927245700518
 30
0.0
 10
88.01564396671137
 20
-15.72927245700518
 30
0.0
 10
86.04694415166536
 20
-14.56431341866795
 30
0.0
 10
79.49196097188049
 20
-9.63214246721002
 30
0.0
 10
79.49196097188049
 20
-9.63214246721002
 30
0.0
 10
79.49196097188049
 20
-9.63214246721002
 30
0.0
 10
71.93462726066218
 20
-15.26228976397957
 30
0.0
 10
71.06801349134759
 20
-15.72927245700518
 30
0.0
 10
71.06801349134759
 20
-15.72927245700518
 30
0.0
 10
70.33110756705264
 20
-16.1218410875494
 30
0.0
 10
70.33110756705264
 20
-16.1218410875494
 30
0.0
 10
66.36166854894778
 20
-18.36545952231836
 30
0.0
 10
63.77801918978466
 20
-22.0208780869427
 30
0.0
 10
63.77801918978466
 20
-26.1494805164661
 30
0.0
  0
ENDBLK
  5
43
330
40
100
AcDbEntity
  8
0
100
AcDbBlockEnd
  0
BLOCK
  5
4E
330
4C
100
AcDbEntity
  8
0
100
AcDbBlockBegin
  2
block 4
 70
     0
 71
     0
 10
0.0
 20
0.0
 30
0.0
  3
block 4
  1

  0
SPLINE
  5
50
330
4C
100
AcDbEntity
  8
Calque 1
370
     0
100
AcDbSpline
210
0.0
220
0.0
230
1.0
 70
     8
 71
     3
 72
    20
 73
    16
 74
     0
 42
0.0000000001
 43
0.0000000001
 40
0.0
 40
0.0
 40
0.0
 40
0.0
 40
1.0
 40
1.0
 40
1.0
 40
2.0
 40
2.0
 40
2.0
 40
3.0
 40
3.0
 40
3.0
 40
4.0
 40
4.0
 40
4.0
 40
5.0
 40
5.0
 40
5.0
 40
5.0
 10
33.03984374174004
 20
-35.69807941815881
 30
0.0
 10
33.03984374174004
 20
-35.69807941815881
 30
0.0
 10
33.03984374174004
 20
-46.96130234286037
 30
0.0
 10
33.03984374174004
 20
-46.96130234286037
 30
0.0
 10
33.03984374174004
 20
-47.99758706482352
 30
0.0
 10
32.37528482263534
 20
-48.83681232503038
 30
0.0
 10
31.55586886146867
 20
-48.83681232503038
 30
0.0
 10
31.55586886146867
 20
-48.83681232503038
 30
0.0
 10
16.36058620467722
 20
-48.83681232503038
 30
0.0
 10
16.36058620467722
 20
-48.83681232503038
 30
0.0
 10
15.54099798873628
 20
-48.83681232503038
 30
0.0
 10
14.87661132440585
 20
-47.99758706482352
 30
0.0
 10
14.87661132440585
 20
-46.96130234286037
 30
0.0
 10
14.87661132440585
 20
-46.96130234286037
 30
0.0
 10
14.87661132440585
 20
-35.60333929231444
 30
0.0
 10
14.87661132440585
 20
-35.60333929231444
 30
0.0
  0
POLYLINE
  5
51
330
4C
100
AcDbEntity
  8
Calque 1
370
     0
100
AcDb2dPolyline
 66
     1
 10
0.0
 20
0.0
 30
0.0
  0
VERTEX
  5
52
330
51
100
AcDbEntity
  8
Calque 1
370
     0
100
AcDbVertex
100
AcDb2dVertex
 10
14.87661132440585
 20
-35.60333929231444
 30
0.0
  0
VERTEX
  5
2D3
330
51
100
AcDbEntity
  8
0
100
AcDbVertex
100
AcDb2dVertex
 10
14.87661132440585
 20
-35.60333929231444
 30
0.0
  0
SEQEND
  5
53
330
51
100
AcDbEntity
  8
Calque 1
370
     0
  0
POLYLINE
  5
54
330
4C
100
AcDbEntity
  8
Calque 1
370
     0
100
AcDb2dPolyline
 66
     1
 10
0.0
 20
0.0
 30
0.0
  0
VERTEX
  5
55
330
54
100
AcDbEntity
  8
Calque 1
370
     0
100
AcDbVertex
100
AcDb2dVertex
 10
33.01245523263231
 20
-35.69807941815881
 30
0.0
  0
VERTEX
  5
2D4
330
54
100
AcDbEntity
  8
0
100
AcDbVertex
100
AcDb2dVertex
 10
33.01245523263231
 20
-35.69807941815881
 30
0.0
  0
SEQEND
  5
56
330
54
100
AcDbEntity
  8
Calque 1
370
     0
  0
SPLINE
  5
57
330
4C
100
AcDbEntity
  8
Calque 1
370
     0
100
AcDbSpline
210
0.0
220
0.0
230
1.0
 70
     8
 71
     3
 72
    23
 73
    19
 74
     0
 42
0.0000000001
 43
0.0000000001
 40
0.0
 40
0.0
 40
0.0
 40
0.0
 40
1.0
 40
1.0
 40
1.0
 40
2.0
 40
2.0
 40
2.0
 40
3.0
 40
3.0
 40
3.0
 40
4.0
 40
4.0
 40
4.0
 40
5.0
 40
5.0
 40
5.0
 40
6.0
 40
6.0
 40
6.0
 40
6.0
 10
33.03984374174004
 20
-35.76698132786381
 30
0.0
 10
33.03984374174004
 20
-33.3619601696109
 30
0.0
 10
31.51848957545371
 20
-31.23616400043749
 30
0.0
 10
29.18891600832777
 20
-29.94769828895405
 30
0.0
 10
29.18891600832777
 20
-29.94769828895405
 30
0.0
 10
28.8397555808977
 20
-29.76355793526745
 30
0.0
 10
28.8397555808977
 20
-29.76355793526745
 30
0.0
 10
27.70563014715345
 20
-29.0927978442893
 30
0.0
 10
23.92928873099684
 20
-26.25128308805524
 30
0.0
 10
23.92928873099684
 20
-26.25128308805524
 30
0.0
 10
23.92928873099684
 20
-26.25128308805524
 30
0.0
 10
19.57572156628662
 20
-29.49484048741796
 30
0.0
 10
19.0761827209254
 20
-29.76355793526745
 30
0.0
 10
19.0761827209254
 20
-29.76355793526745
 30
0.0
 10
18.65174695714262
 20
-29.9897284538741
 30
0.0
 10
18.65174695714262
 20
-29.9897284538741
 30
0.0
 10
16.36489257403378
 20
-31.28267278948836
 30
0.0
 10
14.87661132440585
 20
-33.38883191439585
 30
0.0
 10
14.87661132440585
 20
-35.76698132786381
 30
0.0
  0
ENDBLK
  5
4F
330
4C
100
AcDbEntity
  8
0
100
AcDbBlockEnd
  0
BLOCK
  5
5A
330
58
100
AcDbEntity
  8
0
100
AcDbBlockBegin
  2
block 5
 70
     0
 71
     0
 10
0.0
 20
0.0
 30
0.0
  3
block 5
  1

  0
SPLINE
  5
5C
330
58
100
AcDbEntity
  8
Calque 1
370
     0
100
AcDbSpline
210
0.0
220
0.0
230
1.0
 70
     8
 71
     3
 72
    20
 73
    16
 74
     0
 42
0.0000000001
 43
0.0000000001
 40
0.0
 40
0.0
 40
0.0
 40
0.0
 40
1.0
 40
1.0
 40
1.0
 40
2.0
 40
2.0
 40
2.0
 40
3.0
 40
3.0
 40
3.0
 40
4.0
 40
4.0
 40
4.0
 40
5.0
 40
5.0
 40
5.0
 40
5.0
 10
61.41778427284
 20
-30.49701876407714
 30
0.0
 10
61.41778427284
 20
-30.49701876407714
 30
0.0
 10
61.41778427284
 20
-46.21922877533756
 30
0.0
 10
61.41778427284
 20
-46.21922877533756
 30
0.0
 10
61.41778427284
 20
-47.66479084094838
 30
0.0
 10
60.49019231343648
 20
-48.83681232503038
 30
0.0
 10
59.34624835755928
 20
-48.83681232503038
 30
0.0
 10
59.34624835755928
 20
-48.83681232503038
 30
0.0
 10
38.13617349307012
 20
-48.83681232503038
 30
0.0
 10
38.13617349307012
 20
-48.83681232503038
 30
0.0
 10
36.99222953719292
 20
-48.83681232503038
 30
0.0
 10
36.06498208733792
 20
-47.66479084094838
 30
0.0
 10
36.06498208733792
 20
-46.21922877533756
 30
0.0
 10
36.06498208733792
 20
-46.21922877533756
 30
0.0
 10
36.06498208733792
 20
-30.36524386176633
 30
0.0
 10
36.06498208733792
 20
-30.36524386176633
 30
0.0
  0
POLYLINE
  5
5D
330
58
100
AcDbEntity
  8
Calque 1
370
     0
100
AcDb2dPolyline
 66
     1
 10
0.0
 20
0.0
 30
0.0
  0
VERTEX
  5
5E
330
5D
100
AcDbEntity
  8
Calque 1
370
     0
100
AcDbVertex
100
AcDb2dVertex
 10
36.06498208733792
 20
-30.36524386176633
 30
0.0
  0
VERTEX
  5
2D5
330
5D
100
AcDbEntity
  8
0
100
AcDbVertex
100
AcDb2dVertex
 10
36.06498208733792
 20
-30.36524386176633
 30
0.0
  0
SEQEND
  5
5F
330
5D
100
AcDbEntity
  8
Calque 1
370
     0
  0
POLYLINE
  5
60
330
58
100
AcDbEntity
  8
Calque 1
370
     0
100
AcDb2dPolyline
 66
     1
 10
0.0
 20
0.0
 30
0.0
  0
VERTEX
  5
61
330
60
100
AcDbEntity
  8
Calque 1
370
     0
100
AcDbVertex
100
AcDb2dVertex
 10
61.37954371295373
 20
-30.49701876407714
 30
0.0
  0
VERTEX
  5
2D6
330
60
100
AcDbEntity
  8
0
100
AcDbVertex
100
AcDb2dVertex
 10
61.37954371295373
 20
-30.49701876407714
 30
0.0
  0
SEQEND
  5
62
330
60
100
AcDbEntity
  8
Calque 1
370
     0
  0
SPLINE
  5
63
330
58
100
AcDbEntity
  8
Calque 1
370
     0
100
AcDbSpline
210
0.0
220
0.0
230
1.0
 70
     8
 71
     3
 72
    23
 73
    19
 74
     0
 42
0.0000000001
 43
0.0000000001
 40
0.0
 40
0.0
 40
0.0
 40
0.0
 40
1.0
 40
1.0
 40
1.0
 40
2.0
 40
2.0
 40
2.0
 40
3.0
 40
3.0
 40
3.0
 40
4.0
 40
4.0
 40
4.0
 40
5.0
 40
5.0
 40
5.0
 40
6.0
 40
6.0
 40
6.0
 40
6.0
 10
61.41778427284
 20
-30.59348143766413
 30
0.0
 10
61.41778427284
 20
-27.23692490638522
 30
0.0
 10
59.29439967050627
 20
-24.26897514584248
 30
0.0
 10
56.04257404197894
 20
-22.47029079299354
 30
0.0
 10
56.04257404197894
 20
-22.47029079299354
 30
0.0
 10
55.55526528559035
 20
-22.21414794366521
 30
0.0
 10
55.55526528559035
 20
-22.21414794366521
 30
0.0
 10
53.97224391011805
 20
-21.27742648122578
 30
0.0
 10
48.70107556291154
 20
-17.31074353950912
 30
0.0
 10
48.70107556291154
 20
-17.31074353950912
 30
0.0
 10
48.70107556291154
 20
-17.31074353950912
 30
0.0
 10
42.62392712693082
 20
-21.83811577145019
 30
0.0
 10
41.92698431026479
 20
-22.21414794366521
 30
0.0
 10
41.92698431026479
 20
-22.21414794366521
 30
0.0
 10
41.33442788680181
 20
-22.5297186901141
 30
0.0
 10
41.33442788680181
 20
-22.5297186901141
 30
0.0
 10
38.14254691971784
 20
-24.33374294096518
 30
0.0
 10
36.06498208733792
 20
-27.27344291852886
 30
0.0
 10
36.06498208733792
 20
-30.59348143766413
 30
0.0
  0
ENDBLK
  5
5B
330
58
100
AcDbEntity
  8
0
100
AcDbBlockEnd
  0
BLOCK
  5
66
330
64
100
AcDbEntity
  8
0
100
AcDbBlockBegin
  2
block 6
 70
     0
 71
     0
 10
0.0
 20
0.0
 30
0.0
  3
block 6
  1

  0
SPLINE
  5
68
330
64
100
AcDbEntity
  8
Calque 1
370
     0
100
AcDbSpline
210
0.0
220
0.0
230
1.0
 70
     8
 71
     3
 72
    20
 73
    16
 74
     0
 42
0.0000000001
 43
0.0000000001
 40
0.0
 40
0.0
 40
0.0
 40
0.0
 40
1.0
 40
1.0
 40
1.0
 40
2.0
 40
2.0
 40
2.0
 40
3.0
 40
3.0
 40
3.0
 40
4.0
 40
4.0
 40
4.0
 40
5.0
 40
5.0
 40
5.0
 40
5.0
 10
14.87661132440585
 20
-74.26988523533878
 30
0.0
 10
14.87661132440585
 20
-74.26988523533878
 30
0.0
 10
14.87661132440585
 20
-54.71862384699743
 30
0.0
 10
14.87661132440585
 20
-54.71862384699743
 30
0.0
 10
14.87661132440585
 20
-52.92097302279407
 30
0.0
 10
16.03002929286749
 20
-51.46300861343634
 30
0.0
 10
17.45250921872715
 20
-51.46300861343634
 30
0.0
 10
17.45250921872715
 20
-51.46300861343634
 30
0.0
 10
43.82884927289695
 20
-51.46300861343634
 30
0.0
 10
43.82884927289695
 20
-51.46300861343634
 30
0.0
 10
45.25150145353088
 20
-51.46300861343634
 30
0.0
 10
46.40474716721826
 20
-52.92097302279407
 30
0.0
 10
46.40474716721826
 20
-54.71862384699743
 30
0.0
 10
46.40474716721826
 20
-54.71862384699743
 30
0.0
 10
46.40474716721826
 20
-74.43387178043668
 30
0.0
 10
46.40474716721826
 20
-74.43387178043668
 30
0.0
  0
POLYLINE
  5
69
330
64
100
AcDbEntity
  8
Calque 1
370
     0
100
AcDb2dPolyline
 66
     1
 10
0.0
 20
0.0
 30
0.0
  0
VERTEX
  5
6A
330
69
100
AcDbEntity
  8
Calque 1
370
     0
100
AcDbVertex
100
AcDb2dVertex
 10
46.40474716721826
 20
-74.43387178043668
 30
0.0
  0
VERTEX
  5
2D7
330
69
100
AcDbEntity
  8
0
100
AcDbVertex
100
AcDb2dVertex
 10
46.40474716721826
 20
-74.43387178043668
 30
0.0
  0
SEQEND
  5
6B
330
69
100
AcDbEntity
  8
Calque 1
370
     0
  0
POLYLINE
  5
6C
330
64
100
AcDbEntity
  8
Calque 1
370
     0
100
AcDb2dPolyline
 66
     1
 10
0.0
 20
0.0
 30
0.0
  0
VERTEX
  5
6D
330
6C
100
AcDbEntity
  8
Calque 1
370
     0
100
AcDbVertex
100
AcDb2dVertex
 10
14.92398138732803
 20
-74.26988523533878
 30
0.0
  0
VERTEX
  5
2D8
330
6C
100
AcDbEntity
  8
0
100
AcDbVertex
100
AcDb2dVertex
 10
14.92398138732803
 20
-74.26988523533878
 30
0.0
  0
SEQEND
  5
6E
330
6C
100
AcDbEntity
  8
Calque 1
370
     0
  0
SPLINE
  5
6F
330
64
100
AcDbEntity
  8
Calque 1
370
     0
100
AcDbSpline
210
0.0
220
0.0
230
1.0
 70
     8
 71
     3
 72
    23
 73
    19
 74
     0
 42
0.0000000001
 43
0.0000000001
 40
0.0
 40
0.0
 40
0.0
 40
0.0
 40
1.0
 40
1.0
 40
1.0
 40
2.0
 40
2.0
 40
2.0
 40
3.0
 40
3.0
 40
3.0
 40
4.0
 40
4.0
 40
4.0
 40
5.0
 40
5.0
 40
5.0
 40
6.0
 40
6.0
 40
6.0
 40
6.0
 10
14.87661132440585
 20
-74.15034042200061
 30
0.0
 10
14.87661132440585
 20
-78.32424585715505
 30
0.0
 10
17.51744926862411
 20
-82.0149766505032
 30
0.0
 10
21.56095783966185
 20
-84.25136038475314
 30
0.0
 10
21.56095783966185
 20
-84.25136038475314
 30
0.0
 10
22.16712239029155
 20
-84.57054848146153
 30
0.0
 10
22.16712239029155
 20
-84.57054848146153
 30
0.0
 10
24.13582220533757
 20
-85.73550751979876
 30
0.0
 10
30.69080538512244
 20
-90.66767847125669
 30
0.0
 10
30.69080538512244
 20
-90.66767847125669
 30
0.0
 10
30.69080538512244
 20
-90.66767847125669
 30
0.0
 10
38.24813909634074
 20
-85.03753117448714
 30
0.0
 10
39.11475286565534
 20
-84.57054848146153
 30
0.0
 10
39.11475286565534
 20
-84.57054848146153
 30
0.0
 10
39.85165878995028
 20
-84.17797985091731
 30
0.0
 10
39.85165878995028
 20
-84.17797985091731
 30
0.0
 10
43.82109780805514
 20
-81.93436141614836
 30
0.0
 10
46.40474716721826
 20
-78.27894285152402
 30
0.0
 10
46.40474716721826
 20
-74.15034042200061
 30
0.0
  0
ENDBLK
  5
67
330
64
100
AcDbEntity
  8
0
100
AcDbBlockEnd
  0
BLOCK
  5
72
330
70
100
AcDbEntity
  8
0
100
AcDbBlockBegin
  2
block 7
 70
     0
 71
     0
 10
0.0
 20
0.0
 30
0.0
  3
block 7
  1

  0
SPLINE
  5
74
330
70
100
AcDbEntity
  8
Calque 1
370
     0
100
AcDbSpline
210
0.0
220
0.0
230
1.0
 70
     8
 71
     3
 72
    20
 73
    16
 74
     0
 42
0.0000000001
 43
0.0000000001
 40
0.0
 40
0.0
 40
0.0
 40
0.0
 40
1.0
 40
1.0
 40
1.0
 40
2.0
 40
2.0
 40
2.0
 40
3.0
 40
3.0
 40
3.0
 40
4.0
 40
4.0
 40
4.0
 40
5.0
 40
5.0
 40
5.0
 40
5.0
 10
77.14292261526289
 20
-64.6017415203079
 30
0.0
 10
77.14292261526289
 20
-64.6017415203079
 30
0.0
 10
77.14292261526289
 20
-53.33851859560635
 30
0.0
 10
77.14292261526289
 20
-53.33851859560635
 30
0.0
 10
77.14292261526289
 20
-52.3022338736432
 30
0.0
 10
77.80748153436758
 20
-51.46300861343634
 30
0.0
 10
78.62689749553425
 20
-51.46300861343634
 30
0.0
 10
78.62689749553425
 20
-51.46300861343634
 30
0.0
 10
93.82218015232571
 20
-51.46300861343634
 30
0.0
 10
93.82218015232571
 20
-51.46300861343634
 30
0.0
 10
94.64176836826664
 20
-51.46300861343634
 30
0.0
 10
95.30615503259708
 20
-52.3022338736432
 30
0.0
 10
95.30615503259708
 20
-53.33851859560635
 30
0.0
 10
95.30615503259708
 20
-53.33851859560635
 30
0.0
 10
95.30615503259708
 20
-64.69648164615226
 30
0.0
 10
95.30615503259708
 20
-64.69648164615226
 30
0.0
  0
POLYLINE
  5
75
330
70
100
AcDbEntity
  8
Calque 1
370
     0
100
AcDb2dPolyline
 66
     1
 10
0.0
 20
0.0
 30
0.0
  0
VERTEX
  5
76
330
75
100
AcDbEntity
  8
Calque 1
370
     0
100
AcDbVertex
100
AcDb2dVertex
 10
95.30615503259708
 20
-64.69648164615226
 30
0.0
  0
VERTEX
  5
2D9
330
75
100
AcDbEntity
  8
0
100
AcDbVertex
100
AcDb2dVertex
 10
95.30615503259708
 20
-64.69648164615226
 30
0.0
  0
SEQEND
  5
77
330
75
100
AcDbEntity
  8
Calque 1
370
     0
  0
POLYLINE
  5
78
330
70
100
AcDbEntity
  8
Calque 1
370
     0
100
AcDb2dPolyline
 66
     1
 10
0.0
 20
0.0
 30
0.0
  0
VERTEX
  5
79
330
78
100
AcDbEntity
  8
Calque 1
370
     0
100
AcDbVertex
100
AcDb2dVertex
 10
77.17031112437061
 20
-64.6017415203079
 30
0.0
  0
VERTEX
  5
2DA
330
78
100
AcDbEntity
  8
0
100
AcDbVertex
100
AcDb2dVertex
 10
77.17031112437061
 20
-64.6017415203079
 30
0.0
  0
SEQEND
  5
7A
330
78
100
AcDbEntity
  8
Calque 1
370
     0
  0
SPLINE
  5
7B
330
70
100
AcDbEntity
  8
Calque 1
370
     0
100
AcDbSpline
210
0.0
220
0.0
230
1.0
 70
     8
 71
     3
 72
    23
 73
    19
 74
     0
 42
0.0000000001
 43
0.0000000001
 40
0.0
 40
0.0
 40
0.0
 40
0.0
 40
1.0
 40
1.0
 40
1.0
 40
2.0
 40
2.0
 40
2.0
 40
3.0
 40
3.0
 40
3.0
 40
4.0
 40
4.0
 40
4.0
 40
5.0
 40
5.0
 40
5.0
 40
6.0
 40
6.0
 40
6.0
 40
6.0
 10
77.14292261526289
 20
-64.5328396106029
 30
0.0
 10
77.14292261526289
 20
-66.93786076885581
 30
0.0
 10
78.66427678154922
 20
-69.06365693802923
 30
0.0
 10
80.99385034867515
 20
-70.35212264951267
 30
0.0
 10
80.99385034867515
 20
-70.35212264951267
 30
0.0
 10
81.34301077610522
 20
-70.53626300319927
 30
0.0
 10
81.34301077610522
 20
-70.53626300319927
 30
0.0
 10
82.47713620984948
 20
-71.20702309417742
 30
0.0
 10
86.25347762600607
 20
-74.04853785041148
 30
0.0
 10
86.25347762600607
 20
-74.04853785041148
 30
0.0
 10
86.25347762600607
 20
-74.04853785041148
 30
0.0
 10
90.6070447907163
 20
-70.80498045104876
 30
0.0
 10
91.10658363607753
 20
-70.53626300319927
 30
0.0
 10
91.10658363607753
 20
-70.53626300319927
 30
0.0
 10
91.5310193998603
 20
-70.31009248459262
 30
0.0
 10
91.5310193998603
 20
-70.31009248459262
 30
0.0
 10
93.81787378296914
 20
-69.01714814897835
 30
0.0
 10
95.30615503259708
 20
-66.91098902407087
 30
0.0
 10
95.30615503259708
 20
-64.5328396106029
 30
0.0
  0
ENDBLK
  5
73
330
70
100
AcDbEntity
  8
0
100
AcDbBlockEnd
  0
BLOCK
  5
7E
330
7C
100
AcDbEntity
  8
0
100
AcDbBlockBegin
  2
block 8
 70
     0
 71
     0
 10
0.0
 20
0.0
 30
0.0
  3
block 8
  1

  0
SPLINE
  5
80
330
7C
100
AcDbEntity
  8
Calque 1
370
     0
100
AcDbSpline
210
0.0
220
0.0
230
1.0
 70
     8
 71
     3
 72
    20
 73
    16
 74
     0
 42
0.0000000001
 43
0.0000000001
 40
0.0
 40
0.0
 40
0.0
 40
0.0
 40
1.0
 40
1.0
 40
1.0
 40
2.0
 40
2.0
 40
2.0
 40
3.0
 40
3.0
 40
3.0
 40
4.0
 40
4.0
 40
4.0
 40
5.0
 40
5.0
 40
5.0
 40
5.0
 10
48.76498208416292
 20
-69.80280217438958
 30
0.0
 10
48.76498208416292
 20
-69.80280217438958
 30
0.0
 10
48.76498208416292
 20
-54.08059216312916
 30
0.0
 10
48.76498208416292
 20
-54.08059216312916
 30
0.0
 10
48.76498208416292
 20
-52.63503009751833
 30
0.0
 10
49.69257404356645
 20
-51.46300861343634
 30
0.0
 10
50.83651799944365
 20
-51.46300861343634
 30
0.0
 10
50.83651799944365
 20
-51.46300861343634
 30
0.0
 10
72.0465928639328
 20
-51.46300861343634
 30
0.0
 10
72.0465928639328
 20
-51.46300861343634
 30
0.0
 10
73.19053681981
 20
-51.46300861343634
 30
0.0
 10
74.117784269665
 20
-52.63503009751833
 30
0.0
 10
74.117784269665
 20
-54.08059216312916
 30
0.0
 10
74.117784269665
 20
-54.08059216312916
 30
0.0
 10
74.117784269665
 20
-69.93457707670039
 30
0.0
 10
74.117784269665
 20
-69.93457707670039
 30
0.0
  0
POLYLINE
  5
81
330
7C
100
AcDbEntity
  8
Calque 1
370
     0
100
AcDb2dPolyline
 66
     1
 10
0.0
 20
0.0
 30
0.0
  0
VERTEX
  5
82
330
81
100
AcDbEntity
  8
Calque 1
370
     0
100
AcDbVertex
100
AcDb2dVertex
 10
74.117784269665
 20
-69.93457707670039
 30
0.0
  0
VERTEX
  5
2DB
330
81
100
AcDbEntity
  8
0
100
AcDbVertex
100
AcDb2dVertex
 10
74.117784269665
 20
-69.93457707670039
 30
0.0
  0
SEQEND
  5
83
330
81
100
AcDbEntity
  8
Calque 1
370
     0
  0
POLYLINE
  5
84
330
7C
100
AcDbEntity
  8
Calque 1
370
     0
100
AcDb2dPolyline
 66
     1
 10
0.0
 20
0.0
 30
0.0
  0
VERTEX
  5
85
330
84
100
AcDbEntity
  8
Calque 1
370
     0
100
AcDbVertex
100
AcDb2dVertex
 10
48.8032226440492
 20
-69.80280217438958
 30
0.0
  0
VERTEX
  5
2DC
330
84
100
AcDbEntity
  8
0
100
AcDbVertex
100
AcDb2dVertex
 10
48.8032226440492
 20
-69.80280217438958
 30
0.0
  0
SEQEND
  5
86
330
84
100
AcDbEntity
  8
Calque 1
370
     0
  0
SPLINE
  5
87
330
7C
100
AcDbEntity
  8
Calque 1
370
     0
100
AcDbSpline
210
0.0
220
0.0
230
1.0
 70
     8
 71
     3
 72
    23
 73
    19
 74
     0
 42
0.0000000001
 43
0.0000000001
 40
0.0
 40
0.0
 40
0.0
 40
0.0
 40
1.0
 40
1.0
 40
1.0
 40
2.0
 40
2.0
 40
2.0
 40
3.0
 40
3.0
 40
3.0
 40
4.0
 40
4.0
 40
4.0
 40
5.0
 40
5.0
 40
5.0
 40
6.0
 40
6.0
 40
6.0
 40
6.0
 10
48.76498208416292
 20
-69.70633950080259
 30
0.0
 10
48.76498208416292
 20
-73.0628960320815
 30
0.0
 10
50.88836668649666
 20
-76.03084579262423
 30
0.0
 10
54.14019231502398
 20
-77.82953014547317
 30
0.0
 10
54.14019231502398
 20
-77.82953014547317
 30
0.0
 10
54.62750107141257
 20
-78.0856729948015
 30
0.0
 10
54.62750107141257
 20
-78.0856729948015
 30
0.0
 10
56.21052244688487
 20
-79.02239445724094
 30
0.0
 10
61.48169079409139
 20
-82.98907739895759
 30
0.0
 10
61.48169079409139
 20
-82.98907739895759
 30
0.0
 10
61.48169079409139
 20
-82.98907739895759
 30
0.0
 10
67.5588392300721
 20
-78.46170516701652
 30
0.0
 10
68.25578204673815
 20
-78.0856729948015
 30
0.0
 10
68.25578204673815
 20
-78.0856729948015
 30
0.0
 10
68.84833847020111
 20
-77.77010224835261
 30
0.0
 10
68.84833847020111
 20
-77.77010224835261
 30
0.0
 10
72.04021943728509
 20
-75.96607799750154
 30
0.0
 10
74.117784269665
 20
-73.02637801993785
 30
0.0
 10
74.117784269665
 20
-69.70633950080259
 30
0.0
  0
ENDBLK
  5
7F
330
7C
100
AcDbEntity
  8
0
100
AcDbBlockEnd
  0
BLOCK
  5
8A
330
88
100
AcDbEntity
  8
0
100
AcDbBlockBegin
  2
block 9
 70
     0
 71
     0
 10
0.0
 20
0.0
 30
0.0
  3
block 9
  1

  0
SPLINE
  5
8C
330
88
100
AcDbEntity
  8
Calque 1
370
     0
100
AcDbSpline
210
0.0
220
0.0
230
1.0
 70
     8
 71
     3
 72
    20
 73
    16
 74
     0
 42
0.0000000001
 43
0.0000000001
 40
0.0
 40
0.0
 40
0.0
 40
0.0
 40
1.0
 40
1.0
 40
1.0
 40
2.0
 40
2.0
 40
2.0
 40
3.0
 40
3.0
 40
3.0
 40
4.0
 40
4.0
 40
4.0
 40
5.0
 40
5.0
 40
5.0
 40
5.0
 10
178.9106987399946
 20
-27.34303384733091
 30
0.0
 10
178.9106987399946
 20
-27.34303384733091
 30
0.0
 10
178.9106987399946
 20
-46.89429523567226
 30
0.0
 10
178.9106987399946
 20
-46.89429523567226
 30
0.0
 10
178.9106987399946
 20
-48.69194605987563
 30
0.0
 10
177.7572807715329
 20
-50.14991046923335
 30
0.0
 10
176.3348008456732
 20
-50.14991046923335
 30
0.0
 10
176.3348008456732
 20
-50.14991046923335
 30
0.0
 10
149.9584607915035
 20
-50.14991046923335
 30
0.0
 10
149.9584607915035
 20
-50.14991046923335
 30
0.0
 10
148.5358086108695
 20
-50.14991046923335
 30
0.0
 10
147.3825628971821
 20
-48.69194605987563
 30
0.0
 10
147.3825628971821
 20
-46.89429523567226
 30
0.0
 10
147.3825628971821
 20
-46.89429523567226
 30
0.0
 10
147.3825628971821
 20
-27.17904730223302
 30
0.0
 10
147.3825628971821
 20
-27.17904730223302
 30
0.0
  0
POLYLINE
  5
8D
330
88
100
AcDbEntity
  8
Calque 1
370
     0
100
AcDb2dPolyline
 66
     1
 10
0.0
 20
0.0
 30
0.0
  0
VERTEX
  5
8E
330
8D
100
AcDbEntity
  8
Calque 1
370
     0
100
AcDbVertex
100
AcDb2dVertex
 10
147.3825628971821
 20
-27.17904730223302
 30
0.0
  0
VERTEX
  5
2DD
330
8D
100
AcDbEntity
  8
0
100
AcDbVertex
100
AcDb2dVertex
 10
147.3825628971821
 20
-27.17904730223302
 30
0.0
  0
SEQEND
  5
8F
330
8D
100
AcDbEntity
  8
Calque 1
370
     0
  0
POLYLINE
  5
90
330
88
100
AcDbEntity
  8
Calque 1
370
     0
100
AcDb2dPolyline
 66
     1
 10
0.0
 20
0.0
 30
0.0
  0
VERTEX
  5
91
330
90
100
AcDbEntity
  8
Calque 1
370
     0
100
AcDbVertex
100
AcDb2dVertex
 10
178.8633286770724
 20
-27.34303384733091
 30
0.0
  0
VERTEX
  5
2DE
330
90
100
AcDbEntity
  8
0
100
AcDbVertex
100
AcDb2dVertex
 10
178.8633286770724
 20
-27.34303384733091
 30
0.0
  0
SEQEND
  5
92
330
90
100
AcDbEntity
  8
Calque 1
370
     0
  0
SPLINE
  5
93
330
88
100
AcDbEntity
  8
Calque 1
370
     0
100
AcDbSpline
210
0.0
220
0.0
230
1.0
 70
     8
 71
     3
 72
    23
 73
    19
 74
     0
 42
0.0000000001
 43
0.0000000001
 40
0.0
 40
0.0
 40
0.0
 40
0.0
 40
1.0
 40
1.0
 40
1.0
 40
2.0
 40
2.0
 40
2.0
 40
3.0
 40
3.0
 40
3.0
 40
4.0
 40
4.0
 40
4.0
 40
5.0
 40
5.0
 40
5.0
 40
6.0
 40
6.0
 40
6.0
 40
6.0
 10
178.9106987399946
 20
-27.46257866066908
 30
0.0
 10
178.9106987399946
 20
-23.28867322551464
 30
0.0
 10
176.2698607957763
 20
-19.59794243216649
 30
0.0
 10
172.2263522247385
 20
-17.36155869791656
 30
0.0
 10
172.2263522247385
 20
-17.36155869791656
 30
0.0
 10
171.6201876741088
 20
-17.04237060120816
 30
0.0
 10
171.6201876741088
 20
-17.04237060120816
 30
0.0
 10
169.6514878590628
 20
-15.87741156287093
 30
0.0
 10
163.096504679278
 20
-10.945240611413
 30
0.0
 10
163.096504679278
 20
-10.945240611413
 30
0.0
 10
163.096504679278
 20
-10.945240611413
 30
0.0
 10
155.5391709680597
 20
-16.57538790818254
 30
0.0
 10
154.6725571987451
 20
-17.04237060120816
 30
0.0
 10
154.6725571987451
 20
-17.04237060120816
 30
0.0
 10
153.9356512744501
 20
-17.43493923175238
 30
0.0
 10
153.9356512744501
 20
-17.43493923175238
 30
0.0
 10
149.9662122563453
 20
-19.67855766652133
 30
0.0
 10
147.3825628971821
 20
-23.33397623114567
 30
0.0
 10
147.3825628971821
 20
-27.46257866066908
 30
0.0
  0
ENDBLK
  5
8B
330
88
100
AcDbEntity
  8
0
100
AcDbBlockEnd
  0
BLOCK
  5
96
330
94
100
AcDbEntity
  8
0
100
AcDbBlockBegin
  2
block 10
 70
     0
 71
     0
 10
0.0
 20
0.0
 30
0.0
  3
block 10
  1

  0
SPLINE
  5
98
330
94
100
AcDbEntity
  8
Calque 1
370
     0
100
AcDbSpline
210
0.0
220
0.0
230
1.0
 70
     8
 71
     3
 72
    20
 73
    16
 74
     0
 42
0.0000000001
 43
0.0000000001
 40
0.0
 40
0.0
 40
0.0
 40
0.0
 40
1.0
 40
1.0
 40
1.0
 40
2.0
 40
2.0
 40
2.0
 40
3.0
 40
3.0
 40
3.0
 40
4.0
 40
4.0
 40
4.0
 40
5.0
 40
5.0
 40
5.0
 40
5.0
 10
116.6443874491375
 20
-37.01117756236179
 30
0.0
 10
116.6443874491375
 20
-37.01117756236179
 30
0.0
 10
116.6443874491375
 20
-48.27440048706335
 30
0.0
 10
116.6443874491375
 20
-48.27440048706335
 30
0.0
 10
116.6443874491375
 20
-49.3106852090265
 30
0.0
 10
115.9798285300328
 20
-50.14991046923335
 30
0.0
 10
115.1604125688661
 20
-50.14991046923335
 30
0.0
 10
115.1604125688661
 20
-50.14991046923335
 30
0.0
 10
99.9651299120747
 20
-50.14991046923335
 30
0.0
 10
99.9651299120747
 20
-50.14991046923335
 30
0.0
 10
99.14554169613376
 20
-50.14991046923335
 30
0.0
 10
98.48115503180333
 20
-49.3106852090265
 30
0.0
 10
98.48115503180333
 20
-48.27440048706335
 30
0.0
 10
98.48115503180333
 20
-48.27440048706335
 30
0.0
 10
98.48115503180333
 20
-36.91643743651742
 30
0.0
 10
98.48115503180333
 20
-36.91643743651742
 30
0.0
  0
POLYLINE
  5
99
330
94
100
AcDbEntity
  8
Calque 1
370
     0
100
AcDb2dPolyline
 66
     1
 10
0.0
 20
0.0
 30
0.0
  0
VERTEX
  5
9A
330
99
100
AcDbEntity
  8
Calque 1
370
     0
100
AcDbVertex
100
AcDb2dVertex
 10
98.48115503180333
 20
-36.91643743651742
 30
0.0
  0
VERTEX
  5
2DF
330
99
100
AcDbEntity
  8
0
100
AcDbVertex
100
AcDb2dVertex
 10
98.48115503180333
 20
-36.91643743651742
 30
0.0
  0
SEQEND
  5
9B
330
99
100
AcDbEntity
  8
Calque 1
370
     0
  0
POLYLINE
  5
9C
330
94
100
AcDbEntity
  8
Calque 1
370
     0
100
AcDb2dPolyline
 66
     1
 10
0.0
 20
0.0
 30
0.0
  0
VERTEX
  5
9D
330
9C
100
AcDbEntity
  8
Calque 1
370
     0
100
AcDbVertex
100
AcDb2dVertex
 10
116.6169989400298
 20
-37.01117756236179
 30
0.0
  0
VERTEX
  5
2E0
330
9C
100
AcDbEntity
  8
0
100
AcDbVertex
100
AcDb2dVertex
 10
116.6169989400298
 20
-37.01117756236179
 30
0.0
  0
SEQEND
  5
9E
330
9C
100
AcDbEntity
  8
Calque 1
370
     0
  0
SPLINE
  5
9F
330
94
100
AcDbEntity
  8
Calque 1
370
     0
100
AcDbSpline
210
0.0
220
0.0
230
1.0
 70
     8
 71
     3
 72
    23
 73
    19
 74
     0
 42
0.0000000001
 43
0.0000000001
 40
0.0
 40
0.0
 40
0.0
 40
0.0
 40
1.0
 40
1.0
 40
1.0
 40
2.0
 40
2.0
 40
2.0
 40
3.0
 40
3.0
 40
3.0
 40
4.0
 40
4.0
 40
4.0
 40
5.0
 40
5.0
 40
5.0
 40
6.0
 40
6.0
 40
6.0
 40
6.0
 10
116.6443874491375
 20
-37.08007947206679
 30
0.0
 10
116.6443874491375
 20
-34.67505831381388
 30
0.0
 10
115.1230332828512
 20
-32.54926214464047
 30
0.0
 10
112.7934597157252
 20
-31.26079643315703
 30
0.0
 10
112.7934597157252
 20
-31.26079643315703
 30
0.0
 10
112.4442992882952
 20
-31.07665607947042
 30
0.0
 10
112.4442992882952
 20
-31.07665607947042
 30
0.0
 10
111.3101738545509
 20
-30.40589598849228
 30
0.0
 10
107.5338324383943
 20
-27.56438123225821
 30
0.0
 10
107.5338324383943
 20
-27.56438123225821
 30
0.0
 10
107.5338324383943
 20
-27.56438123225821
 30
0.0
 10
103.1802652736841
 20
-30.80793863162094
 30
0.0
 10
102.6807264283229
 20
-31.07665607947042
 30
0.0
 10
102.6807264283229
 20
-31.07665607947042
 30
0.0
 10
102.2562906645401
 20
-31.30282659807707
 30
0.0
 10
102.2562906645401
 20
-31.30282659807707
 30
0.0
 10
99.96943628143126
 20
-32.59577093369133
 30
0.0
 10
98.48115503180333
 20
-34.70193005859883
 30
0.0
 10
98.48115503180333
 20
-37.08007947206679
 30
0.0
  0
ENDBLK
  5
97
330
94
100
AcDbEntity
  8
0
100
AcDbBlockEnd
  0
BLOCK
  5
A2
330
A0
100
AcDbEntity
  8
0
100
AcDbBlockBegin
  2
block 11
 70
     0
 71
     0
 10
0.0
 20
0.0
 30
0.0
  3
block 11
  1

  0
SPLINE
  5
A4
330
A0
100
AcDbEntity
  8
Calque 1
370
     0
100
AcDbSpline
210
0.0
220
0.0
230
1.0
 70
     8
 71
     3
 72
    20
 73
    16
 74
     0
 42
0.0000000001
 43
0.0000000001
 40
0.0
 40
0.0
 40
0.0
 40
0.0
 40
1.0
 40
1.0
 40
1.0
 40
2.0
 40
2.0
 40
2.0
 40
3.0
 40
3.0
 40
3.0
 40
4.0
 40
4.0
 40
4.0
 40
5.0
 40
5.0
 40
5.0
 40
5.0
 10
145.0223279802375
 20
-31.81011690828011
 30
0.0
 10
145.0223279802375
 20
-31.81011690828011
 30
0.0
 10
145.0223279802375
 20
-47.53232691954053
 30
0.0
 10
145.0223279802375
 20
-47.53232691954053
 30
0.0
 10
145.0223279802375
 20
-48.97788898515137
 30
0.0
 10
144.0947360208339
 20
-50.14991046923335
 30
0.0
 10
142.9507920649567
 20
-50.14991046923335
 30
0.0
 10
142.9507920649567
 20
-50.14991046923335
 30
0.0
 10
121.7407172004676
 20
-50.14991046923335
 30
0.0
 10
121.7407172004676
 20
-50.14991046923335
 30
0.0
 10
120.5967732445904
 20
-50.14991046923335
 30
0.0
 10
119.6695257947354
 20
-48.97788898515137
 30
0.0
 10
119.6695257947354
 20
-47.53232691954053
 30
0.0
 10
119.6695257947354
 20
-47.53232691954053
 30
0.0
 10
119.6695257947354
 20
-31.67834200596931
 30
0.0
 10
119.6695257947354
 20
-31.67834200596931
 30
0.0
  0
POLYLINE
  5
A5
330
A0
100
AcDbEntity
  8
Calque 1
370
     0
100
AcDb2dPolyline
 66
     1
 10
0.0
 20
0.0
 30
0.0
  0
VERTEX
  5
A6
330
A5
100
AcDbEntity
  8
Calque 1
370
     0
100
AcDbVertex
100
AcDb2dVertex
 10
119.6695257947354
 20
-31.67834200596931
 30
0.0
  0
VERTEX
  5
2E1
330
A5
100
AcDbEntity
  8
0
100
AcDbVertex
100
AcDb2dVertex
 10
119.6695257947354
 20
-31.67834200596931
 30
0.0
  0
SEQEND
  5
A7
330
A5
100
AcDbEntity
  8
Calque 1
370
     0
  0
POLYLINE
  5
A8
330
A0
100
AcDbEntity
  8
Calque 1
370
     0
100
AcDb2dPolyline
 66
     1
 10
0.0
 20
0.0
 30
0.0
  0
VERTEX
  5
A9
330
A8
100
AcDbEntity
  8
Calque 1
370
     0
100
AcDbVertex
100
AcDb2dVertex
 10
144.9840874203512
 20
-31.81011690828011
 30
0.0
  0
VERTEX
  5
2E2
330
A8
100
AcDbEntity
  8
0
100
AcDbVertex
100
AcDb2dVertex
 10
144.9840874203512
 20
-31.81011690828011
 30
0.0
  0
SEQEND
  5
AA
330
A8
100
AcDbEntity
  8
Calque 1
370
     0
  0
SPLINE
  5
AB
330
A0
100
AcDbEntity
  8
Calque 1
370
     0
100
AcDbSpline
210
0.0
220
0.0
230
1.0
 70
     8
 71
     3
 72
    23
 73
    19
 74
     0
 42
0.0000000001
 43
0.0000000001
 40
0.0
 40
0.0
 40
0.0
 40
0.0
 40
1.0
 40
1.0
 40
1.0
 40
2.0
 40
2.0
 40
2.0
 40
3.0
 40
3.0
 40
3.0
 40
4.0
 40
4.0
 40
4.0
 40
5.0
 40
5.0
 40
5.0
 40
6.0
 40
6.0
 40
6.0
 40
6.0
 10
145.0223279802375
 20
-31.90657958186711
 30
0.0
 10
145.0223279802375
 20
-28.55002305058819
 30
0.0
 10
142.8989433779037
 20
-25.58207329004545
 30
0.0
 10
139.6471177493764
 20
-23.78338893719652
 30
0.0
 10
139.6471177493764
 20
-23.78338893719652
 30
0.0
 10
139.1598089929878
 20
-23.52724608786819
 30
0.0
 10
139.1598089929878
 20
-23.52724608786819
 30
0.0
 10
137.5767876175155
 20
-22.59052462542876
 30
0.0
 10
132.305619270309
 20
-18.6238416837121
 30
0.0
 10
132.305619270309
 20
-18.6238416837121
 30
0.0
 10
132.305619270309
 20
-18.6238416837121
 30
0.0
 10
126.2284708343283
 20
-23.15121391565317
 30
0.0
 10
125.5315280176623
 20
-23.52724608786819
 30
0.0
 10
125.5315280176623
 20
-23.52724608786819
 30
0.0
 10
124.9389715941993
 20
-23.84281683431707
 30
0.0
 10
124.9389715941993
 20
-23.84281683431707
 30
0.0
 10
121.7470906271153
 20
-25.64684108516815
 30
0.0
 10
119.6695257947354
 20
-28.58654106273184
 30
0.0
 10
119.6695257947354
 20
-31.90657958186711
 30
0.0
  0
ENDBLK
  5
A3
330
A0
100
AcDbEntity
  8
0
100
AcDbBlockEnd
  0
BLOCK
  5
AE
330
AC
100
AcDbEntity
  8
0
100
AcDbBlockBegin
  2
block 12
 70
     0
 71
     0
 10
0.0
 20
0.0
 30
0.0
  3
block 12
  1

  0
SPLINE
  5
B0
330
AC
100
AcDbEntity
  8
Calque 1
370
     0
100
AcDbSpline
210
0.0
220
0.0
230
1.0
 70
     8
 71
     3
 72
    20
 73
    16
 74
     0
 42
0.0000000001
 43
0.0000000001
 40
0.0
 40
0.0
 40
0.0
 40
0.0
 40
1.0
 40
1.0
 40
1.0
 40
2.0
 40
2.0
 40
2.0
 40
3.0
 40
3.0
 40
3.0
 40
4.0
 40
4.0
 40
4.0
 40
5.0
 40
5.0
 40
5.0
 40
5.0
 10
98.48115503180333
 20
-75.58298337954176
 30
0.0
 10
98.48115503180333
 20
-75.58298337954176
 30
0.0
 10
98.48115503180333
 20
-56.03172199120041
 30
0.0
 10
98.48115503180333
 20
-56.03172199120041
 30
0.0
 10
98.48115503180333
 20
-54.23407116699704
 30
0.0
 10
99.63457300026498
 20
-52.77610675763931
 30
0.0
 10
101.0570529261246
 20
-52.77610675763931
 30
0.0
 10
101.0570529261246
 20
-52.77610675763931
 30
0.0
 10
127.4333929802944
 20
-52.77610675763931
 30
0.0
 10
127.4333929802944
 20
-52.77610675763931
 30
0.0
 10
128.8560451609283
 20
-52.77610675763931
 30
0.0
 10
130.0092908746157
 20
-54.23407116699704
 30
0.0
 10
130.0092908746157
 20
-56.03172199120041
 30
0.0
 10
130.0092908746157
 20
-56.03172199120041
 30
0.0
 10
130.0092908746157
 20
-75.74696992463964
 30
0.0
 10
130.0092908746157
 20
-75.74696992463964
 30
0.0
  0
POLYLINE
  5
B1
330
AC
100
AcDbEntity
  8
Calque 1
370
     0
100
AcDb2dPolyline
 66
     1
 10
0.0
 20
0.0
 30
0.0
  0
VERTEX
  5
B2
330
B1
100
AcDbEntity
  8
Calque 1
370
     0
100
AcDbVertex
100
AcDb2dVertex
 10
130.0092908746157
 20
-75.74696992463964
 30
0.0
  0
VERTEX
  5
2E3
330
B1
100
AcDbEntity
  8
0
100
AcDbVertex
100
AcDb2dVertex
 10
130.0092908746157
 20
-75.74696992463964
 30
0.0
  0
SEQEND
  5
B3
330
B1
100
AcDbEntity
  8
Calque 1
370
     0
  0
POLYLINE
  5
B4
330
AC
100
AcDbEntity
  8
Calque 1
370
     0
100
AcDb2dPolyline
 66
     1
 10
0.0
 20
0.0
 30
0.0
  0
VERTEX
  5
B5
330
B4
100
AcDbEntity
  8
Calque 1
370
     0
100
AcDbVertex
100
AcDb2dVertex
 10
98.52852509472551
 20
-75.58298337954176
 30
0.0
  0
VERTEX
  5
2E4
330
B4
100
AcDbEntity
  8
0
100
AcDbVertex
100
AcDb2dVertex
 10
98.52852509472551
 20
-75.58298337954176
 30
0.0
  0
SEQEND
  5
B6
330
B4
100
AcDbEntity
  8
Calque 1
370
     0
  0
SPLINE
  5
B7
330
AC
100
AcDbEntity
  8
Calque 1
370
     0
100
AcDbSpline
210
0.0
220
0.0
230
1.0
 70
     8
 71
     3
 72
    23
 73
    19
 74
     0
 42
0.0000000001
 43
0.0000000001
 40
0.0
 40
0.0
 40
0.0
 40
0.0
 40
1.0
 40
1.0
 40
1.0
 40
2.0
 40
2.0
 40
2.0
 40
3.0
 40
3.0
 40
3.0
 40
4.0
 40
4.0
 40
4.0
 40
5.0
 40
5.0
 40
5.0
 40
6.0
 40
6.0
 40
6.0
 40
6.0
 10
98.48115503180333
 20
-75.46343856620359
 30
0.0
 10
98.48115503180333
 20
-79.63734400135803
 30
0.0
 10
101.1219929760216
 20
-83.32807479470618
 30
0.0
 10
105.1655015470593
 20
-85.56445852895611
 30
0.0
 10
105.1655015470593
 20
-85.56445852895611
 30
0.0
 10
105.771666097689
 20
-85.88364662566451
 30
0.0
 10
105.771666097689
 20
-85.88364662566451
 30
0.0
 10
107.7403659127351
 20
-87.04860566400174
 30
0.0
 10
114.2953490925199
 20
-91.98077661545967
 30
0.0
 10
114.2953490925199
 20
-91.98077661545967
 30
0.0
 10
114.2953490925199
 20
-91.98077661545967
 30
0.0
 10
121.8526828037382
 20
-86.35062931869012
 30
0.0
 10
122.7192965730528
 20
-85.88364662566451
 30
0.0
 10
122.7192965730528
 20
-85.88364662566451
 30
0.0
 10
123.4562024973478
 20
-85.49107799512029
 30
0.0
 10
123.4562024973478
 20
-85.49107799512029
 30
0.0
 10
127.4256415154526
 20
-83.24745956035133
 30
0.0
 10
130.0092908746157
 20
-79.59204099572699
 30
0.0
 10
130.0092908746157
 20
-75.46343856620359
 30
0.0
  0
ENDBLK
  5
AF
330
AC
100
AcDbEntity
  8
0
100
AcDbBlockEnd
  0
BLOCK
  5
BA
330
B8
100
AcDbEntity
  8
0
100
AcDbBlockBegin
  2
block 13
 70
     0
 71
     0
 10
0.0
 20
0.0
 30
0.0
  3
block 13
  1

  0
SPLINE
  5
BC
330
B8
100
AcDbEntity
  8
Calque 1
370
     0
100
AcDbSpline
210
0.0
220
0.0
230
1.0
 70
     8
 71
     3
 72
    20
 73
    16
 74
     0
 42
0.0000000001
 43
0.0000000001
 40
0.0
 40
0.0
 40
0.0
 40
0.0
 40
1.0
 40
1.0
 40
1.0
 40
2.0
 40
2.0
 40
2.0
 40
3.0
 40
3.0
 40
3.0
 40
4.0
 40
4.0
 40
4.0
 40
5.0
 40
5.0
 40
5.0
 40
5.0
 10
160.7474663226604
 20
-65.91483966451088
 30
0.0
 10
160.7474663226604
 20
-65.91483966451088
 30
0.0
 10
160.7474663226604
 20
-54.65161673980932
 30
0.0
 10
160.7474663226604
 20
-54.65161673980932
 30
0.0
 10
160.7474663226604
 20
-53.61533201784617
 30
0.0
 10
161.4120252417651
 20
-52.77610675763931
 30
0.0
 10
162.2314412029317
 20
-52.77610675763931
 30
0.0
 10
162.2314412029317
 20
-52.77610675763931
 30
0.0
 10
177.4267238597232
 20
-52.77610675763931
 30
0.0
 10
177.4267238597232
 20
-52.77610675763931
 30
0.0
 10
178.2463120756641
 20
-52.77610675763931
 30
0.0
 10
178.9106987399946
 20
-53.61533201784617
 30
0.0
 10
178.9106987399946
 20
-54.65161673980932
 30
0.0
 10
178.9106987399946
 20
-54.65161673980932
 30
0.0
 10
178.9106987399946
 20
-66.00957979035525
 30
0.0
 10
178.9106987399946
 20
-66.00957979035525
 30
0.0
  0
POLYLINE
  5
BD
330
B8
100
AcDbEntity
  8
Calque 1
370
     0
100
AcDb2dPolyline
 66
     1
 10
0.0
 20
0.0
 30
0.0
  0
VERTEX
  5
BE
330
BD
100
AcDbEntity
  8
Calque 1
370
     0
100
AcDbVertex
100
AcDb2dVertex
 10
178.9106987399946
 20
-66.00957979035525
 30
0.0
  0
VERTEX
  5
2E5
330
BD
100
AcDbEntity
  8
0
100
AcDbVertex
100
AcDb2dVertex
 10
178.9106987399946
 20
-66.00957979035525
 30
0.0
  0
SEQEND
  5
BF
330
BD
100
AcDbEntity
  8
Calque 1
370
     0
  0
POLYLINE
  5
C0
330
B8
100
AcDbEntity
  8
Calque 1
370
     0
100
AcDb2dPolyline
 66
     1
 10
0.0
 20
0.0
 30
0.0
  0
VERTEX
  5
C1
330
C0
100
AcDbEntity
  8
Calque 1
370
     0
100
AcDbVertex
100
AcDb2dVertex
 10
160.7748548317681
 20
-65.91483966451088
 30
0.0
  0
VERTEX
  5
2E6
330
C0
100
AcDbEntity
  8
0
100
AcDbVertex
100
AcDb2dVertex
 10
160.7748548317681
 20
-65.91483966451088
 30
0.0
  0
SEQEND
  5
C2
330
C0
100
AcDbEntity
  8
Calque 1
370
     0
  0
SPLINE
  5
C3
330
B8
100
AcDbEntity
  8
Calque 1
370
     0
100
AcDbSpline
210
0.0
220
0.0
230
1.0
 70
     8
 71
     3
 72
    23
 73
    19
 74
     0
 42
0.0000000001
 43
0.0000000001
 40
0.0
 40
0.0
 40
0.0
 40
0.0
 40
1.0
 40
1.0
 40
1.0
 40
2.0
 40
2.0
 40
2.0
 40
3.0
 40
3.0
 40
3.0
 40
4.0
 40
4.0
 40
4.0
 40
5.0
 40
5.0
 40
5.0
 40
6.0
 40
6.0
 40
6.0
 40
6.0
 10
160.7474663226604
 20
-65.84593775480587
 30
0.0
 10
160.7474663226604
 20
-68.2509589130588
 30
0.0
 10
162.2688204889467
 20
-70.37675508223221
 30
0.0
 10
164.5983940560726
 20
-71.66522079371565
 30
0.0
 10
164.5983940560726
 20
-71.66522079371565
 30
0.0
 10
164.9475544835027
 20
-71.84936114740225
 30
0.0
 10
164.9475544835027
 20
-71.84936114740225
 30
0.0
 10
166.081679917247
 20
-72.52012123838038
 30
0.0
 10
169.8580213334036
 20
-75.36163599461446
 30
0.0
 10
169.8580213334036
 20
-75.36163599461446
 30
0.0
 10
169.8580213334036
 20
-75.36163599461446
 30
0.0
 10
174.2115884981138
 20
-72.11807859525173
 30
0.0
 10
174.711127343475
 20
-71.84936114740225
 30
0.0
 10
174.711127343475
 20
-71.84936114740225
 30
0.0
 10
175.1355631072578
 20
-71.6231906287956
 30
0.0
 10
175.1355631072578
 20
-71.6231906287956
 30
0.0
 10
177.4224174903666
 20
-70.33024629318133
 30
0.0
 10
178.9106987399946
 20
-68.22408716827384
 30
0.0
 10
178.9106987399946
 20
-65.84593775480587
 30
0.0
  0
ENDBLK
  5
BB
330
B8
100
AcDbEntity
  8
0
100
AcDbBlockEnd
  0
BLOCK
  5
C6
330
C4
100
AcDbEntity
  8
0
100
AcDbBlockBegin
  2
block 14
 70
     0
 71
     0
 10
0.0
 20
0.0
 30
0.0
  3
block 14
  1

  0
SPLINE
  5
C8
330
C4
100
AcDbEntity
  8
Calque 1
370
     0
100
AcDbSpline
210
0.0
220
0.0
230
1.0
 70
     8
 71
     3
 72
    20
 73
    16
 74
     0
 42
0.0000000001
 43
0.0000000001
 40
0.0
 40
0.0
 40
0.0
 40
0.0
 40
1.0
 40
1.0
 40
1.0
 40
2.0
 40
2.0
 40
2.0
 40
3.0
 40
3.0
 40
3.0
 40
4.0
 40
4.0
 40
4.0
 40
5.0
 40
5.0
 40
5.0
 40
5.0
 10
132.3695257915604
 20
-71.11590031859255
 30
0.0
 10
132.3695257915604
 20
-71.11590031859255
 30
0.0
 10
132.3695257915604
 20
-55.39369030733214
 30
0.0
 10
132.3695257915604
 20
-55.39369030733214
 30
0.0
 10
132.3695257915604
 20
-53.94812824172131
 30
0.0
 10
133.2971177509639
 20
-52.77610675763931
 30
0.0
 10
134.4410617068411
 20
-52.77610675763931
 30
0.0
 10
134.4410617068411
 20
-52.77610675763931
 30
0.0
 10
155.6511365713303
 20
-52.77610675763931
 30
0.0
 10
155.6511365713303
 20
-52.77610675763931
 30
0.0
 10
156.7950805272075
 20
-52.77610675763931
 30
0.0
 10
157.7223279770625
 20
-53.94812824172131
 30
0.0
 10
157.7223279770625
 20
-55.39369030733214
 30
0.0
 10
157.7223279770625
 20
-55.39369030733214
 30
0.0
 10
157.7223279770625
 20
-71.24767522090336
 30
0.0
 10
157.7223279770625
 20
-71.24767522090336
 30
0.0
  0
POLYLINE
  5
C9
330
C4
100
AcDbEntity
  8
Calque 1
370
     0
100
AcDb2dPolyline
 66
     1
 10
0.0
 20
0.0
 30
0.0
  0
VERTEX
  5
CA
330
C9
100
AcDbEntity
  8
Calque 1
370
     0
100
AcDbVertex
100
AcDb2dVertex
 10
157.7223279770625
 20
-71.24767522090336
 30
0.0
  0
VERTEX
  5
2E7
330
C9
100
AcDbEntity
  8
0
100
AcDbVertex
100
AcDb2dVertex
 10
157.7223279770625
 20
-71.24767522090336
 30
0.0
  0
SEQEND
  5
CB
330
C9
100
AcDbEntity
  8
Calque 1
370
     0
  0
POLYLINE
  5
CC
330
C4
100
AcDbEntity
  8
Calque 1
370
     0
100
AcDb2dPolyline
 66
     1
 10
0.0
 20
0.0
 30
0.0
  0
VERTEX
  5
CD
330
CC
100
AcDbEntity
  8
Calque 1
370
     0
100
AcDbVertex
100
AcDb2dVertex
 10
132.4077663514467
 20
-71.11590031859255
 30
0.0
  0
VERTEX
  5
2E8
330
CC
100
AcDbEntity
  8
0
100
AcDbVertex
100
AcDb2dVertex
 10
132.4077663514467
 20
-71.11590031859255
 30
0.0
  0
SEQEND
  5
CE
330
CC
100
AcDbEntity
  8
Calque 1
370
     0
  0
SPLINE
  5
CF
330
C4
100
AcDbEntity
  8
Calque 1
370
     0
100
AcDbSpline
210
0.0
220
0.0
230
1.0
 70
     8
 71
     3
 72
    23
 73
    19
 74
     0
 42
0.0000000001
 43
0.0000000001
 40
0.0
 40
0.0
 40
0.0
 40
0.0
 40
1.0
 40
1.0
 40
1.0
 40
2.0
 40
2.0
 40
2.0
 40
3.0
 40
3.0
 40
3.0
 40
4.0
 40
4.0
 40
4.0
 40
5.0
 40
5.0
 40
5.0
 40
6.0
 40
6.0
 40
6.0
 40
6.0
 10
132.3695257915604
 20
-71.01943764500557
 30
0.0
 10
132.3695257915604
 20
-74.37599417628448
 30
0.0
 10
134.4929103938941
 20
-77.34394393682722
 30
0.0
 10
137.7447360224214
 20
-79.14262828967615
 30
0.0
 10
137.7447360224214
 20
-79.14262828967615
 30
0.0
 10
138.2320447788101
 20
-79.39877113900448
 30
0.0
 10
138.2320447788101
 20
-79.39877113900448
 30
0.0
 10
139.8150661542824
 20
-80.3354926014439
 30
0.0
 10
145.0862345014889
 20
-84.30217554316057
 30
0.0
 10
145.0862345014889
 20
-84.30217554316057
 30
0.0
 10
145.0862345014889
 20
-84.30217554316057
 30
0.0
 10
151.1633829374696
 20
-79.7748033112195
 30
0.0
 10
151.8603257541356
 20
-79.39877113900448
 30
0.0
 10
151.8603257541356
 20
-79.39877113900448
 30
0.0
 10
152.4528821775986
 20
-79.0832003925556
 30
0.0
 10
152.4528821775986
 20
-79.0832003925556
 30
0.0
 10
155.6447631446826
 20
-77.27917614170451
 30
0.0
 10
157.7223279770625
 20
-74.33947616414083
 30
0.0
 10
157.7223279770625
 20
-71.01943764500557
 30
0.0
  0
ENDBLK
  5
C7
330
C4
100
AcDbEntity
  8
0
100
AcDbBlockEnd
  0
BLOCK
  5
D2
330
D0
100
AcDbEntity
  8
0
100
AcDbBlockBegin
  2
block 15
 70
     0
 71
     0
 10
0.0
 20
0.0
 30
0.0
  3
block 15
  1

  0
SPLINE
  5
D4
330
D0
100
AcDbEntity
  8
Calque 1
370
     0
100
AcDbSpline
210
0.0
220
0.0
230
1.0
 70
     8
 71
     3
 72
    20
 73
    16
 74
     0
 42
0.0000000001
 43
0.0000000001
 40
0.0
 40
0.0
 40
0.0
 40
0.0
 40
1.0
 40
1.0
 40
1.0
 40
2.0
 40
2.0
 40
2.0
 40
3.0
 40
3.0
 40
3.0
 40
4.0
 40
4.0
 40
4.0
 40
5.0
 40
5.0
 40
5.0
 40
5.0
 10
95.35352509551926
 20
-89.83103703266377
 30
0.0
 10
95.35352509551926
 20
-89.83103703266377
 30
0.0
 10
95.35352509551926
 20
-109.3821261662309
 30
0.0
 10
95.35352509551926
 20
-109.3821261662309
 30
0.0
 10
95.35352509551926
 20
-111.1797769904342
 30
0.0
 10
94.20010712705762
 20
-112.637741399792
 30
0.0
 10
92.77762720119796
 20
-112.637741399792
 30
0.0
 10
92.77762720119796
 20
-112.637741399792
 30
0.0
 10
66.40128714702816
 20
-112.637741399792
 30
0.0
 10
66.40128714702816
 20
-112.637741399792
 30
0.0
 10
64.97863496639424
 20
-112.637741399792
 30
0.0
 10
63.82538925270685
 20
-111.1797769904342
 30
0.0
 10
63.82538925270685
 20
-109.3821261662309
 30
0.0
 10
63.82538925270685
 20
-109.3821261662309
 30
0.0
 10
63.82538925270685
 20
-89.66705048756587
 30
0.0
 10
63.82538925270685
 20
-89.66705048756587
 30
0.0
  0
POLYLINE
  5
D5
330
D0
100
AcDbEntity
  8
Calque 1
370
     0
100
AcDb2dPolyline
 66
     1
 10
0.0
 20
0.0
 30
0.0
  0
VERTEX
  5
D6
330
D5
100
AcDbEntity
  8
Calque 1
370
     0
100
AcDbVertex
100
AcDb2dVertex
 10
63.82538925270685
 20
-89.66705048756587
 30
0.0
  0
VERTEX
  5
2E9
330
D5
100
AcDbEntity
  8
0
100
AcDbVertex
100
AcDb2dVertex
 10
63.82538925270685
 20
-89.66705048756587
 30
0.0
  0
SEQEND
  5
D7
330
D5
100
AcDbEntity
  8
Calque 1
370
     0
  0
POLYLINE
  5
D8
330
D0
100
AcDbEntity
  8
Calque 1
370
     0
100
AcDb2dPolyline
 66
     1
 10
0.0
 20
0.0
 30
0.0
  0
VERTEX
  5
D9
330
D8
100
AcDbEntity
  8
Calque 1
370
     0
100
AcDbVertex
100
AcDb2dVertex
 10
95.30615503259708
 20
-89.83103703266377
 30
0.0
  0
VERTEX
  5
2EA
330
D8
100
AcDbEntity
  8
0
100
AcDbVertex
100
AcDb2dVertex
 10
95.30615503259708
 20
-89.83103703266377
 30
0.0
  0
SEQEND
  5
DA
330
D8
100
AcDbEntity
  8
Calque 1
370
     0
  0
SPLINE
  5
DB
330
D0
100
AcDbEntity
  8
Calque 1
370
     0
100
AcDbSpline
210
0.0
220
0.0
230
1.0
 70
     8
 71
     3
 72
    23
 73
    19
 74
     0
 42
0.0000000001
 43
0.0000000001
 40
0.0
 40
0.0
 40
0.0
 40
0.0
 40
1.0
 40
1.0
 40
1.0
 40
2.0
 40
2.0
 40
2.0
 40
3.0
 40
3.0
 40
3.0
 40
4.0
 40
4.0
 40
4.0
 40
5.0
 40
5.0
 40
5.0
 40
6.0
 40
6.0
 40
6.0
 40
6.0
 10
95.35352509551926
 20
-89.95058184600194
 30
0.0
 10
95.35352509551926
 20
-85.7766764108475
 30
0.0
 10
92.712687151301
 20
-82.08594561749935
 30
0.0
 10
88.66917858026326
 20
-79.84956188324942
 30
0.0
 10
88.66917858026326
 20
-79.84956188324942
 30
0.0
 10
88.06301402963355
 20
-79.53037378654102
 30
0.0
 10
88.06301402963355
 20
-79.53037378654102
 30
0.0
 10
86.09431421458754
 20
-78.36541474820379
 30
0.0
 10
79.53933103480267
 20
-73.43324379674586
 30
0.0
 10
79.53933103480267
 20
-73.43324379674586
 30
0.0
 10
79.53933103480267
 20
-73.43324379674586
 30
0.0
 10
71.98199732358437
 20
-79.0633910935154
 30
0.0
 10
71.11538355426977
 20
-79.53037378654102
 30
0.0
 10
71.11538355426977
 20
-79.53037378654102
 30
0.0
 10
70.37847762997482
 20
-79.92294241708524
 30
0.0
 10
70.37847762997482
 20
-79.92294241708524
 30
0.0
 10
66.40903861186996
 20
-82.1665608518542
 30
0.0
 10
63.82538925270685
 20
-85.82197941647854
 30
0.0
 10
63.82538925270685
 20
-89.95058184600194
 30
0.0
  0
ENDBLK
  5
D3
330
D0
100
AcDbEntity
  8
0
100
AcDbBlockEnd
  0
BLOCK
  5
DE
330
DC
100
AcDbEntity
  8
0
100
AcDbBlockBegin
  2
block 16
 70
     0
 71
     0
 10
0.0
 20
0.0
 30
0.0
  3
block 16
  1

  0
SPLINE
  5
E0
330
DC
100
AcDbEntity
  8
Calque 1
370
     0
100
AcDbSpline
210
0.0
220
0.0
230
1.0
 70
     8
 71
     3
 72
    20
 73
    16
 74
     0
 42
0.0000000001
 43
0.0000000001
 40
0.0
 40
0.0
 40
0.0
 40
0.0
 40
1.0
 40
1.0
 40
1.0
 40
2.0
 40
2.0
 40
2.0
 40
3.0
 40
3.0
 40
3.0
 40
4.0
 40
4.0
 40
4.0
 40
5.0
 40
5.0
 40
5.0
 40
5.0
 10
33.08721380466223
 20
-99.49918074769465
 30
0.0
 10
33.08721380466223
 20
-99.49918074769465
 30
0.0
 10
33.08721380466223
 20
-110.7622314176219
 30
0.0
 10
33.08721380466223
 20
-110.7622314176219
 30
0.0
 10
33.08721380466223
 20
-111.7985161395851
 30
0.0
 10
32.42265488555753
 20
-112.637741399792
 30
0.0
 10
31.60323892439086
 20
-112.637741399792
 30
0.0
 10
31.60323892439086
 20
-112.637741399792
 30
0.0
 10
16.4079562675994
 20
-112.637741399792
 30
0.0
 10
16.4079562675994
 20
-112.637741399792
 30
0.0
 10
15.58836805165847
 20
-112.637741399792
 30
0.0
 10
14.92398138732803
 20
-111.7985161395851
 30
0.0
 10
14.92398138732803
 20
-110.7622314176219
 30
0.0
 10
14.92398138732803
 20
-110.7622314176219
 30
0.0
 10
14.92398138732803
 20
-99.40444062185028
 30
0.0
 10
14.92398138732803
 20
-99.40444062185028
 30
0.0
  0
POLYLINE
  5
E1
330
DC
100
AcDbEntity
  8
Calque 1
370
     0
100
AcDb2dPolyline
 66
     1
 10
0.0
 20
0.0
 30
0.0
  0
VERTEX
  5
E2
330
E1
100
AcDbEntity
  8
Calque 1
370
     0
100
AcDbVertex
100
AcDb2dVertex
 10
14.92398138732803
 20
-99.40444062185028
 30
0.0
  0
VERTEX
  5
2EB
330
E1
100
AcDbEntity
  8
0
100
AcDbVertex
100
AcDb2dVertex
 10
14.92398138732803
 20
-99.40444062185028
 30
0.0
  0
SEQEND
  5
E3
330
E1
100
AcDbEntity
  8
Calque 1
370
     0
  0
POLYLINE
  5
E4
330
DC
100
AcDbEntity
  8
Calque 1
370
     0
100
AcDb2dPolyline
 66
     1
 10
0.0
 20
0.0
 30
0.0
  0
VERTEX
  5
E5
330
E4
100
AcDbEntity
  8
Calque 1
370
     0
100
AcDbVertex
100
AcDb2dVertex
 10
33.05982529555449
 20
-99.49918074769465
 30
0.0
  0
VERTEX
  5
2EC
330
E4
100
AcDbEntity
  8
0
100
AcDbVertex
100
AcDb2dVertex
 10
33.05982529555449
 20
-99.49918074769465
 30
0.0
  0
SEQEND
  5
E6
330
E4
100
AcDbEntity
  8
Calque 1
370
     0
  0
SPLINE
  5
E7
330
DC
100
AcDbEntity
  8
Calque 1
370
     0
100
AcDbSpline
210
0.0
220
0.0
230
1.0
 70
     8
 71
     3
 72
    23
 73
    19
 74
     0
 42
0.0000000001
 43
0.0000000001
 40
0.0
 40
0.0
 40
0.0
 40
0.0
 40
1.0
 40
1.0
 40
1.0
 40
2.0
 40
2.0
 40
2.0
 40
3.0
 40
3.0
 40
3.0
 40
4.0
 40
4.0
 40
4.0
 40
5.0
 40
5.0
 40
5.0
 40
6.0
 40
6.0
 40
6.0
 40
6.0
 10
33.08721380466223
 20
-99.56808265739966
 30
0.0
 10
33.08721380466223
 20
-97.16306149914674
 30
0.0
 10
31.5658596383759
 20
-95.03726532997332
 30
0.0
 10
29.23628607124996
 20
-93.74879961848988
 30
0.0
 10
29.23628607124996
 20
-93.74879961848988
 30
0.0
 10
28.88712564381989
 20
-93.56465926480328
 30
0.0
 10
28.88712564381989
 20
-93.56465926480328
 30
0.0
 10
27.75300021007564
 20
-92.89389917382515
 30
0.0
 10
23.97665879391903
 20
-90.05238441759107
 30
0.0
 10
23.97665879391903
 20
-90.05238441759107
 30
0.0
 10
23.97665879391903
 20
-90.05238441759107
 30
0.0
 10
19.62309162920881
 20
-93.2959418169538
 30
0.0
 10
19.12355278384759
 20
-93.56465926480328
 30
0.0
 10
19.12355278384759
 20
-93.56465926480328
 30
0.0
 10
18.6991170200648
 20
-93.79082978340993
 30
0.0
 10
18.6991170200648
 20
-93.79082978340993
 30
0.0
 10
16.41226263695596
 20
-95.0837741190242
 30
0.0
 10
14.92398138732803
 20
-97.18993324393169
 30
0.0
 10
14.92398138732803
 20
-99.56808265739966
 30
0.0
  0
ENDBLK
  5
DF
330
DC
100
AcDbEntity
  8
0
100
AcDbBlockEnd
  0
BLOCK
  5
EA
330
E8
100
AcDbEntity
  8
0
100
AcDbBlockBegin
  2
block 17
 70
     0
 71
     0
 10
0.0
 20
0.0
 30
0.0
  3
block 17
  1

  0
SPLINE
  5
EC
330
E8
100
AcDbEntity
  8
Calque 1
370
     0
100
AcDbSpline
210
0.0
220
0.0
230
1.0
 70
     8
 71
     3
 72
    20
 73
    16
 74
     0
 42
0.0000000001
 43
0.0000000001
 40
0.0
 40
0.0
 40
0.0
 40
0.0
 40
1.0
 40
1.0
 40
1.0
 40
2.0
 40
2.0
 40
2.0
 40
3.0
 40
3.0
 40
3.0
 40
4.0
 40
4.0
 40
4.0
 40
5.0
 40
5.0
 40
5.0
 40
5.0
 10
61.46515433576219
 20
-94.29812009361298
 30
0.0
 10
61.46515433576219
 20
-94.29812009361298
 30
0.0
 10
61.46515433576219
 20
-110.0201578500991
 30
0.0
 10
61.46515433576219
 20
-110.0201578500991
 30
0.0
 10
61.46515433576219
 20
-111.46571991571
 30
0.0
 10
60.53756237635866
 20
-112.637741399792
 30
0.0
 10
59.39361842048146
 20
-112.637741399792
 30
0.0
 10
59.39361842048146
 20
-112.637741399792
 30
0.0
 10
38.18354355599231
 20
-112.637741399792
 30
0.0
 10
38.18354355599231
 20
-112.637741399792
 30
0.0
 10
37.0395996001151
 20
-112.637741399792
 30
0.0
 10
36.11235215026011
 20
-111.46571991571
 30
0.0
 10
36.11235215026011
 20
-110.0201578500991
 30
0.0
 10
36.11235215026011
 20
-110.0201578500991
 30
0.0
 10
36.11235215026011
 20
-94.16634519130217
 30
0.0
 10
36.11235215026011
 20
-94.16634519130217
 30
0.0
  0
POLYLINE
  5
ED
330
E8
100
AcDbEntity
  8
Calque 1
370
     0
100
AcDb2dPolyline
 66
     1
 10
0.0
 20
0.0
 30
0.0
  0
VERTEX
  5
EE
330
ED
100
AcDbEntity
  8
Calque 1
370
     0
100
AcDbVertex
100
AcDb2dVertex
 10
36.11235215026011
 20
-94.16634519130217
 30
0.0
  0
VERTEX
  5
2ED
330
ED
100
AcDbEntity
  8
0
100
AcDbVertex
100
AcDb2dVertex
 10
36.11235215026011
 20
-94.16634519130217
 30
0.0
  0
SEQEND
  5
EF
330
ED
100
AcDbEntity
  8
Calque 1
370
     0
  0
POLYLINE
  5
F0
330
E8
100
AcDbEntity
  8
Calque 1
370
     0
100
AcDb2dPolyline
 66
     1
 10
0.0
 20
0.0
 30
0.0
  0
VERTEX
  5
F1
330
F0
100
AcDbEntity
  8
Calque 1
370
     0
100
AcDbVertex
100
AcDb2dVertex
 10
61.42691377587591
 20
-94.29812009361298
 30
0.0
  0
VERTEX
  5
2EE
330
F0
100
AcDbEntity
  8
0
100
AcDbVertex
100
AcDb2dVertex
 10
61.42691377587591
 20
-94.29812009361298
 30
0.0
  0
SEQEND
  5
F2
330
F0
100
AcDbEntity
  8
Calque 1
370
     0
  0
SPLINE
  5
F3
330
E8
100
AcDbEntity
  8
Calque 1
370
     0
100
AcDbSpline
210
0.0
220
0.0
230
1.0
 70
     8
 71
     3
 72
    23
 73
    19
 74
     0
 42
0.0000000001
 43
0.0000000001
 40
0.0
 40
0.0
 40
0.0
 40
0.0
 40
1.0
 40
1.0
 40
1.0
 40
2.0
 40
2.0
 40
2.0
 40
3.0
 40
3.0
 40
3.0
 40
4.0
 40
4.0
 40
4.0
 40
5.0
 40
5.0
 40
5.0
 40
6.0
 40
6.0
 40
6.0
 40
6.0
 10
61.46515433576219
 20
-94.39458276719996
 30
0.0
 10
61.46515433576219
 20
-91.03802623592105
 30
0.0
 10
59.34176973342845
 20
-88.07007647537831
 30
0.0
 10
56.08994410490113
 20
-86.27139212252938
 30
0.0
 10
56.08994410490113
 20
-86.27139212252938
 30
0.0
 10
55.60263534851254
 20
-86.01524927320105
 30
0.0
 10
55.60263534851254
 20
-86.01524927320105
 30
0.0
 10
54.01961397304024
 20
-85.07852781076163
 30
0.0
 10
48.74844562583372
 20
-81.11184486904496
 30
0.0
 10
48.74844562583372
 20
-81.11184486904496
 30
0.0
 10
48.74844562583372
 20
-81.11184486904496
 30
0.0
 10
42.67129718985301
 20
-85.63921710098603
 30
0.0
 10
41.97435437318697
 20
-86.01524927320105
 30
0.0
 10
41.97435437318697
 20
-86.01524927320105
 30
0.0
 10
41.381797949724
 20
-86.33082001964993
 30
0.0
 10
41.381797949724
 20
-86.33082001964993
 30
0.0
 10
38.18991698264002
 20
-88.13484427050102
 30
0.0
 10
36.11235215026011
 20
-91.0745442480647
 30
0.0
 10
36.11235215026011
 20
-94.39458276719996
 30
0.0
  0
ENDBLK
  5
EB
330
E8
100
AcDbEntity
  8
0
100
AcDbBlockEnd
  0
BLOCK
  5
F6
330
F4
100
AcDbEntity
  8
0
100
AcDbBlockBegin
  2
block 18
 70
     0
 71
     0
 10
0.0
 20
0.0
 30
0.0
  3
block 18
  1

  0
SPLINE
  5
F8
330
F4
100
AcDbEntity
  8
Calque 1
370
     0
100
AcDbSpline
210
0.0
220
0.0
230
1.0
 70
     8
 71
     3
 72
    20
 73
    16
 74
     0
 42
0.0000000001
 43
0.0000000001
 40
0.0
 40
0.0
 40
0.0
 40
0.0
 40
1.0
 40
1.0
 40
1.0
 40
2.0
 40
2.0
 40
2.0
 40
3.0
 40
3.0
 40
3.0
 40
4.0
 40
4.0
 40
4.0
 40
5.0
 40
5.0
 40
5.0
 40
5.0
 10
14.92398138732803
 20
-138.0708143101004
 30
0.0
 10
14.92398138732803
 20
-138.0708143101004
 30
0.0
 10
14.92398138732803
 20
-118.5198974313075
 30
0.0
 10
14.92398138732803
 20
-118.5198974313075
 30
0.0
 10
14.92398138732803
 20
-116.7222466071042
 30
0.0
 10
16.07739935578968
 20
-115.2642821977464
 30
0.0
 10
17.49987928164933
 20
-115.2642821977464
 30
0.0
 10
17.49987928164933
 20
-115.2642821977464
 30
0.0
 10
43.87621933581914
 20
-115.2642821977464
 30
0.0
 10
43.87621933581914
 20
-115.2642821977464
 30
0.0
 10
45.29887151645306
 20
-115.2642821977464
 30
0.0
 10
46.45211723014044
 20
-116.7222466071042
 30
0.0
 10
46.45211723014044
 20
-118.5198974313075
 30
0.0
 10
46.45211723014044
 20
-118.5198974313075
 30
0.0
 10
46.45211723014044
 20
-138.2348008551982
 30
0.0
 10
46.45211723014044
 20
-138.2348008551982
 30
0.0
  0
POLYLINE
  5
F9
330
F4
100
AcDbEntity
  8
Calque 1
370
     0
100
AcDb2dPolyline
 66
     1
 10
0.0
 20
0.0
 30
0.0
  0
VERTEX
  5
FA
330
F9
100
AcDbEntity
  8
Calque 1
370
     0
100
AcDbVertex
100
AcDb2dVertex
 10
46.45211723014044
 20
-138.2348008551982
 30
0.0
  0
VERTEX
  5
2EF
330
F9
100
AcDbEntity
  8
0
100
AcDbVertex
100
AcDb2dVertex
 10
46.45211723014044
 20
-138.2348008551982
 30
0.0
  0
SEQEND
  5
FB
330
F9
100
AcDbEntity
  8
Calque 1
370
     0
  0
POLYLINE
  5
FC
330
F4
100
AcDbEntity
  8
Calque 1
370
     0
100
AcDb2dPolyline
 66
     1
 10
0.0
 20
0.0
 30
0.0
  0
VERTEX
  5
FD
330
FC
100
AcDbEntity
  8
Calque 1
370
     0
100
AcDbVertex
100
AcDb2dVertex
 10
14.97135145025022
 20
-138.0708143101004
 30
0.0
  0
VERTEX
  5
2F0
330
FC
100
AcDbEntity
  8
0
100
AcDbVertex
100
AcDb2dVertex
 10
14.97135145025022
 20
-138.0708143101004
 30
0.0
  0
SEQEND
  5
FE
330
FC
100
AcDbEntity
  8
Calque 1
370
     0
  0
SPLINE
  5
FF
330
F4
100
AcDbEntity
  8
Calque 1
370
     0
100
AcDbSpline
210
0.0
220
0.0
230
1.0
 70
     8
 71
     3
 72
    23
 73
    19
 74
     0
 42
0.0000000001
 43
0.0000000001
 40
0.0
 40
0.0
 40
0.0
 40
0.0
 40
1.0
 40
1.0
 40
1.0
 40
2.0
 40
2.0
 40
2.0
 40
3.0
 40
3.0
 40
3.0
 40
4.0
 40
4.0
 40
4.0
 40
5.0
 40
5.0
 40
5.0
 40
6.0
 40
6.0
 40
6.0
 40
6.0
 10
14.92398138732803
 20
-137.9516140063107
 30
0.0
 10
14.92398138732803
 20
-142.1253471866909
 30
0.0
 10
17.5648193315463
 20
-145.816077980039
 30
0.0
 10
21.60832790258403
 20
-148.0526339690632
 30
0.0
 10
21.60832790258403
 20
-148.0526339690632
 30
0.0
 10
22.21449245321374
 20
-148.3716498109974
 30
0.0
 10
22.21449245321374
 20
-148.3716498109974
 30
0.0
 10
24.18319226825976
 20
-149.5367811041089
 30
0.0
 10
30.73817544804463
 20
-154.4687798007925
 30
0.0
 10
30.73817544804463
 20
-154.4687798007925
 30
0.0
 10
30.73817544804463
 20
-154.4687798007925
 30
0.0
 10
38.29550915926293
 20
-148.8388047587972
 30
0.0
 10
39.16212292857752
 20
-148.3716498109974
 30
0.0
 10
39.16212292857752
 20
-148.3716498109974
 30
0.0
 10
39.89902885287247
 20
-147.9789089256789
 30
0.0
 10
39.89902885287247
 20
-147.9789089256789
 30
0.0
 10
43.86846787097733
 20
-145.7354627456842
 30
0.0
 10
46.45211723014044
 20
-142.0802164358341
 30
0.0
 10
46.45211723014044
 20
-137.9516140063107
 30
0.0
  0
ENDBLK
  5
F7
330
F4
100
AcDbEntity
  8
0
100
AcDbBlockEnd
  0
BLOCK
  5
102
330
100
100
AcDbEntity
  8
0
100
AcDbBlockBegin
  2
block 19
 70
     0
 71
     0
 10
0.0
 20
0.0
 30
0.0
  3
block 19
  1

  0
SPLINE
  5
104
330
100
100
AcDbEntity
  8
Calque 1
370
     0
100
AcDbSpline
210
0.0
220
0.0
230
1.0
 70
     8
 71
     3
 72
    20
 73
    16
 74
     0
 42
0.0000000001
 43
0.0000000001
 40
0.0
 40
0.0
 40
0.0
 40
0.0
 40
1.0
 40
1.0
 40
1.0
 40
2.0
 40
2.0
 40
2.0
 40
3.0
 40
3.0
 40
3.0
 40
4.0
 40
4.0
 40
4.0
 40
5.0
 40
5.0
 40
5.0
 40
5.0
 10
77.19029267818507
 20
-128.4028428498438
 30
0.0
 10
77.19029267818507
 20
-128.4028428498438
 30
0.0
 10
77.19029267818507
 20
-117.1397921799164
 30
0.0
 10
77.19029267818507
 20
-117.1397921799164
 30
0.0
 10
77.19029267818507
 20
-116.1035074579533
 30
0.0
 10
77.85485159728977
 20
-115.2642821977464
 30
0.0
 10
78.67426755845644
 20
-115.2642821977464
 30
0.0
 10
78.67426755845644
 20
-115.2642821977464
 30
0.0
 10
93.8695502152479
 20
-115.2642821977464
 30
0.0
 10
93.8695502152479
 20
-115.2642821977464
 30
0.0
 10
94.68913843118884
 20
-115.2642821977464
 30
0.0
 10
95.35352509551926
 20
-116.1035074579533
 30
0.0
 10
95.35352509551926
 20
-117.1397921799164
 30
0.0
 10
95.35352509551926
 20
-117.1397921799164
 30
0.0
 10
95.35352509551926
 20
-128.4975829756881
 30
0.0
 10
95.35352509551926
 20
-128.4975829756881
 30
0.0
  0
POLYLINE
  5
105
330
100
100
AcDbEntity
  8
Calque 1
370
     0
100
AcDb2dPolyline
 66
     1
 10
0.0
 20
0.0
 30
0.0
  0
VERTEX
  5
106
330
105
100
AcDbEntity
  8
Calque 1
370
     0
100
AcDbVertex
100
AcDb2dVertex
 10
95.35352509551926
 20
-128.4975829756881
 30
0.0
  0
VERTEX
  5
2F1
330
105
100
AcDbEntity
  8
0
100
AcDbVertex
100
AcDb2dVertex
 10
95.35352509551926
 20
-128.4975829756881
 30
0.0
  0
SEQEND
  5
107
330
105
100
AcDbEntity
  8
Calque 1
370
     0
  0
POLYLINE
  5
108
330
100
100
AcDbEntity
  8
Calque 1
370
     0
100
AcDb2dPolyline
 66
     1
 10
0.0
 20
0.0
 30
0.0
  0
VERTEX
  5
109
330
108
100
AcDbEntity
  8
Calque 1
370
     0
100
AcDbVertex
100
AcDb2dVertex
 10
77.21768118729281
 20
-128.4028428498438
 30
0.0
  0
VERTEX
  5
2F2
330
108
100
AcDbEntity
  8
0
100
AcDbVertex
100
AcDb2dVertex
 10
77.21768118729281
 20
-128.4028428498438
 30
0.0
  0
SEQEND
  5
10A
330
108
100
AcDbEntity
  8
Calque 1
370
     0
  0
SPLINE
  5
10B
330
100
100
AcDbEntity
  8
Calque 1
370
     0
100
AcDbSpline
210
0.0
220
0.0
230
1.0
 70
     8
 71
     3
 72
    23
 73
    19
 74
     0
 42
0.0000000001
 43
0.0000000001
 40
0.0
 40
0.0
 40
0.0
 40
0.0
 40
1.0
 40
1.0
 40
1.0
 40
2.0
 40
2.0
 40
2.0
 40
3.0
 40
3.0
 40
3.0
 40
4.0
 40
4.0
 40
4.0
 40
5.0
 40
5.0
 40
5.0
 40
6.0
 40
6.0
 40
6.0
 40
6.0
 10
77.19029267818507
 20
-128.3339409401387
 30
0.0
 10
77.19029267818507
 20
-130.7389620983917
 30
0.0
 10
78.7116468444714
 20
-132.8645860127908
 30
0.0
 10
81.04122041159734
 20
-134.1530517242742
 30
0.0
 10
81.04122041159734
 20
-134.1530517242742
 30
0.0
 10
81.39038083902742
 20
-134.3373643327351
 30
0.0
 10
81.39038083902742
 20
-134.3373643327351
 30
0.0
 10
82.52450627277166
 20
-135.0081244237132
 30
0.0
 10
86.30084768892826
 20
-137.8496391799473
 30
0.0
 10
86.30084768892826
 20
-137.8496391799473
 30
0.0
 10
86.30084768892826
 20
-137.8496391799473
 30
0.0
 10
90.65441485363849
 20
-134.6060817805846
 30
0.0
 10
91.15395369899971
 20
-134.3373643327351
 30
0.0
 10
91.15395369899971
 20
-134.3373643327351
 30
0.0
 10
91.5783894627825
 20
-134.1110215593542
 30
0.0
 10
91.5783894627825
 20
-134.1110215593542
 30
0.0
 10
93.86524384589133
 20
-132.8184217332885
 30
0.0
 10
95.35352509551926
 20
-130.7120903536067
 30
0.0
 10
95.35352509551926
 20
-128.3339409401387
 30
0.0
  0
ENDBLK
  5
103
330
100
100
AcDbEntity
  8
0
100
AcDbBlockEnd
  0
BLOCK
  5
10E
330
10C
100
AcDbEntity
  8
0
100
AcDbBlockBegin
  2
block 20
 70
     0
 71
     0
 10
0.0
 20
0.0
 30
0.0
  3
block 20
  1

  0
SPLINE
  5
110
330
10C
100
AcDbEntity
  8
Calque 1
370
     0
100
AcDbSpline
210
0.0
220
0.0
230
1.0
 70
     8
 71
     3
 72
    20
 73
    16
 74
     0
 42
0.0000000001
 43
0.0000000001
 40
0.0
 40
0.0
 40
0.0
 40
0.0
 40
1.0
 40
1.0
 40
1.0
 40
2.0
 40
2.0
 40
2.0
 40
3.0
 40
3.0
 40
3.0
 40
4.0
 40
4.0
 40
4.0
 40
5.0
 40
5.0
 40
5.0
 40
5.0
 10
48.81235214708511
 20
-133.6039035039254
 30
0.0
 10
48.81235214708511
 20
-133.6039035039254
 30
0.0
 10
48.81235214708511
 20
-117.8818657474393
 30
0.0
 10
48.81235214708511
 20
-117.8818657474393
 30
0.0
 10
48.81235214708511
 20
-116.4363036818284
 30
0.0
 10
49.73994410648863
 20
-115.2642821977464
 30
0.0
 10
50.88388806236583
 20
-115.2642821977464
 30
0.0
 10
50.88388806236583
 20
-115.2642821977464
 30
0.0
 10
72.09396292685499
 20
-115.2642821977464
 30
0.0
 10
72.09396292685499
 20
-115.2642821977464
 30
0.0
 10
73.23790688273219
 20
-115.2642821977464
 30
0.0
 10
74.16515433258719
 20
-116.4363036818284
 30
0.0
 10
74.16515433258719
 20
-117.8818657474393
 30
0.0
 10
74.16515433258719
 20
-117.8818657474393
 30
0.0
 10
74.16515433258719
 20
-133.735506151462
 30
0.0
 10
74.16515433258719
 20
-133.735506151462
 30
0.0
  0
POLYLINE
  5
111
330
10C
100
AcDbEntity
  8
Calque 1
370
     0
100
AcDb2dPolyline
 66
     1
 10
0.0
 20
0.0
 30
0.0
  0
VERTEX
  5
112
330
111
100
AcDbEntity
  8
Calque 1
370
     0
100
AcDbVertex
100
AcDb2dVertex
 10
74.16515433258719
 20
-133.735506151462
 30
0.0
  0
VERTEX
  5
2F3
330
111
100
AcDbEntity
  8
0
100
AcDbVertex
100
AcDb2dVertex
 10
74.16515433258719
 20
-133.735506151462
 30
0.0
  0
SEQEND
  5
113
330
111
100
AcDbEntity
  8
Calque 1
370
     0
  0
POLYLINE
  5
114
330
10C
100
AcDbEntity
  8
Calque 1
370
     0
100
AcDb2dPolyline
 66
     1
 10
0.0
 20
0.0
 30
0.0
  0
VERTEX
  5
115
330
114
100
AcDbEntity
  8
Calque 1
370
     0
100
AcDbVertex
100
AcDb2dVertex
 10
48.85059270697138
 20
-133.6039035039254
 30
0.0
  0
VERTEX
  5
2F4
330
114
100
AcDbEntity
  8
0
100
AcDbVertex
100
AcDb2dVertex
 10
48.85059270697138
 20
-133.6039035039254
 30
0.0
  0
SEQEND
  5
116
330
114
100
AcDbEntity
  8
Calque 1
370
     0
  0
SPLINE
  5
117
330
10C
100
AcDbEntity
  8
Calque 1
370
     0
100
AcDbSpline
210
0.0
220
0.0
230
1.0
 70
     8
 71
     3
 72
    23
 73
    19
 74
     0
 42
0.0000000001
 43
0.0000000001
 40
0.0
 40
0.0
 40
0.0
 40
0.0
 40
1.0
 40
1.0
 40
1.0
 40
2.0
 40
2.0
 40
2.0
 40
3.0
 40
3.0
 40
3.0
 40
4.0
 40
4.0
 40
4.0
 40
5.0
 40
5.0
 40
5.0
 40
6.0
 40
6.0
 40
6.0
 40
6.0
 10
48.81235214708511
 20
-133.5074408303384
 30
0.0
 10
48.81235214708511
 20
-136.8639973616174
 30
0.0
 10
50.93573674941884
 20
-139.8319471221601
 30
0.0
 10
54.18756237794616
 20
-141.630631475009
 30
0.0
 10
54.18756237794616
 20
-141.630631475009
 30
0.0
 10
54.67487113433476
 20
-141.8866020695631
 30
0.0
 10
54.67487113433476
 20
-141.8866020695631
 30
0.0
 10
56.25789250980706
 20
-142.823668041551
 30
0.0
 10
61.52906085701357
 20
-146.7903509832677
 30
0.0
 10
61.52906085701357
 20
-146.7903509832677
 30
0.0
 10
61.52906085701357
 20
-146.7903509832677
 30
0.0
 10
67.60620929299428
 20
-142.2628064965524
 30
0.0
 10
68.30315210966033
 20
-141.8866020695631
 30
0.0
 10
68.30315210966033
 20
-141.8866020695631
 30
0.0
 10
68.8957085331233
 20
-141.5710313231142
 30
0.0
 10
68.8957085331233
 20
-141.5710313231142
 30
0.0
 10
72.08758950020727
 20
-139.7671793270374
 30
0.0
 10
74.16515433258719
 20
-136.8274793494737
 30
0.0
 10
74.16515433258719
 20
-133.5074408303384
 30
0.0
  0
ENDBLK
  5
10F
330
10C
100
AcDbEntity
  8
0
100
AcDbBlockEnd
  0
BLOCK
  5
11A
330
118
100
AcDbEntity
  8
0
100
AcDbBlockBegin
  2
block 21
 70
     0
 71
     0
 10
0.0
 20
0.0
 30
0.0
  3
block 21
  1

  0
SPLINE
  5
11C
330
118
100
AcDbEntity
  8
Calque 1
370
     0
100
AcDbSpline
210
0.0
220
0.0
230
1.0
 70
     8
 71
     3
 72
    20
 73
    16
 74
     0
 42
0.0000000001
 43
0.0000000001
 40
0.0
 40
0.0
 40
0.0
 40
0.0
 40
1.0
 40
1.0
 40
1.0
 40
2.0
 40
2.0
 40
2.0
 40
3.0
 40
3.0
 40
3.0
 40
4.0
 40
4.0
 40
4.0
 40
5.0
 40
5.0
 40
5.0
 40
5.0
 10
178.9580688029167
 20
-91.14413517686675
 30
0.0
 10
178.9580688029167
 20
-91.14413517686675
 30
0.0
 10
178.9580688029167
 20
-110.6953965652081
 30
0.0
 10
178.9580688029167
 20
-110.6953965652081
 30
0.0
 10
178.9580688029167
 20
-112.4930473894115
 30
0.0
 10
177.8046508344551
 20
-113.9510117987692
 30
0.0
 10
176.3821709085954
 20
-113.9510117987692
 30
0.0
 10
176.3821709085954
 20
-113.9510117987692
 30
0.0
 10
150.0058308544256
 20
-113.9510117987692
 30
0.0
 10
150.0058308544256
 20
-113.9510117987692
 30
0.0
 10
148.5831786737917
 20
-113.9510117987692
 30
0.0
 10
147.4299329601043
 20
-112.4930473894115
 30
0.0
 10
147.4299329601043
 20
-110.6953965652081
 30
0.0
 10
147.4299329601043
 20
-110.6953965652081
 30
0.0
 10
147.4299329601043
 20
-90.98014863176886
 30
0.0
 10
147.4299329601043
 20
-90.98014863176886
 30
0.0
  0
POLYLINE
  5
11D
330
118
100
AcDbEntity
  8
Calque 1
370
     0
100
AcDb2dPolyline
 66
     1
 10
0.0
 20
0.0
 30
0.0
  0
VERTEX
  5
11E
330
11D
100
AcDbEntity
  8
Calque 1
370
     0
100
AcDbVertex
100
AcDb2dVertex
 10
147.4299329601043
 20
-90.98014863176886
 30
0.0
  0
VERTEX
  5
2F5
330
11D
100
AcDbEntity
  8
0
100
AcDbVertex
100
AcDb2dVertex
 10
147.4299329601043
 20
-90.98014863176886
 30
0.0
  0
SEQEND
  5
11F
330
11D
100
AcDbEntity
  8
Calque 1
370
     0
  0
POLYLINE
  5
120
330
118
100
AcDbEntity
  8
Calque 1
370
     0
100
AcDb2dPolyline
 66
     1
 10
0.0
 20
0.0
 30
0.0
  0
VERTEX
  5
121
330
120
100
AcDbEntity
  8
Calque 1
370
     0
100
AcDbVertex
100
AcDb2dVertex
 10
178.9106987399946
 20
-91.14413517686675
 30
0.0
  0
VERTEX
  5
2F6
330
120
100
AcDbEntity
  8
0
100
AcDbVertex
100
AcDb2dVertex
 10
178.9106987399946
 20
-91.14413517686675
 30
0.0
  0
SEQEND
  5
122
330
120
100
AcDbEntity
  8
Calque 1
370
     0
  0
SPLINE
  5
123
330
118
100
AcDbEntity
  8
Calque 1
370
     0
100
AcDbSpline
210
0.0
220
0.0
230
1.0
 70
     8
 71
     3
 72
    23
 73
    19
 74
     0
 42
0.0000000001
 43
0.0000000001
 40
0.0
 40
0.0
 40
0.0
 40
0.0
 40
1.0
 40
1.0
 40
1.0
 40
2.0
 40
2.0
 40
2.0
 40
3.0
 40
3.0
 40
3.0
 40
4.0
 40
4.0
 40
4.0
 40
5.0
 40
5.0
 40
5.0
 40
6.0
 40
6.0
 40
6.0
 40
6.0
 10
178.9580688029167
 20
-91.26367999020492
 30
0.0
 10
178.9580688029167
 20
-87.08977455505048
 30
0.0
 10
176.3172308586985
 20
-83.39904376170233
 30
0.0
 10
172.2737222876607
 20
-81.16266002745239
 30
0.0
 10
172.2737222876607
 20
-81.16266002745239
 30
0.0
 10
171.667557737031
 20
-80.843471930744
 30
0.0
 10
171.667557737031
 20
-80.843471930744
 30
0.0
 10
169.698857921985
 20
-79.67851289240676
 30
0.0
 10
163.1438747422002
 20
-74.74634194094884
 30
0.0
 10
163.1438747422002
 20
-74.74634194094884
 30
0.0
 10
163.1438747422002
 20
-74.74634194094884
 30
0.0
 10
155.5865410309818
 20
-80.37648923771839
 30
0.0
 10
154.7199272616672
 20
-80.843471930744
 30
0.0
 10
154.7199272616672
 20
-80.843471930744
 30
0.0
 10
153.9830213373723
 20
-81.23604056128822
 30
0.0
 10
153.9830213373723
 20
-81.23604056128822
 30
0.0
 10
150.0135823192674
 20
-83.47965899605717
 30
0.0
 10
147.4299329601043
 20
-87.13507756068151
 30
0.0
 10
147.4299329601043
 20
-91.26367999020492
 30
0.0
  0
ENDBLK
  5
11B
330
118
100
AcDbEntity
  8
0
100
AcDbBlockEnd
  0
BLOCK
  5
126
330
124
100
AcDbEntity
  8
0
100
AcDbBlockBegin
  2
block 22
 70
     0
 71
     0
 10
0.0
 20
0.0
 30
0.0
  3
block 22
  1

  0
SPLINE
  5
128
330
124
100
AcDbEntity
  8
Calque 1
370
     0
100
AcDbSpline
210
0.0
220
0.0
230
1.0
 70
     8
 71
     3
 72
    20
 73
    16
 74
     0
 42
0.0000000001
 43
0.0000000001
 40
0.0
 40
0.0
 40
0.0
 40
0.0
 40
1.0
 40
1.0
 40
1.0
 40
2.0
 40
2.0
 40
2.0
 40
3.0
 40
3.0
 40
3.0
 40
4.0
 40
4.0
 40
4.0
 40
5.0
 40
5.0
 40
5.0
 40
5.0
 10
116.6917575120597
 20
-100.8122788918976
 30
0.0
 10
116.6917575120597
 20
-100.8122788918976
 30
0.0
 10
116.6917575120597
 20
-112.0755018165992
 30
0.0
 10
116.6917575120597
 20
-112.0755018165992
 30
0.0
 10
116.6917575120597
 20
-113.1117865385623
 30
0.0
 10
116.027198592955
 20
-113.9510117987692
 30
0.0
 10
115.2077826317883
 20
-113.9510117987692
 30
0.0
 10
115.2077826317883
 20
-113.9510117987692
 30
0.0
 10
100.0124999749969
 20
-113.9510117987692
 30
0.0
 10
100.0124999749969
 20
-113.9510117987692
 30
0.0
 10
99.19291175905595
 20
-113.9510117987692
 30
0.0
 10
98.52852509472551
 20
-113.1117865385623
 30
0.0
 10
98.52852509472551
 20
-112.0755018165992
 30
0.0
 10
98.52852509472551
 20
-112.0755018165992
 30
0.0
 10
98.52852509472551
 20
-100.7175387660533
 30
0.0
 10
98.52852509472551
 20
-100.7175387660533
 30
0.0
  0
POLYLINE
  5
129
330
124
100
AcDbEntity
  8
Calque 1
370
     0
100
AcDb2dPolyline
 66
     1
 10
0.0
 20
0.0
 30
0.0
  0
VERTEX
  5
12A
330
129
100
AcDbEntity
  8
Calque 1
370
     0
100
AcDbVertex
100
AcDb2dVertex
 10
98.52852509472551
 20
-100.7175387660533
 30
0.0
  0
VERTEX
  5
2F7
330
129
100
AcDbEntity
  8
0
100
AcDbVertex
100
AcDb2dVertex
 10
98.52852509472551
 20
-100.7175387660533
 30
0.0
  0
SEQEND
  5
12B
330
129
100
AcDbEntity
  8
Calque 1
370
     0
  0
POLYLINE
  5
12C
330
124
100
AcDbEntity
  8
Calque 1
370
     0
100
AcDb2dPolyline
 66
     1
 10
0.0
 20
0.0
 30
0.0
  0
VERTEX
  5
12D
330
12C
100
AcDbEntity
  8
Calque 1
370
     0
100
AcDbVertex
100
AcDb2dVertex
 10
116.664369002952
 20
-100.8122788918976
 30
0.0
  0
VERTEX
  5
2F8
330
12C
100
AcDbEntity
  8
0
100
AcDbVertex
100
AcDb2dVertex
 10
116.664369002952
 20
-100.8122788918976
 30
0.0
  0
SEQEND
  5
12E
330
12C
100
AcDbEntity
  8
Calque 1
370
     0
  0
SPLINE
  5
12F
330
124
100
AcDbEntity
  8
Calque 1
370
     0
100
AcDbSpline
210
0.0
220
0.0
230
1.0
 70
     8
 71
     3
 72
    23
 73
    19
 74
     0
 42
0.0000000001
 43
0.0000000001
 40
0.0
 40
0.0
 40
0.0
 40
0.0
 40
1.0
 40
1.0
 40
1.0
 40
2.0
 40
2.0
 40
2.0
 40
3.0
 40
3.0
 40
3.0
 40
4.0
 40
4.0
 40
4.0
 40
5.0
 40
5.0
 40
5.0
 40
6.0
 40
6.0
 40
6.0
 40
6.0
 10
116.6917575120597
 20
-100.8811808016026
 30
0.0
 10
116.6917575120597
 20
-98.47615964334972
 30
0.0
 10
115.1704033457734
 20
-96.3503634741763
 30
0.0
 10
112.8408297786474
 20
-95.06189776269287
 30
0.0
 10
112.8408297786474
 20
-95.06189776269287
 30
0.0
 10
112.4916693512174
 20
-94.87775740900626
 30
0.0
 10
112.4916693512174
 20
-94.87775740900626
 30
0.0
 10
111.3575439174731
 20
-94.20699731802812
 30
0.0
 10
107.5812025013165
 20
-91.36548256179405
 30
0.0
 10
107.5812025013165
 20
-91.36548256179405
 30
0.0
 10
107.5812025013165
 20
-91.36548256179405
 30
0.0
 10
103.2276353366063
 20
-94.60903996115677
 30
0.0
 10
102.7280964912451
 20
-94.87775740900626
 30
0.0
 10
102.7280964912451
 20
-94.87775740900626
 30
0.0
 10
102.3036607274623
 20
-95.10392792761292
 30
0.0
 10
102.3036607274623
 20
-95.10392792761292
 30
0.0
 10
100.0168063443534
 20
-96.39687226322718
 30
0.0
 10
98.52852509472551
 20
-98.50303138813466
 30
0.0
 10
98.52852509472551
 20
-100.8811808016026
 30
0.0
  0
ENDBLK
  5
127
330
124
100
AcDbEntity
  8
0
100
AcDbBlockEnd
  0
BLOCK
  5
132
330
130
100
AcDbEntity
  8
0
100
AcDbBlockBegin
  2
block 23
 70
     0
 71
     0
 10
0.0
 20
0.0
 30
0.0
  3
block 23
  1

  0
SPLINE
  5
134
330
130
100
AcDbEntity
  8
Calque 1
370
     0
100
AcDbSpline
210
0.0
220
0.0
230
1.0
 70
     8
 71
     3
 72
    20
 73
    16
 74
     0
 42
0.0000000001
 43
0.0000000001
 40
0.0
 40
0.0
 40
0.0
 40
0.0
 40
1.0
 40
1.0
 40
1.0
 40
2.0
 40
2.0
 40
2.0
 40
3.0
 40
3.0
 40
3.0
 40
4.0
 40
4.0
 40
4.0
 40
5.0
 40
5.0
 40
5.0
 40
5.0
 10
145.0696980431597
 20
-95.61121823781595
 30
0.0
 10
145.0696980431597
 20
-95.61121823781595
 30
0.0
 10
145.0696980431597
 20
-111.3334282490764
 30
0.0
 10
145.0696980431597
 20
-111.3334282490764
 30
0.0
 10
145.0696980431597
 20
-112.7789903146872
 30
0.0
 10
144.1421060837561
 20
-113.9510117987692
 30
0.0
 10
142.9981621278789
 20
-113.9510117987692
 30
0.0
 10
142.9981621278789
 20
-113.9510117987692
 30
0.0
 10
121.7880872633898
 20
-113.9510117987692
 30
0.0
 10
121.7880872633898
 20
-113.9510117987692
 30
0.0
 10
120.6441433075126
 20
-113.9510117987692
 30
0.0
 10
119.7168958576576
 20
-112.7789903146872
 30
0.0
 10
119.7168958576576
 20
-111.3334282490764
 30
0.0
 10
119.7168958576576
 20
-111.3334282490764
 30
0.0
 10
119.7168958576576
 20
-95.47944333550514
 30
0.0
 10
119.7168958576576
 20
-95.47944333550514
 30
0.0
  0
POLYLINE
  5
135
330
130
100
AcDbEntity
  8
Calque 1
370
     0
100
AcDb2dPolyline
 66
     1
 10
0.0
 20
0.0
 30
0.0
  0
VERTEX
  5
136
330
135
100
AcDbEntity
  8
Calque 1
370
     0
100
AcDbVertex
100
AcDb2dVertex
 10
119.7168958576576
 20
-95.47944333550514
 30
0.0
  0
VERTEX
  5
2F9
330
135
100
AcDbEntity
  8
0
100
AcDbVertex
100
AcDb2dVertex
 10
119.7168958576576
 20
-95.47944333550514
 30
0.0
  0
SEQEND
  5
137
330
135
100
AcDbEntity
  8
Calque 1
370
     0
  0
POLYLINE
  5
138
330
130
100
AcDbEntity
  8
Calque 1
370
     0
100
AcDb2dPolyline
 66
     1
 10
0.0
 20
0.0
 30
0.0
  0
VERTEX
  5
139
330
138
100
AcDbEntity
  8
Calque 1
370
     0
100
AcDbVertex
100
AcDb2dVertex
 10
145.0314574832734
 20
-95.61121823781595
 30
0.0
  0
VERTEX
  5
2FA
330
138
100
AcDbEntity
  8
0
100
AcDbVertex
100
AcDb2dVertex
 10
145.0314574832734
 20
-95.61121823781595
 30
0.0
  0
SEQEND
  5
13A
330
138
100
AcDbEntity
  8
Calque 1
370
     0
  0
SPLINE
  5
13B
330
130
100
AcDbEntity
  8
Calque 1
370
     0
100
AcDbSpline
210
0.0
220
0.0
230
1.0
 70
     8
 71
     3
 72
    23
 73
    19
 74
     0
 42
0.0000000001
 43
0.0000000001
 40
0.0
 40
0.0
 40
0.0
 40
0.0
 40
1.0
 40
1.0
 40
1.0
 40
2.0
 40
2.0
 40
2.0
 40
3.0
 40
3.0
 40
3.0
 40
4.0
 40
4.0
 40
4.0
 40
5.0
 40
5.0
 40
5.0
 40
6.0
 40
6.0
 40
6.0
 40
6.0
 10
145.0696980431597
 20
-95.70768091140295
 30
0.0
 10
145.0696980431597
 20
-92.35112438012403
 30
0.0
 10
142.9463134408259
 20
-89.3831746195813
 30
0.0
 10
139.6944878122986
 20
-87.58449026673236
 30
0.0
 10
139.6944878122986
 20
-87.58449026673236
 30
0.0
 10
139.20717905591
 20
-87.32834741740403
 30
0.0
 10
139.20717905591
 20
-87.32834741740403
 30
0.0
 10
137.6241576804377
 20
-86.3916259549646
 30
0.0
 10
132.3529893332312
 20
-82.42494301324794
 30
0.0
 10
132.3529893332312
 20
-82.42494301324794
 30
0.0
 10
132.3529893332312
 20
-82.42494301324794
 30
0.0
 10
126.2758408972505
 20
-86.95231524518901
 30
0.0
 10
125.5788980805845
 20
-87.32834741740403
 30
0.0
 10
125.5788980805845
 20
-87.32834741740403
 30
0.0
 10
124.9863416571215
 20
-87.64391816385292
 30
0.0
 10
124.9863416571215
 20
-87.64391816385292
 30
0.0
 10
121.7944606900375
 20
-89.44794241470399
 30
0.0
 10
119.7168958576576
 20
-92.38764239226768
 30
0.0
 10
119.7168958576576
 20
-95.70768091140295
 30
0.0
  0
ENDBLK
  5
133
330
130
100
AcDbEntity
  8
0
100
AcDbBlockEnd
  0
BLOCK
  5
13E
330
13C
100
AcDbEntity
  8
0
100
AcDbBlockBegin
  2
block 24
 70
     0
 71
     0
 10
0.0
 20
0.0
 30
0.0
  3
block 24
  1

  0
SPLINE
  5
140
330
13C
100
AcDbEntity
  8
Calque 1
370
     0
100
AcDbSpline
210
0.0
220
0.0
230
1.0
 70
     8
 71
     3
 72
    20
 73
    16
 74
     0
 42
0.0000000001
 43
0.0000000001
 40
0.0
 40
0.0
 40
0.0
 40
0.0
 40
1.0
 40
1.0
 40
1.0
 40
2.0
 40
2.0
 40
2.0
 40
3.0
 40
3.0
 40
3.0
 40
4.0
 40
4.0
 40
4.0
 40
5.0
 40
5.0
 40
5.0
 40
5.0
 10
98.52852509472551
 20
-139.3840847090776
 30
0.0
 10
98.52852509472551
 20
-139.3840847090776
 30
0.0
 10
98.52852509472551
 20
-119.8328233207362
 30
0.0
 10
98.52852509472551
 20
-119.8328233207362
 30
0.0
 10
98.52852509472551
 20
-118.0351724965329
 30
0.0
 10
99.68194306318716
 20
-116.5772080871752
 30
0.0
 10
101.1044229890468
 20
-116.5772080871752
 30
0.0
 10
101.1044229890468
 20
-116.5772080871752
 30
0.0
 10
127.4807630432166
 20
-116.5772080871752
 30
0.0
 10
127.4807630432166
 20
-116.5772080871752
 30
0.0
 10
128.9034152238505
 20
-116.5772080871752
 30
0.0
 10
130.0566609375379
 20
-118.0351724965329
 30
0.0
 10
130.0566609375379
 20
-119.8328233207362
 30
0.0
 10
130.0566609375379
 20
-119.8328233207362
 30
0.0
 10
130.0566609375379
 20
-139.5480712541755
 30
0.0
 10
130.0566609375379
 20
-139.5480712541755
 30
0.0
  0
POLYLINE
  5
141
330
13C
100
AcDbEntity
  8
Calque 1
370
     0
100
AcDb2dPolyline
 66
     1
 10
0.0
 20
0.0
 30
0.0
  0
VERTEX
  5
142
330
141
100
AcDbEntity
  8
Calque 1
370
     0
100
AcDbVertex
100
AcDb2dVertex
 10
130.0566609375379
 20
-139.5480712541755
 30
0.0
  0
VERTEX
  5
2FB
330
141
100
AcDbEntity
  8
0
100
AcDbVertex
100
AcDb2dVertex
 10
130.0566609375379
 20
-139.5480712541755
 30
0.0
  0
SEQEND
  5
143
330
141
100
AcDbEntity
  8
Calque 1
370
     0
  0
POLYLINE
  5
144
330
13C
100
AcDbEntity
  8
Calque 1
370
     0
100
AcDb2dPolyline
 66
     1
 10
0.0
 20
0.0
 30
0.0
  0
VERTEX
  5
145
330
144
100
AcDbEntity
  8
Calque 1
370
     0
100
AcDbVertex
100
AcDb2dVertex
 10
98.5758951576477
 20
-139.3840847090776
 30
0.0
  0
VERTEX
  5
2FC
330
144
100
AcDbEntity
  8
0
100
AcDbVertex
100
AcDb2dVertex
 10
98.5758951576477
 20
-139.3840847090776
 30
0.0
  0
SEQEND
  5
146
330
144
100
AcDbEntity
  8
Calque 1
370
     0
  0
SPLINE
  5
147
330
13C
100
AcDbEntity
  8
Calque 1
370
     0
100
AcDbSpline
210
0.0
220
0.0
230
1.0
 70
     8
 71
     3
 72
    23
 73
    19
 74
     0
 42
0.0000000001
 43
0.0000000001
 40
0.0
 40
0.0
 40
0.0
 40
0.0
 40
1.0
 40
1.0
 40
1.0
 40
2.0
 40
2.0
 40
2.0
 40
3.0
 40
3.0
 40
3.0
 40
4.0
 40
4.0
 40
4.0
 40
5.0
 40
5.0
 40
5.0
 40
6.0
 40
6.0
 40
6.0
 40
6.0
 10
98.52852509472551
 20
-139.2645398957394
 30
0.0
 10
98.52852509472551
 20
-143.4382730761196
 30
0.0
 10
101.1693630389438
 20
-147.1293483790163
 30
0.0
 10
105.2128716099815
 20
-149.365559858492
 30
0.0
 10
105.2128716099815
 20
-149.365559858492
 30
0.0
 10
105.8190361606112
 20
-149.6849202099746
 30
0.0
 10
105.8190361606112
 20
-149.6849202099746
 30
0.0
 10
107.7877359756572
 20
-150.8497069935376
 30
0.0
 10
114.3427191554421
 20
-155.7820501997698
 30
0.0
 10
114.3427191554421
 20
-155.7820501997698
 30
0.0
 10
114.3427191554421
 20
-155.7820501997698
 30
0.0
 10
121.9000528666604
 20
-150.151730648226
 30
0.0
 10
122.766666635975
 20
-149.6849202099746
 30
0.0
 10
122.766666635975
 20
-149.6849202099746
 30
0.0
 10
123.5035725602699
 20
-149.2921793246561
 30
0.0
 10
123.5035725602699
 20
-149.2921793246561
 30
0.0
 10
127.4730115783748
 20
-147.0487331446614
 30
0.0
 10
130.0566609375379
 20
-143.3931423252628
 30
0.0
 10
130.0566609375379
 20
-139.2645398957394
 30
0.0
  0
ENDBLK
  5
13F
330
13C
100
AcDbEntity
  8
0
100
AcDbBlockEnd
  0
BLOCK
  5
14A
330
148
100
AcDbEntity
  8
0
100
AcDbBlockBegin
  2
block 25
 70
     0
 71
     0
 10
0.0
 20
0.0
 30
0.0
  3
block 25
  1

  0
SPLINE
  5
14C
330
148
100
AcDbEntity
  8
Calque 1
370
     0
100
AcDbSpline
210
0.0
220
0.0
230
1.0
 70
     8
 71
     3
 72
    20
 73
    16
 74
     0
 42
0.0000000001
 43
0.0000000001
 40
0.0
 40
0.0
 40
0.0
 40
0.0
 40
1.0
 40
1.0
 40
1.0
 40
2.0
 40
2.0
 40
2.0
 40
3.0
 40
3.0
 40
3.0
 40
4.0
 40
4.0
 40
4.0
 40
5.0
 40
5.0
 40
5.0
 40
5.0
 10
160.7948363855826
 20
-129.7157687392724
 30
0.0
 10
160.7948363855826
 20
-129.7157687392724
 30
0.0
 10
160.7948363855826
 20
-118.4527180693452
 30
0.0
 10
160.7948363855826
 20
-118.4527180693452
 30
0.0
 10
160.7948363855826
 20
-117.416433347382
 30
0.0
 10
161.4593953046872
 20
-116.5772080871752
 30
0.0
 10
162.2788112658539
 20
-116.5772080871752
 30
0.0
 10
162.2788112658539
 20
-116.5772080871752
 30
0.0
 10
177.4740939226454
 20
-116.5772080871752
 30
0.0
 10
177.4740939226454
 20
-116.5772080871752
 30
0.0
 10
178.2936821385863
 20
-116.5772080871752
 30
0.0
 10
178.9580688029167
 20
-117.416433347382
 30
0.0
 10
178.9580688029167
 20
-118.4527180693452
 30
0.0
 10
178.9580688029167
 20
-118.4527180693452
 30
0.0
 10
178.9580688029167
 20
-129.8108533746654
 30
0.0
 10
178.9580688029167
 20
-129.8108533746654
 30
0.0
  0
POLYLINE
  5
14D
330
148
100
AcDbEntity
  8
Calque 1
370
     0
100
AcDb2dPolyline
 66
     1
 10
0.0
 20
0.0
 30
0.0
  0
VERTEX
  5
14E
330
14D
100
AcDbEntity
  8
Calque 1
370
     0
100
AcDbVertex
100
AcDb2dVertex
 10
178.9580688029167
 20
-129.8108533746654
 30
0.0
  0
VERTEX
  5
2FD
330
14D
100
AcDbEntity
  8
0
100
AcDbVertex
100
AcDb2dVertex
 10
178.9580688029167
 20
-129.8108533746654
 30
0.0
  0
SEQEND
  5
14F
330
14D
100
AcDbEntity
  8
Calque 1
370
     0
  0
POLYLINE
  5
150
330
148
100
AcDbEntity
  8
Calque 1
370
     0
100
AcDb2dPolyline
 66
     1
 10
0.0
 20
0.0
 30
0.0
  0
VERTEX
  5
151
330
150
100
AcDbEntity
  8
Calque 1
370
     0
100
AcDbVertex
100
AcDb2dVertex
 10
160.8222248946903
 20
-129.7157687392724
 30
0.0
  0
VERTEX
  5
2FE
330
150
100
AcDbEntity
  8
0
100
AcDbVertex
100
AcDb2dVertex
 10
160.8222248946903
 20
-129.7157687392724
 30
0.0
  0
SEQEND
  5
152
330
150
100
AcDbEntity
  8
Calque 1
370
     0
  0
SPLINE
  5
153
330
148
100
AcDbEntity
  8
Calque 1
370
     0
100
AcDbSpline
210
0.0
220
0.0
230
1.0
 70
     8
 71
     3
 72
    23
 73
    19
 74
     0
 42
0.0000000001
 43
0.0000000001
 40
0.0
 40
0.0
 40
0.0
 40
0.0
 40
1.0
 40
1.0
 40
1.0
 40
2.0
 40
2.0
 40
2.0
 40
3.0
 40
3.0
 40
3.0
 40
4.0
 40
4.0
 40
4.0
 40
5.0
 40
5.0
 40
5.0
 40
6.0
 40
6.0
 40
6.0
 40
6.0
 10
160.7948363855826
 20
-129.6468668295674
 30
0.0
 10
160.7948363855826
 20
-132.0522324973689
 30
0.0
 10
162.3161905518689
 20
-134.177856411768
 30
0.0
 10
164.6457641189948
 20
-135.4663221232515
 30
0.0
 10
164.6457641189948
 20
-135.4663221232515
 30
0.0
 10
164.9949245464249
 20
-135.6502902221638
 30
0.0
 10
164.9949245464249
 20
-135.6502902221638
 30
0.0
 10
166.1290499801691
 20
-136.3213948226905
 30
0.0
 10
169.9053913963257
 20
-139.1629095789246
 30
0.0
 10
169.9053913963257
 20
-139.1629095789246
 30
0.0
 10
169.9053913963257
 20
-139.1629095789246
 30
0.0
 10
174.258958561036
 20
-135.9190076700133
 30
0.0
 10
174.7584974063972
 20
-135.6502902221638
 30
0.0
 10
174.7584974063972
 20
-135.6502902221638
 30
0.0
 10
175.18293317018
 20
-135.4242919583314
 30
0.0
 10
175.18293317018
 20
-135.4242919583314
 30
0.0
 10
177.4697875532888
 20
-134.1313476227172
 30
0.0
 10
178.9580688029167
 20
-132.0253607525839
 30
0.0
 10
178.9580688029167
 20
-129.6468668295674
 30
0.0
  0
ENDBLK
  5
14B
330
148
100
AcDbEntity
  8
0
100
AcDbBlockEnd
  0
BLOCK
  5
156
330
154
100
AcDbEntity
  8
0
100
AcDbBlockBegin
  2
block 26
 70
     0
 71
     0
 10
0.0
 20
0.0
 30
0.0
  3
block 26
  1

  0
SPLINE
  5
158
330
154
100
AcDbEntity
  8
Calque 1
370
     0
100
AcDbSpline
210
0.0
220
0.0
230
1.0
 70
     8
 71
     3
 72
    20
 73
    16
 74
     0
 42
0.0000000001
 43
0.0000000001
 40
0.0
 40
0.0
 40
0.0
 40
0.0
 40
1.0
 40
1.0
 40
1.0
 40
2.0
 40
2.0
 40
2.0
 40
3.0
 40
3.0
 40
3.0
 40
4.0
 40
4.0
 40
4.0
 40
5.0
 40
5.0
 40
5.0
 40
5.0
 10
132.4168958544826
 20
-134.9171739029026
 30
0.0
 10
132.4168958544826
 20
-134.9171739029026
 30
0.0
 10
132.4168958544826
 20
-119.194791636868
 30
0.0
 10
132.4168958544826
 20
-119.194791636868
 30
0.0
 10
132.4168958544826
 20
-117.7492295712571
 30
0.0
 10
133.3444878138861
 20
-116.5772080871752
 30
0.0
 10
134.4884317697633
 20
-116.5772080871752
 30
0.0
 10
134.4884317697633
 20
-116.5772080871752
 30
0.0
 10
155.6985066342525
 20
-116.5772080871752
 30
0.0
 10
155.6985066342525
 20
-116.5772080871752
 30
0.0
 10
156.8424505901297
 20
-116.5772080871752
 30
0.0
 10
157.7696980399847
 20
-117.7492295712571
 30
0.0
 10
157.7696980399847
 20
-119.194791636868
 30
0.0
 10
157.7696980399847
 20
-119.194791636868
 30
0.0
 10
157.7696980399847
 20
-135.0487765504392
 30
0.0
 10
157.7696980399847
 20
-135.0487765504392
 30
0.0
  0
POLYLINE
  5
159
330
154
100
AcDbEntity
  8
Calque 1
370
     0
100
AcDb2dPolyline
 66
     1
 10
0.0
 20
0.0
 30
0.0
  0
VERTEX
  5
15A
330
159
100
AcDbEntity
  8
Calque 1
370
     0
100
AcDbVertex
100
AcDb2dVertex
 10
157.7696980399847
 20
-135.0487765504392
 30
0.0
  0
VERTEX
  5
2FF
330
159
100
AcDbEntity
  8
0
100
AcDbVertex
100
AcDb2dVertex
 10
157.7696980399847
 20
-135.0487765504392
 30
0.0
  0
SEQEND
  5
15B
330
159
100
AcDbEntity
  8
Calque 1
370
     0
  0
POLYLINE
  5
15C
330
154
100
AcDbEntity
  8
Calque 1
370
     0
100
AcDb2dPolyline
 66
     1
 10
0.0
 20
0.0
 30
0.0
  0
VERTEX
  5
15D
330
15C
100
AcDbEntity
  8
Calque 1
370
     0
100
AcDbVertex
100
AcDb2dVertex
 10
132.4551364143689
 20
-134.9171739029026
 30
0.0
  0
VERTEX
  5
300
330
15C
100
AcDbEntity
  8
0
100
AcDbVertex
100
AcDb2dVertex
 10
132.4551364143689
 20
-134.9171739029026
 30
0.0
  0
SEQEND
  5
15E
330
15C
100
AcDbEntity
  8
Calque 1
370
     0
  0
SPLINE
  5
15F
330
154
100
AcDbEntity
  8
Calque 1
370
     0
100
AcDbSpline
210
0.0
220
0.0
230
1.0
 70
     8
 71
     3
 72
    23
 73
    19
 74
     0
 42
0.0000000001
 43
0.0000000001
 40
0.0
 40
0.0
 40
0.0
 40
0.0
 40
1.0
 40
1.0
 40
1.0
 40
2.0
 40
2.0
 40
2.0
 40
3.0
 40
3.0
 40
3.0
 40
4.0
 40
4.0
 40
4.0
 40
5.0
 40
5.0
 40
5.0
 40
6.0
 40
6.0
 40
6.0
 40
6.0
 10
132.4168958544826
 20
-134.8207112293157
 30
0.0
 10
132.4168958544826
 20
-138.176923251046
 30
0.0
 10
134.5402804568163
 20
-141.1452175211373
 30
0.0
 10
137.7921060853436
 20
-142.9435573644377
 30
0.0
 10
137.7921060853436
 20
-142.9435573644377
 30
0.0
 10
138.2794148417322
 20
-143.1998724685403
 30
0.0
 10
138.2794148417322
 20
-143.1998724685403
 30
0.0
 10
139.8624362172045
 20
-144.1365939309798
 30
0.0
 10
145.1336045644111
 20
-148.1032768726964
 30
0.0
 10
145.1336045644111
 20
-148.1032768726964
 30
0.0
 10
145.1336045644111
 20
-148.1032768726964
 30
0.0
 10
151.2107530003918
 20
-143.5760768955296
 30
0.0
 10
151.9076958170578
 20
-143.1998724685403
 30
0.0
 10
151.9076958170578
 20
-143.1998724685403
 30
0.0
 10
152.5002522405208
 20
-142.8843017220914
 30
0.0
 10
152.5002522405208
 20
-142.8843017220914
 30
0.0
 10
155.6921332076047
 20
-141.0804497260146
 30
0.0
 10
157.7696980399847
 20
-138.1404052389024
 30
0.0
 10
157.7696980399847
 20
-134.8207112293157
 30
0.0
  0
ENDBLK
  5
157
330
154
100
AcDbEntity
  8
0
100
AcDbBlockEnd
  0
BLOCK
  5
162
330
160
100
AcDbEntity
  8
0
100
AcDbBlockBegin
  2
block 27
 70
     0
 71
     0
 10
0.0
 20
0.0
 30
0.0
  3
block 27
  1

  0
INSERT
  5
165
330
160
100
AcDbEntity
  8
Calque 1
100
AcDbBlockReference
  2
block 28
 10
0.0
 20
0.0
 30
0.0
  0
INSERT
  5
171
330
160
100
AcDbEntity
  8
Calque 1
100
AcDbBlockReference
  2
block 29
 10
0.0
 20
0.0
 30
0.0
  0
INSERT
  5
17D
330
160
100
AcDbEntity
  8
Calque 1
100
AcDbBlockReference
  2
block 30
 10
0.0
 20
0.0
 30
0.0
  0
INSERT
  5
189
330
160
100
AcDbEntity
  8
Calque 1
100
AcDbBlockReference
  2
block 31
 10
0.0
 20
0.0
 30
0.0
  0
INSERT
  5
195
330
160
100
AcDbEntity
  8
Calque 1
100
AcDbBlockReference
  2
block 32
 10
0.0
 20
0.0
 30
0.0
  0
INSERT
  5
1A1
330
160
100
AcDbEntity
  8
Calque 1
100
AcDbBlockReference
  2
block 33
 10
0.0
 20
0.0
 30
0.0
  0
INSERT
  5
1AD
330
160
100
AcDbEntity
  8
Calque 1
100
AcDbBlockReference
  2
block 34
 10
0.0
 20
0.0
 30
0.0
  0
INSERT
  5
1B9
330
160
100
AcDbEntity
  8
Calque 1
100
AcDbBlockReference
  2
block 35
 10
0.0
 20
0.0
 30
0.0
  0
INSERT
  5
1C5
330
160
100
AcDbEntity
  8
Calque 1
100
AcDbBlockReference
  2
block 36
 10
0.0
 20
0.0
 30
0.0
  0
INSERT
  5
1D1
330
160
100
AcDbEntity
  8
Calque 1
100
AcDbBlockReference
  2
block 37
 10
0.0
 20
0.0
 30
0.0
  0
INSERT
  5
1DD
330
160
100
AcDbEntity
  8
Calque 1
100
AcDbBlockReference
  2
block 38
 10
0.0
 20
0.0
 30
0.0
  0
INSERT
  5
1E9
330
160
100
AcDbEntity
  8
Calque 1
100
AcDbBlockReference
  2
block 39
 10
0.0
 20
0.0
 30
0.0
  0
INSERT
  5
1F5
330
160
100
AcDbEntity
  8
Calque 1
100
AcDbBlockReference
  2
block 40
 10
0.0
 20
0.0
 30
0.0
  0
INSERT
  5
201
330
160
100
AcDbEntity
  8
Calque 1
100
AcDbBlockReference
  2
block 41
 10
0.0
 20
0.0
 30
0.0
  0
INSERT
  5
20D
330
160
100
AcDbEntity
  8
Calque 1
100
AcDbBlockReference
  2
block 42
 10
0.0
 20
0.0
 30
0.0
  0
INSERT
  5
219
330
160
100
AcDbEntity
  8
Calque 1
100
AcDbBlockReference
  2
block 43
 10
0.0
 20
0.0
 30
0.0
  0
INSERT
  5
225
330
160
100
AcDbEntity
  8
Calque 1
100
AcDbBlockReference
  2
block 44
 10
0.0
 20
0.0
 30
0.0
  0
INSERT
  5
231
330
160
100
AcDbEntity
  8
Calque 1
100
AcDbBlockReference
  2
block 45
 10
0.0
 20
0.0
 30
0.0
  0
INSERT
  5
23D
330
160
100
AcDbEntity
  8
Calque 1
100
AcDbBlockReference
  2
block 46
 10
0.0
 20
0.0
 30
0.0
  0
INSERT
  5
249
330
160
100
AcDbEntity
  8
Calque 1
100
AcDbBlockReference
  2
block 47
 10
0.0
 20
0.0
 30
0.0
  0
INSERT
  5
255
330
160
100
AcDbEntity
  8
Calque 1
100
AcDbBlockReference
  2
block 48
 10
0.0
 20
0.0
 30
0.0
  0
INSERT
  5
261
330
160
100
AcDbEntity
  8
Calque 1
100
AcDbBlockReference
  2
block 49
 10
0.0
 20
0.0
 30
0.0
  0
INSERT
  5
26D
330
160
100
AcDbEntity
  8
Calque 1
100
AcDbBlockReference
  2
block 50
 10
0.0
 20
0.0
 30
0.0
  0
INSERT
  5
279
330
160
100
AcDbEntity
  8
Calque 1
100
AcDbBlockReference
  2
block 51
 10
0.0
 20
0.0
 30
0.0
  0
ENDBLK
  5
163
330
160
100
AcDbEntity
  8
0
100
AcDbBlockEnd
  0
BLOCK
  5
166
330
164
100
AcDbEntity
  8
0
100
AcDbBlockBegin
  2
block 28
 70
     0
 71
     0
 10
0.0
 20
0.0
 30
0.0
  3
block 28
  1

  0
SPLINE
  5
168
330
164
100
AcDbEntity
  8
Calque 1
370
     0
100
AcDbSpline
210
0.0
220
0.0
230
1.0
 70
     8
 71
     3
 72
    20
 73
    16
 74
     0
 42
0.0000000001
 43
0.0000000001
 40
0.0
 40
0.0
 40
0.0
 40
0.0
 40
1.0
 40
1.0
 40
1.0
 40
2.0
 40
2.0
 40
2.0
 40
3.0
 40
3.0
 40
3.0
 40
4.0
 40
4.0
 40
4.0
 40
5.0
 40
5.0
 40
5.0
 40
5.0
 10
262.7849934238871
 20
-26.31191676859563
 30
0.0
 10
262.7849934238871
 20
-26.31191676859563
 30
0.0
 10
262.7849934238871
 20
-45.86317815693698
 30
0.0
 10
262.7849934238871
 20
-45.86317815693698
 30
0.0
 10
262.7849934238871
 20
-47.66082898114035
 30
0.0
 10
261.6315754554254
 20
-49.11879339049808
 30
0.0
 10
260.2090955295658
 20
-49.11879339049808
 30
0.0
 10
260.2090955295658
 20
-49.11879339049808
 30
0.0
 10
233.832755475396
 20
-49.11879339049808
 30
0.0
 10
233.832755475396
 20
-49.11879339049808
 30
0.0
 10
232.4099310399878
 20
-49.11879339049808
 30
0.0
 10
231.2568575810747
 20
-47.66082898114035
 30
0.0
 10
231.2568575810747
 20
-45.86317815693698
 30
0.0
 10
231.2568575810747
 20
-45.86317815693698
 30
0.0
 10
231.2568575810747
 20
-26.14793022349774
 30
0.0
 10
231.2568575810747
 20
-26.14793022349774
 30
0.0
  0
POLYLINE
  5
169
330
164
100
AcDbEntity
  8
Calque 1
370
     0
100
AcDb2dPolyline
 66
     1
 10
0.0
 20
0.0
 30
0.0
  0
VERTEX
  5
16A
330
169
100
AcDbEntity
  8
Calque 1
370
     0
100
AcDbVertex
100
AcDb2dVertex
 10
231.2568575810747
 20
-26.14793022349774
 30
0.0
  0
VERTEX
  5
301
330
169
100
AcDbEntity
  8
0
100
AcDbVertex
100
AcDb2dVertex
 10
231.2568575810747
 20
-26.14793022349774
 30
0.0
  0
SEQEND
  5
16B
330
169
100
AcDbEntity
  8
Calque 1
370
     0
  0
POLYLINE
  5
16C
330
164
100
AcDbEntity
  8
Calque 1
370
     0
100
AcDb2dPolyline
 66
     1
 10
0.0
 20
0.0
 30
0.0
  0
VERTEX
  5
16D
330
16C
100
AcDbEntity
  8
Calque 1
370
     0
100
AcDbVertex
100
AcDb2dVertex
 10
262.7377956157392
 20
-26.31191676859563
 30
0.0
  0
VERTEX
  5
302
330
16C
100
AcDbEntity
  8
0
100
AcDbVertex
100
AcDb2dVertex
 10
262.7377956157392
 20
-26.31191676859563
 30
0.0
  0
SEQEND
  5
16E
330
16C
100
AcDbEntity
  8
Calque 1
370
     0
  0
SPLINE
  5
16F
330
164
100
AcDbEntity
  8
Calque 1
370
     0
100
AcDbSpline
210
0.0
220
0.0
230
1.0
 70
     8
 71
     3
 72
    23
 73
    19
 74
     0
 42
0.0000000001
 43
0.0000000001
 40
0.0
 40
0.0
 40
0.0
 40
0.0
 40
1.0
 40
1.0
 40
1.0
 40
2.0
 40
2.0
 40
2.0
 40
3.0
 40
3.0
 40
3.0
 40
4.0
 40
4.0
 40
4.0
 40
5.0
 40
5.0
 40
5.0
 40
6.0
 40
6.0
 40
6.0
 40
6.0
 10
262.7849934238871
 20
-26.4314615819338
 30
0.0
 10
262.7849934238871
 20
-22.25755614677936
 30
0.0
 10
260.1443277344431
 20
-18.56682535343121
 30
0.0
 10
256.1004746538568
 20
-16.33044161918128
 30
0.0
 10
256.1004746538568
 20
-16.33044161918128
 30
0.0
 10
255.4944823580014
 20
-16.01125352247288
 30
0.0
 10
255.4944823580014
 20
-16.01125352247288
 30
0.0
 10
253.5256102881811
 20
-14.84629448413565
 30
0.0
 10
246.9709716179448
 20
-9.914123532677719
 30
0.0
 10
246.9709716179448
 20
-9.914123532677719
 30
0.0
 10
246.9709716179448
 20
-9.914123532677719
 30
0.0
 10
239.4134656519522
 20
-15.54427082944727
 30
0.0
 10
238.5470241374119
 20
-16.01125352247288
 30
0.0
 10
238.5470241374119
 20
-16.01125352247288
 30
0.0
 10
237.8097737035684
 20
-16.4038221530171
 30
0.0
 10
237.8097737035684
 20
-16.4038221530171
 30
0.0
 10
233.8403346854635
 20
-18.64744058778606
 30
0.0
 10
231.2568575810747
 20
-22.3028591524104
 30
0.0
 10
231.2568575810747
 20
-26.4314615819338
 30
0.0
  0
ENDBLK
  5
167
330
164
100
AcDbEntity
  8
0
100
AcDbBlockEnd
  0
BLOCK
  5
172
330
170
100
AcDbEntity
  8
0
100
AcDbBlockBegin
  2
block 29
 70
     0
 71
     0
 10
0.0
 20
0.0
 30
0.0
  3
block 29
  1

  0
SPLINE
  5
174
330
170
100
AcDbEntity
  8
Calque 1
370
     0
100
AcDbSpline
210
0.0
220
0.0
230
1.0
 70
     8
 71
     3
 72
    20
 73
    16
 74
     0
 42
0.0000000001
 43
0.0000000001
 40
0.0
 40
0.0
 40
0.0
 40
0.0
 40
1.0
 40
1.0
 40
1.0
 40
2.0
 40
2.0
 40
2.0
 40
3.0
 40
3.0
 40
3.0
 40
4.0
 40
4.0
 40
4.0
 40
5.0
 40
5.0
 40
5.0
 40
5.0
 10
200.5186821330301
 20
-35.98006048362652
 30
0.0
 10
200.5186821330301
 20
-35.98006048362652
 30
0.0
 10
200.5186821330301
 20
-47.24328340832807
 30
0.0
 10
200.5186821330301
 20
-47.24328340832807
 30
0.0
 10
200.5186821330301
 20
-48.27956813029122
 30
0.0
 10
199.8541232139254
 20
-49.11879339049808
 30
0.0
 10
199.0345349979844
 20
-49.11879339049808
 30
0.0
 10
199.0345349979844
 20
-49.11879339049808
 30
0.0
 10
183.8395968507415
 20
-49.11879339049808
 30
0.0
 10
183.8395968507415
 20
-49.11879339049808
 30
0.0
 10
183.019664125252
 20
-49.11879339049808
 30
0.0
 10
182.3554497156959
 20
-48.27956813029122
 30
0.0
 10
182.3554497156959
 20
-47.24328340832807
 30
0.0
 10
182.3554497156959
 20
-47.24328340832807
 30
0.0
 10
182.3554497156959
 20
-35.88532035778214
 30
0.0
 10
182.3554497156959
 20
-35.88532035778214
 30
0.0
  0
POLYLINE
  5
175
330
170
100
AcDbEntity
  8
Calque 1
370
     0
100
AcDb2dPolyline
 66
     1
 10
0.0
 20
0.0
 30
0.0
  0
VERTEX
  5
176
330
175
100
AcDbEntity
  8
Calque 1
370
     0
100
AcDbVertex
100
AcDb2dVertex
 10
182.3554497156959
 20
-35.88532035778214
 30
0.0
  0
VERTEX
  5
303
330
175
100
AcDbEntity
  8
0
100
AcDbVertex
100
AcDb2dVertex
 10
182.3554497156959
 20
-35.88532035778214
 30
0.0
  0
SEQEND
  5
177
330
175
100
AcDbEntity
  8
Calque 1
370
     0
  0
POLYLINE
  5
178
330
170
100
AcDbEntity
  8
Calque 1
370
     0
100
AcDb2dPolyline
 66
     1
 10
0.0
 20
0.0
 30
0.0
  0
VERTEX
  5
179
330
178
100
AcDbEntity
  8
Calque 1
370
     0
100
AcDbVertex
100
AcDb2dVertex
 10
200.4911213691481
 20
-35.98006048362652
 30
0.0
  0
VERTEX
  5
304
330
178
100
AcDbEntity
  8
0
100
AcDbVertex
100
AcDb2dVertex
 10
200.4911213691481
 20
-35.98006048362652
 30
0.0
  0
SEQEND
  5
17A
330
178
100
AcDbEntity
  8
Calque 1
370
     0
  0
SPLINE
  5
17B
330
170
100
AcDbEntity
  8
Calque 1
370
     0
100
AcDbSpline
210
0.0
220
0.0
230
1.0
 70
     8
 71
     3
 72
    23
 73
    19
 74
     0
 42
0.0000000001
 43
0.0000000001
 40
0.0
 40
0.0
 40
0.0
 40
0.0
 40
1.0
 40
1.0
 40
1.0
 40
2.0
 40
2.0
 40
2.0
 40
3.0
 40
3.0
 40
3.0
 40
4.0
 40
4.0
 40
4.0
 40
5.0
 40
5.0
 40
5.0
 40
6.0
 40
6.0
 40
6.0
 40
6.0
 10
200.5186821330301
 20
-36.04896239333151
 30
0.0
 10
200.5186821330301
 20
-33.6439412350786
 30
0.0
 10
198.9973279667437
 20
-31.51814506590519
 30
0.0
 10
196.6677543996178
 20
-30.22967935442175
 30
0.0
 10
196.6677543996178
 20
-30.22967935442175
 30
0.0
 10
196.3184217174135
 20
-30.04553900073514
 30
0.0
 10
196.3184217174135
 20
-30.04553900073514
 30
0.0
 10
195.1842962836692
 20
-29.374778909757
 30
0.0
 10
191.4081271222869
 20
-26.53326415352294
 30
0.0
 10
191.4081271222869
 20
-26.53326415352294
 30
0.0
 10
191.4081271222869
 20
-26.53326415352294
 30
0.0
 10
187.0545599575767
 20
-29.77682155288566
 30
0.0
 10
186.5550211122154
 20
-30.04553900073514
 30
0.0
 10
186.5550211122154
 20
-30.04553900073514
 30
0.0
 10
186.1305853484326
 20
-30.2717095193418
 30
0.0
 10
186.1305853484326
 20
-30.2717095193418
 30
0.0
 10
183.8437309653238
 20
-31.56465385495606
 30
0.0
 10
182.3554497156959
 20
-33.67081297986355
 30
0.0
 10
182.3554497156959
 20
-36.04896239333151
 30
0.0
  0
ENDBLK
  5
173
330
170
100
AcDbEntity
  8
0
100
AcDbBlockEnd
  0
BLOCK
  5
17E
330
17C
100
AcDbEntity
  8
0
100
AcDbBlockBegin
  2
block 30
 70
     0
 71
     0
 10
0.0
 20
0.0
 30
0.0
  3
block 30
  1

  0
SPLINE
  5
180
330
17C
100
AcDbEntity
  8
Calque 1
370
     0
100
AcDbSpline
210
0.0
220
0.0
230
1.0
 70
     8
 71
     3
 72
    20
 73
    16
 74
     0
 42
0.0000000001
 43
0.0000000001
 40
0.0
 40
0.0
 40
0.0
 40
0.0
 40
1.0
 40
1.0
 40
1.0
 40
2.0
 40
2.0
 40
2.0
 40
3.0
 40
3.0
 40
3.0
 40
4.0
 40
4.0
 40
4.0
 40
5.0
 40
5.0
 40
5.0
 40
5.0
 10
228.89662266413
 20
-30.77899982954483
 30
0.0
 10
228.89662266413
 20
-30.77899982954483
 30
0.0
 10
228.89662266413
 20
-46.50120984080525
 30
0.0
 10
228.89662266413
 20
-46.50120984080525
 30
0.0
 10
228.89662266413
 20
-47.94677190641609
 30
0.0
 10
227.9692029595008
 20
-49.11879339049808
 30
0.0
 10
226.8250867488493
 20
-49.11879339049808
 30
0.0
 10
226.8250867488493
 20
-49.11879339049808
 30
0.0
 10
205.6150118843601
 20
-49.11879339049808
 30
0.0
 10
205.6150118843601
 20
-49.11879339049808
 30
0.0
 10
204.4708956737087
 20
-49.11879339049808
 30
0.0
 10
203.5438204786279
 20
-47.94677190641609
 30
0.0
 10
203.5438204786279
 20
-46.50120984080525
 30
0.0
 10
203.5438204786279
 20
-46.50120984080525
 30
0.0
 10
203.5438204786279
 20
-30.64722492723403
 30
0.0
 10
203.5438204786279
 20
-30.64722492723403
 30
0.0
  0
POLYLINE
  5
181
330
17C
100
AcDbEntity
  8
Calque 1
370
     0
100
AcDb2dPolyline
 66
     1
 10
0.0
 20
0.0
 30
0.0
  0
VERTEX
  5
182
330
181
100
AcDbEntity
  8
Calque 1
370
     0
100
AcDbVertex
100
AcDb2dVertex
 10
203.5438204786279
 20
-30.64722492723403
 30
0.0
  0
VERTEX
  5
305
330
181
100
AcDbEntity
  8
0
100
AcDbVertex
100
AcDb2dVertex
 10
203.5438204786279
 20
-30.64722492723403
 30
0.0
  0
SEQEND
  5
183
330
181
100
AcDbEntity
  8
Calque 1
370
     0
  0
POLYLINE
  5
184
330
17C
100
AcDbEntity
  8
Calque 1
370
     0
100
AcDb2dPolyline
 66
     1
 10
0.0
 20
0.0
 30
0.0
  0
VERTEX
  5
185
330
184
100
AcDbEntity
  8
Calque 1
370
     0
100
AcDbVertex
100
AcDb2dVertex
 10
228.8583821042438
 20
-30.77899982954483
 30
0.0
  0
VERTEX
  5
306
330
184
100
AcDbEntity
  8
0
100
AcDbVertex
100
AcDb2dVertex
 10
228.8583821042438
 20
-30.77899982954483
 30
0.0
  0
SEQEND
  5
186
330
184
100
AcDbEntity
  8
Calque 1
370
     0
  0
SPLINE
  5
187
330
17C
100
AcDbEntity
  8
Calque 1
370
     0
100
AcDbSpline
210
0.0
220
0.0
230
1.0
 70
     8
 71
     3
 72
    23
 73
    19
 74
     0
 42
0.0000000001
 43
0.0000000001
 40
0.0
 40
0.0
 40
0.0
 40
0.0
 40
1.0
 40
1.0
 40
1.0
 40
2.0
 40
2.0
 40
2.0
 40
3.0
 40
3.0
 40
3.0
 40
4.0
 40
4.0
 40
4.0
 40
5.0
 40
5.0
 40
5.0
 40
6.0
 40
6.0
 40
6.0
 40
6.0
 10
228.89662266413
 20
-30.87546250313183
 30
0.0
 10
228.89662266413
 20
-27.51890597185291
 30
0.0
 10
226.773065807022
 20
-24.55095621131018
 30
0.0
 10
223.5215846880432
 20
-22.75227185846124
 30
0.0
 10
223.5215846880432
 20
-22.75227185846124
 30
0.0
 10
223.0341036768804
 20
-22.49612900913291
 30
0.0
 10
223.0341036768804
 20
-22.49612900913291
 30
0.0
 10
221.4510823014081
 20
-21.55940754669348
 30
0.0
 10
216.1800862089758
 20
-17.59272460497682
 30
0.0
 10
216.1800862089758
 20
-17.59272460497682
 30
0.0
 10
216.1800862089758
 20
-17.59272460497682
 30
0.0
 10
210.1029377729951
 20
-22.1200968369179
 30
0.0
 10
209.4056504467806
 20
-22.49612900913291
 30
0.0
 10
209.4056504467806
 20
-22.49612900913291
 30
0.0
 10
208.8130940233176
 20
-22.8116997555818
 30
0.0
 10
208.8130940233176
 20
-22.8116997555818
 30
0.0
 10
205.6215575657821
 20
-24.61572400643287
 30
0.0
 10
203.5438204786279
 20
-27.55542398399656
 30
0.0
 10
203.5438204786279
 20
-30.87546250313183
 30
0.0
  0
ENDBLK
  5
17F
330
17C
100
AcDbEntity
  8
0
100
AcDbBlockEnd
  0
BLOCK
  5
18A
330
188
100
AcDbEntity
  8
0
100
AcDbBlockBegin
  2
block 31
 70
     0
 71
     0
 10
0.0
 20
0.0
 30
0.0
  3
block 31
  1

  0
SPLINE
  5
18C
330
188
100
AcDbEntity
  8
Calque 1
370
     0
100
AcDbSpline
210
0.0
220
0.0
230
1.0
 70
     8
 71
     3
 72
    20
 73
    16
 74
     0
 42
0.0000000001
 43
0.0000000001
 40
0.0
 40
0.0
 40
0.0
 40
0.0
 40
1.0
 40
1.0
 40
1.0
 40
2.0
 40
2.0
 40
2.0
 40
3.0
 40
3.0
 40
3.0
 40
4.0
 40
4.0
 40
4.0
 40
5.0
 40
5.0
 40
5.0
 40
5.0
 10
182.3554497156959
 20
-74.55186630080648
 30
0.0
 10
182.3554497156959
 20
-74.55186630080648
 30
0.0
 10
182.3554497156959
 20
-55.00060491246513
 30
0.0
 10
182.3554497156959
 20
-55.00060491246513
 30
0.0
 10
182.3554497156959
 20
-53.20295408826176
 30
0.0
 10
183.5088676841575
 20
-51.74498967890403
 30
0.0
 10
184.9313476100172
 20
-51.74498967890403
 30
0.0
 10
184.9313476100172
 20
-51.74498967890403
 30
0.0
 10
211.307687664187
 20
-51.74498967890403
 30
0.0
 10
211.307687664187
 20
-51.74498967890403
 30
0.0
 10
212.7301675900466
 20
-51.74498967890403
 30
0.0
 10
213.8835855585083
 20
-53.20295408826176
 30
0.0
 10
213.8835855585083
 20
-55.00060491246513
 30
0.0
 10
213.8835855585083
 20
-55.00060491246513
 30
0.0
 10
213.8835855585083
 20
-74.71585284590438
 30
0.0
 10
213.8835855585083
 20
-74.71585284590438
 30
0.0
  0
POLYLINE
  5
18D
330
188
100
AcDbEntity
  8
Calque 1
370
     0
100
AcDb2dPolyline
 66
     1
 10
0.0
 20
0.0
 30
0.0
  0
VERTEX
  5
18E
330
18D
100
AcDbEntity
  8
Calque 1
370
     0
100
AcDbVertex
100
AcDb2dVertex
 10
213.8835855585083
 20
-74.71585284590438
 30
0.0
  0
VERTEX
  5
307
330
18D
100
AcDbEntity
  8
0
100
AcDbVertex
100
AcDb2dVertex
 10
213.8835855585083
 20
-74.71585284590438
 30
0.0
  0
SEQEND
  5
18F
330
18D
100
AcDbEntity
  8
Calque 1
370
     0
  0
POLYLINE
  5
190
330
188
100
AcDbEntity
  8
Calque 1
370
     0
100
AcDb2dPolyline
 66
     1
 10
0.0
 20
0.0
 30
0.0
  0
VERTEX
  5
191
330
190
100
AcDbEntity
  8
Calque 1
370
     0
100
AcDbVertex
100
AcDb2dVertex
 10
182.4029920333923
 20
-74.55186630080648
 30
0.0
  0
VERTEX
  5
308
330
190
100
AcDbEntity
  8
0
100
AcDbVertex
100
AcDb2dVertex
 10
182.4029920333923
 20
-74.55186630080648
 30
0.0
  0
SEQEND
  5
192
330
190
100
AcDbEntity
  8
Calque 1
370
     0
  0
SPLINE
  5
193
330
188
100
AcDbEntity
  8
Calque 1
370
     0
100
AcDbSpline
210
0.0
220
0.0
230
1.0
 70
     8
 71
     3
 72
    23
 73
    19
 74
     0
 42
0.0000000001
 43
0.0000000001
 40
0.0
 40
0.0
 40
0.0
 40
0.0
 40
1.0
 40
1.0
 40
1.0
 40
2.0
 40
2.0
 40
2.0
 40
3.0
 40
3.0
 40
3.0
 40
4.0
 40
4.0
 40
4.0
 40
5.0
 40
5.0
 40
5.0
 40
6.0
 40
6.0
 40
6.0
 40
6.0
 10
182.3554497156959
 20
-74.43232148746831
 30
0.0
 10
182.3554497156959
 20
-78.60622692262275
 30
0.0
 10
184.9964599146884
 20
-82.2969577159709
 30
0.0
 10
189.0396239761776
 20
-84.53334145022083
 30
0.0
 10
189.0396239761776
 20
-84.53334145022083
 30
0.0
 10
189.6459607815816
 20
-84.85252954692923
 30
0.0
 10
189.6459607815816
 20
-84.85252954692923
 30
0.0
 10
191.6144883418533
 20
-86.01748858526646
 30
0.0
 10
198.1698160311867
 20
-90.9496595367244
 30
0.0
 10
198.1698160311867
 20
-90.9496595367244
 30
0.0
 10
198.1698160311867
 20
-90.9496595367244
 30
0.0
 10
205.7269774876308
 20
-85.31951223995485
 30
0.0
 10
206.5937635117196
 20
-84.85252954692923
 30
0.0
 10
206.5937635117196
 20
-84.85252954692923
 30
0.0
 10
207.330324926466
 20
-84.45996091638501
 30
0.0
 10
207.330324926466
 20
-84.45996091638501
 30
0.0
 10
211.2997639445709
 20
-82.21634248161605
 30
0.0
 10
213.8835855585083
 20
-78.56092391699171
 30
0.0
 10
213.8835855585083
 20
-74.43232148746831
 30
0.0
  0
ENDBLK
  5
18B
330
188
100
AcDbEntity
  8
0
100
AcDbBlockEnd
  0
BLOCK
  5
196
330
194
100
AcDbEntity
  8
0
100
AcDbBlockBegin
  2
block 32
 70
     0
 71
     0
 10
0.0
 20
0.0
 30
0.0
  3
block 32
  1

  0
SPLINE
  5
198
330
194
100
AcDbEntity
  8
Calque 1
370
     0
100
AcDbSpline
210
0.0
220
0.0
230
1.0
 70
     8
 71
     3
 72
    20
 73
    16
 74
     0
 42
0.0000000001
 43
0.0000000001
 40
0.0
 40
0.0
 40
0.0
 40
0.0
 40
1.0
 40
1.0
 40
1.0
 40
2.0
 40
2.0
 40
2.0
 40
3.0
 40
3.0
 40
3.0
 40
4.0
 40
4.0
 40
4.0
 40
5.0
 40
5.0
 40
5.0
 40
5.0
 10
244.6217610065529
 20
-64.8837225857756
 30
0.0
 10
244.6217610065529
 20
-64.8837225857756
 30
0.0
 10
244.6217610065529
 20
-53.62049966107404
 30
0.0
 10
244.6217610065529
 20
-53.62049966107404
 30
0.0
 10
244.6217610065529
 20
-52.58421493911089
 30
0.0
 10
245.2863199256576
 20
-51.74498967890403
 30
0.0
 10
246.10556363205
 20
-51.74498967890403
 30
0.0
 10
246.10556363205
 20
-51.74498967890403
 30
0.0
 10
261.30119079839
 20
-51.74498967890403
 30
0.0
 10
261.30119079839
 20
-51.74498967890403
 30
0.0
 10
262.1204345047824
 20
-51.74498967890403
 30
0.0
 10
262.7849934238871
 20
-52.58421493911089
 30
0.0
 10
262.7849934238871
 20
-53.62049966107404
 30
0.0
 10
262.7849934238871
 20
-53.62049966107404
 30
0.0
 10
262.7849934238871
 20
-64.97846271161997
 30
0.0
 10
262.7849934238871
 20
-64.97846271161997
 30
0.0
  0
POLYLINE
  5
199
330
194
100
AcDbEntity
  8
Calque 1
370
     0
100
AcDb2dPolyline
 66
     1
 10
0.0
 20
0.0
 30
0.0
  0
VERTEX
  5
19A
330
199
100
AcDbEntity
  8
Calque 1
370
     0
100
AcDbVertex
100
AcDb2dVertex
 10
262.7849934238871
 20
-64.97846271161997
 30
0.0
  0
VERTEX
  5
309
330
199
100
AcDbEntity
  8
0
100
AcDbVertex
100
AcDb2dVertex
 10
262.7849934238871
 20
-64.97846271161997
 30
0.0
  0
SEQEND
  5
19B
330
199
100
AcDbEntity
  8
Calque 1
370
     0
  0
POLYLINE
  5
19C
330
194
100
AcDbEntity
  8
Calque 1
370
     0
100
AcDb2dPolyline
 66
     1
 10
0.0
 20
0.0
 30
0.0
  0
VERTEX
  5
19D
330
19C
100
AcDbEntity
  8
Calque 1
370
     0
100
AcDbVertex
100
AcDb2dVertex
 10
244.6489772608864
 20
-64.8837225857756
 30
0.0
  0
VERTEX
  5
30A
330
19C
100
AcDbEntity
  8
0
100
AcDbVertex
100
AcDb2dVertex
 10
244.6489772608864
 20
-64.8837225857756
 30
0.0
  0
SEQEND
  5
19E
330
19C
100
AcDbEntity
  8
Calque 1
370
     0
  0
SPLINE
  5
19F
330
194
100
AcDbEntity
  8
Calque 1
370
     0
100
AcDbSpline
210
0.0
220
0.0
230
1.0
 70
     8
 71
     3
 72
    23
 73
    19
 74
     0
 42
0.0000000001
 43
0.0000000001
 40
0.0
 40
0.0
 40
0.0
 40
0.0
 40
1.0
 40
1.0
 40
1.0
 40
2.0
 40
2.0
 40
2.0
 40
3.0
 40
3.0
 40
3.0
 40
4.0
 40
4.0
 40
4.0
 40
5.0
 40
5.0
 40
5.0
 40
6.0
 40
6.0
 40
6.0
 40
6.0
 10
244.6217610065529
 20
-64.81482067607061
 30
0.0
 10
244.6217610065529
 20
-67.21984183432352
 30
0.0
 10
246.1431151728392
 20
-69.34563800349693
 30
0.0
 10
248.4726887399652
 20
-70.63410371498037
 30
0.0
 10
248.4726887399652
 20
-70.63410371498037
 30
0.0
 10
248.821676912621
 20
-70.81824406866697
 30
0.0
 10
248.821676912621
 20
-70.81824406866697
 30
0.0
 10
249.9558023463652
 20
-71.48900415964512
 30
0.0
 10
253.7323160172961
 20
-74.33051891587918
 30
0.0
 10
253.7323160172961
 20
-74.33051891587918
 30
0.0
 10
253.7323160172961
 20
-74.33051891587918
 30
0.0
 10
258.0858831820063
 20
-71.08696151651645
 30
0.0
 10
258.5854220273675
 20
-70.81824406866697
 30
0.0
 10
258.5854220273675
 20
-70.81824406866697
 30
0.0
 10
259.0098577911504
 20
-70.59207355006032
 30
0.0
 10
259.0098577911504
 20
-70.59207355006032
 30
0.0
 10
261.2967121742591
 20
-69.29912921444605
 30
0.0
 10
262.7849934238871
 20
-67.19297008953856
 30
0.0
 10
262.7849934238871
 20
-64.81482067607061
 30
0.0
  0
ENDBLK
  5
197
330
194
100
AcDbEntity
  8
0
100
AcDbBlockEnd
  0
BLOCK
  5
1A2
330
1A0
100
AcDbEntity
  8
0
100
AcDbBlockBegin
  2
block 33
 70
     0
 71
     0
 10
0.0
 20
0.0
 30
0.0
  3
block 33
  1

  0
SPLINE
  5
1A4
330
1A0
100
AcDbEntity
  8
Calque 1
370
     0
100
AcDbSpline
210
0.0
220
0.0
230
1.0
 70
     8
 71
     3
 72
    20
 73
    16
 74
     0
 42
0.0000000001
 43
0.0000000001
 40
0.0
 40
0.0
 40
0.0
 40
0.0
 40
1.0
 40
1.0
 40
1.0
 40
2.0
 40
2.0
 40
2.0
 40
3.0
 40
3.0
 40
3.0
 40
4.0
 40
4.0
 40
4.0
 40
5.0
 40
5.0
 40
5.0
 40
5.0
 10
216.2438204754529
 20
-70.08478323985727
 30
0.0
 10
216.2438204754529
 20
-70.08478323985727
 30
0.0
 10
216.2438204754529
 20
-54.36257322859686
 30
0.0
 10
216.2438204754529
 20
-54.36257322859686
 30
0.0
 10
216.2438204754529
 20
-52.91701116298603
 30
0.0
 10
217.1715846896307
 20
-51.74498967890403
 30
0.0
 10
218.3153563907337
 20
-51.74498967890403
 30
0.0
 10
218.3153563907337
 20
-51.74498967890403
 30
0.0
 10
239.5254312552228
 20
-51.74498967890403
 30
0.0
 10
239.5254312552228
 20
-51.74498967890403
 30
0.0
 10
240.6692029563258
 20
-51.74498967890403
 30
0.0
 10
241.596622660955
 20
-52.91701116298603
 30
0.0
 10
241.596622660955
 20
-54.36257322859686
 30
0.0
 10
241.596622660955
 20
-54.36257322859686
 30
0.0
 10
241.596622660955
 20
-70.21655814216808
 30
0.0
 10
241.596622660955
 20
-70.21655814216808
 30
0.0
  0
POLYLINE
  5
1A5
330
1A0
100
AcDbEntity
  8
Calque 1
370
     0
100
AcDb2dPolyline
 66
     1
 10
0.0
 20
0.0
 30
0.0
  0
VERTEX
  5
1A6
330
1A5
100
AcDbEntity
  8
Calque 1
370
     0
100
AcDbVertex
100
AcDb2dVertex
 10
241.596622660955
 20
-70.21655814216808
 30
0.0
  0
VERTEX
  5
30B
330
1A5
100
AcDbEntity
  8
0
100
AcDbVertex
100
AcDb2dVertex
 10
241.596622660955
 20
-70.21655814216808
 30
0.0
  0
SEQEND
  5
1A7
330
1A5
100
AcDbEntity
  8
Calque 1
370
     0
  0
POLYLINE
  5
1A8
330
1A0
100
AcDbEntity
  8
Calque 1
370
     0
100
AcDb2dPolyline
 66
     1
 10
0.0
 20
0.0
 30
0.0
  0
VERTEX
  5
1A9
330
1A8
100
AcDbEntity
  8
Calque 1
370
     0
100
AcDbVertex
100
AcDb2dVertex
 10
216.2820610353392
 20
-70.08478323985727
 30
0.0
  0
VERTEX
  5
30C
330
1A8
100
AcDbEntity
  8
0
100
AcDbVertex
100
AcDb2dVertex
 10
216.2820610353392
 20
-70.08478323985727
 30
0.0
  0
SEQEND
  5
1AA
330
1A8
100
AcDbEntity
  8
Calque 1
370
     0
  0
SPLINE
  5
1AB
330
1A0
100
AcDbEntity
  8
Calque 1
370
     0
100
AcDbSpline
210
0.0
220
0.0
230
1.0
 70
     8
 71
     3
 72
    23
 73
    19
 74
     0
 42
0.0000000001
 43
0.0000000001
 40
0.0
 40
0.0
 40
0.0
 40
0.0
 40
1.0
 40
1.0
 40
1.0
 40
2.0
 40
2.0
 40
2.0
 40
3.0
 40
3.0
 40
3.0
 40
4.0
 40
4.0
 40
4.0
 40
5.0
 40
5.0
 40
5.0
 40
6.0
 40
6.0
 40
6.0
 40
6.0
 10
216.2438204754529
 20
-69.98832056627029
 30
0.0
 10
216.2438204754529
 20
-73.3448770975492
 30
0.0
 10
218.3670328230124
 20
-76.31282685809194
 30
0.0
 10
221.6192029610883
 20
-78.11151121094088
 30
0.0
 10
221.6192029610883
 20
-78.11151121094088
 30
0.0
 10
222.1063394627026
 20
-78.3676540602692
 30
0.0
 10
222.1063394627026
 20
-78.3676540602692
 30
0.0
 10
223.6893608381749
 20
-79.30437552270863
 30
0.0
 10
228.9607014401557
 20
-83.2710584644253
 30
0.0
 10
228.9607014401557
 20
-83.2710584644253
 30
0.0
 10
228.9607014401557
 20
-83.2710584644253
 30
0.0
 10
235.0378498761364
 20
-78.74368623248422
 30
0.0
 10
235.7344481832539
 20
-78.3676540602692
 30
0.0
 10
235.7344481832539
 20
-78.3676540602692
 30
0.0
 10
236.3270046067169
 20
-78.05208331382032
 30
0.0
 10
236.3270046067169
 20
-78.05208331382032
 30
0.0
 10
239.5192300833494
 20
-76.24805906296923
 30
0.0
 10
241.596622660955
 20
-73.30835908540556
 30
0.0
 10
241.596622660955
 20
-69.98832056627029
 30
0.0
  0
ENDBLK
  5
1A3
330
1A0
100
AcDbEntity
  8
0
100
AcDbBlockEnd
  0
BLOCK
  5
1AE
330
1AC
100
AcDbEntity
  8
0
100
AcDbBlockBegin
  2
block 34
 70
     0
 71
     0
 10
0.0
 20
0.0
 30
0.0
  3
block 34
  1

  0
SPLINE
  5
1B0
330
1AC
100
AcDbEntity
  8
Calque 1
370
     0
100
AcDbSpline
210
0.0
220
0.0
230
1.0
 70
     8
 71
     3
 72
    20
 73
    16
 74
     0
 42
0.0000000001
 43
0.0000000001
 40
0.0
 40
0.0
 40
0.0
 40
0.0
 40
1.0
 40
1.0
 40
1.0
 40
2.0
 40
2.0
 40
2.0
 40
3.0
 40
3.0
 40
3.0
 40
4.0
 40
4.0
 40
4.0
 40
5.0
 40
5.0
 40
5.0
 40
5.0
 10
346.3895371312846
 20
-27.62501491279861
 30
0.0
 10
346.3895371312846
 20
-27.62501491279861
 30
0.0
 10
346.3895371312846
 20
-47.17627630113996
 30
0.0
 10
346.3895371312846
 20
-47.17627630113996
 30
0.0
 10
346.3895371312846
 20
-48.97392712534332
 30
0.0
 10
345.2361191628229
 20
-50.43189153470106
 30
0.0
 10
343.8136392369633
 20
-50.43189153470106
 30
0.0
 10
343.8136392369633
 20
-50.43189153470106
 30
0.0
 10
317.4372991827935
 20
-50.43189153470106
 30
0.0
 10
317.4372991827935
 20
-50.43189153470106
 30
0.0
 10
316.0148192569338
 20
-50.43189153470106
 30
0.0
 10
314.8614012884722
 20
-48.97392712534332
 30
0.0
 10
314.8614012884722
 20
-47.17627630113996
 30
0.0
 10
314.8614012884722
 20
-47.17627630113996
 30
0.0
 10
314.8614012884722
 20
-27.46102836770072
 30
0.0
 10
314.8614012884722
 20
-27.46102836770072
 30
0.0
  0
POLYLINE
  5
1B1
330
1AC
100
AcDbEntity
  8
Calque 1
370
     0
100
AcDb2dPolyline
 66
     1
 10
0.0
 20
0.0
 30
0.0
  0
VERTEX
  5
1B2
330
1B1
100
AcDbEntity
  8
Calque 1
370
     0
100
AcDbVertex
100
AcDb2dVertex
 10
314.8614012884722
 20
-27.46102836770072
 30
0.0
  0
VERTEX
  5
30D
330
1B1
100
AcDbEntity
  8
0
100
AcDbVertex
100
AcDb2dVertex
 10
314.8614012884722
 20
-27.46102836770072
 30
0.0
  0
SEQEND
  5
1B3
330
1B1
100
AcDbEntity
  8
Calque 1
370
     0
  0
POLYLINE
  5
1B4
330
1AC
100
AcDbEntity
  8
Calque 1
370
     0
100
AcDb2dPolyline
 66
     1
 10
0.0
 20
0.0
 30
0.0
  0
VERTEX
  5
1B5
330
1B4
100
AcDbEntity
  8
Calque 1
370
     0
100
AcDbVertex
100
AcDb2dVertex
 10
346.3423393231366
 20
-27.62501491279861
 30
0.0
  0
VERTEX
  5
30E
330
1B4
100
AcDbEntity
  8
0
100
AcDbVertex
100
AcDb2dVertex
 10
346.3423393231366
 20
-27.62501491279861
 30
0.0
  0
SEQEND
  5
1B6
330
1B4
100
AcDbEntity
  8
Calque 1
370
     0
  0
SPLINE
  5
1B7
330
1AC
100
AcDbEntity
  8
Calque 1
370
     0
100
AcDbSpline
210
0.0
220
0.0
230
1.0
 70
     8
 71
     3
 72
    23
 73
    19
 74
     0
 42
0.0000000001
 43
0.0000000001
 40
0.0
 40
0.0
 40
0.0
 40
0.0
 40
1.0
 40
1.0
 40
1.0
 40
2.0
 40
2.0
 40
2.0
 40
3.0
 40
3.0
 40
3.0
 40
4.0
 40
4.0
 40
4.0
 40
5.0
 40
5.0
 40
5.0
 40
6.0
 40
6.0
 40
6.0
 40
6.0
 10
346.3895371312846
 20
-27.74455972613678
 30
0.0
 10
346.3895371312846
 20
-23.57065429098234
 30
0.0
 10
343.7488714418405
 20
-19.87992349763419
 30
0.0
 10
339.7050183612543
 20
-17.64353976338425
 30
0.0
 10
339.7050183612543
 20
-17.64353976338425
 30
0.0
 10
339.0990260653988
 20
-17.32435166667586
 30
0.0
 10
339.0990260653988
 20
-17.32435166667586
 30
0.0
 10
337.1301539955786
 20
-16.15939262833863
 30
0.0
 10
330.5755153253422
 20
-11.2272216768807
 30
0.0
 10
330.5755153253422
 20
-11.2272216768807
 30
0.0
 10
330.5755153253422
 20
-11.2272216768807
 30
0.0
 10
323.0180093593497
 20
-16.85736897365024
 30
0.0
 10
322.1515678448093
 20
-17.32435166667586
 30
0.0
 10
322.1515678448093
 20
-17.32435166667586
 30
0.0
 10
321.4143174109659
 20
-17.71692029722008
 30
0.0
 10
321.4143174109659
 20
-17.71692029722008
 30
0.0
 10
317.4452229024096
 20
-19.96053873198903
 30
0.0
 10
314.8614012884722
 20
-23.61595729661337
 30
0.0
 10
314.8614012884722
 20
-27.74455972613678
 30
0.0
  0
ENDBLK
  5
1AF
330
1AC
100
AcDbEntity
  8
0
100
AcDbBlockEnd
  0
BLOCK
  5
1BA
330
1B8
100
AcDbEntity
  8
0
100
AcDbBlockBegin
  2
block 35
 70
     0
 71
     0
 10
0.0
 20
0.0
 30
0.0
  3
block 35
  1

  0
SPLINE
  5
1BC
330
1B8
100
AcDbEntity
  8
Calque 1
370
     0
100
AcDbSpline
210
0.0
220
0.0
230
1.0
 70
     8
 71
     3
 72
    20
 73
    16
 74
     0
 42
0.0000000001
 43
0.0000000001
 40
0.0
 40
0.0
 40
0.0
 40
0.0
 40
1.0
 40
1.0
 40
1.0
 40
2.0
 40
2.0
 40
2.0
 40
3.0
 40
3.0
 40
3.0
 40
4.0
 40
4.0
 40
4.0
 40
5.0
 40
5.0
 40
5.0
 40
5.0
 10
284.1232258404276
 20
-37.29315862782949
 30
0.0
 10
284.1232258404276
 20
-37.29315862782949
 30
0.0
 10
284.1232258404276
 20
-48.55638155253104
 30
0.0
 10
284.1232258404276
 20
-48.55638155253104
 30
0.0
 10
284.1232258404276
 20
-49.5926662744942
 30
0.0
 10
283.4586669213228
 20
-50.43189153470106
 30
0.0
 10
282.6394232149304
 20
-50.43189153470106
 30
0.0
 10
282.6394232149304
 20
-50.43189153470106
 30
0.0
 10
267.4437960485905
 20
-50.43189153470106
 30
0.0
 10
267.4437960485905
 20
-50.43189153470106
 30
0.0
 10
266.6245523421981
 20
-50.43189153470106
 30
0.0
 10
265.9599934230934
 20
-49.5926662744942
 30
0.0
 10
265.9599934230934
 20
-48.55638155253104
 30
0.0
 10
265.9599934230934
 20
-48.55638155253104
 30
0.0
 10
265.9599934230934
 20
-37.19841850198512
 30
0.0
 10
265.9599934230934
 20
-37.19841850198512
 30
0.0
  0
POLYLINE
  5
1BD
330
1B8
100
AcDbEntity
  8
Calque 1
370
     0
100
AcDb2dPolyline
 66
     1
 10
0.0
 20
0.0
 30
0.0
  0
VERTEX
  5
1BE
330
1BD
100
AcDbEntity
  8
Calque 1
370
     0
100
AcDbVertex
100
AcDb2dVertex
 10
265.9599934230934
 20
-37.19841850198512
 30
0.0
  0
VERTEX
  5
30F
330
1BD
100
AcDbEntity
  8
0
100
AcDbVertex
100
AcDb2dVertex
 10
265.9599934230934
 20
-37.19841850198512
 30
0.0
  0
SEQEND
  5
1BF
330
1BD
100
AcDbEntity
  8
Calque 1
370
     0
  0
POLYLINE
  5
1C0
330
1B8
100
AcDbEntity
  8
Calque 1
370
     0
100
AcDb2dPolyline
 66
     1
 10
0.0
 20
0.0
 30
0.0
  0
VERTEX
  5
1C1
330
1C0
100
AcDbEntity
  8
Calque 1
370
     0
100
AcDbVertex
100
AcDb2dVertex
 10
284.0960095860941
 20
-37.29315862782949
 30
0.0
  0
VERTEX
  5
310
330
1C0
100
AcDbEntity
  8
0
100
AcDbVertex
100
AcDb2dVertex
 10
284.0960095860941
 20
-37.29315862782949
 30
0.0
  0
SEQEND
  5
1C2
330
1C0
100
AcDbEntity
  8
Calque 1
370
     0
  0
SPLINE
  5
1C3
330
1B8
100
AcDbEntity
  8
Calque 1
370
     0
100
AcDbSpline
210
0.0
220
0.0
230
1.0
 70
     8
 71
     3
 72
    23
 73
    19
 74
     0
 42
0.0000000001
 43
0.0000000001
 40
0.0
 40
0.0
 40
0.0
 40
0.0
 40
1.0
 40
1.0
 40
1.0
 40
2.0
 40
2.0
 40
2.0
 40
3.0
 40
3.0
 40
3.0
 40
4.0
 40
4.0
 40
4.0
 40
5.0
 40
5.0
 40
5.0
 40
6.0
 40
6.0
 40
6.0
 40
6.0
 10
284.1232258404276
 20
-37.36206053753449
 30
0.0
 10
284.1232258404276
 20
-34.95703937928158
 30
0.0
 10
282.6018716741412
 20
-32.83124321010816
 30
0.0
 10
280.2722981070153
 20
-31.54277749862472
 30
0.0
 10
280.2722981070153
 20
-31.54277749862472
 30
0.0
 10
279.9233099343595
 20
-31.35863714493812
 30
0.0
 10
279.9233099343595
 20
-31.35863714493812
 30
0.0
 10
278.7891845006152
 20
-30.68787705395998
 30
0.0
 10
275.0126708296843
 20
-27.84636229772591
 30
0.0
 10
275.0126708296843
 20
-27.84636229772591
 30
0.0
 10
275.0126708296843
 20
-27.84636229772591
 30
0.0
 10
270.6591036649741
 20
-31.08991969708863
 30
0.0
 10
270.1595648196129
 20
-31.35863714493812
 30
0.0
 10
270.1595648196129
 20
-31.35863714493812
 30
0.0
 10
269.7351290558301
 20
-31.58480766354477
 30
0.0
 10
269.7351290558301
 20
-31.58480766354477
 30
0.0
 10
267.4482746727213
 20
-32.87775199915904
 30
0.0
 10
265.9599934230934
 20
-34.98391112406652
 30
0.0
 10
265.9599934230934
 20
-37.36206053753449
 30
0.0
  0
ENDBLK
  5
1BB
330
1B8
100
AcDbEntity
  8
0
100
AcDbBlockEnd
  0
BLOCK
  5
1C6
330
1C4
100
AcDbEntity
  8
0
100
AcDbBlockBegin
  2
block 36
 70
     0
 71
     0
 10
0.0
 20
0.0
 30
0.0
  3
block 36
  1

  0
SPLINE
  5
1C8
330
1C4
100
AcDbEntity
  8
Calque 1
370
     0
100
AcDbSpline
210
0.0
220
0.0
230
1.0
 70
     8
 71
     3
 72
    20
 73
    16
 74
     0
 42
0.0000000001
 43
0.0000000001
 40
0.0
 40
0.0
 40
0.0
 40
0.0
 40
1.0
 40
1.0
 40
1.0
 40
2.0
 40
2.0
 40
2.0
 40
3.0
 40
3.0
 40
3.0
 40
4.0
 40
4.0
 40
4.0
 40
5.0
 40
5.0
 40
5.0
 40
5.0
 10
312.5011663715275
 20
-32.09209797374781
 30
0.0
 10
312.5011663715275
 20
-32.09209797374781
 30
0.0
 10
312.5011663715275
 20
-47.81430798500823
 30
0.0
 10
312.5011663715275
 20
-47.81430798500823
 30
0.0
 10
312.5011663715275
 20
-49.25987005061906
 30
0.0
 10
311.5734021573497
 20
-50.43189153470106
 30
0.0
 10
310.4296304562468
 20
-50.43189153470106
 30
0.0
 10
310.4296304562468
 20
-50.43189153470106
 30
0.0
 10
289.2195555917576
 20
-50.43189153470106
 30
0.0
 10
289.2195555917576
 20
-50.43189153470106
 30
0.0
 10
288.0757838906547
 20
-50.43189153470106
 30
0.0
 10
287.1483641860254
 20
-49.25987005061906
 30
0.0
 10
287.1483641860254
 20
-47.81430798500823
 30
0.0
 10
287.1483641860254
 20
-47.81430798500823
 30
0.0
 10
287.1483641860254
 20
-31.960323071437
 30
0.0
 10
287.1483641860254
 20
-31.960323071437
 30
0.0
  0
POLYLINE
  5
1C9
330
1C4
100
AcDbEntity
  8
Calque 1
370
     0
100
AcDb2dPolyline
 66
     1
 10
0.0
 20
0.0
 30
0.0
  0
VERTEX
  5
1CA
330
1C9
100
AcDbEntity
  8
Calque 1
370
     0
100
AcDbVertex
100
AcDb2dVertex
 10
287.1483641860254
 20
-31.960323071437
 30
0.0
  0
VERTEX
  5
311
330
1C9
100
AcDbEntity
  8
0
100
AcDbVertex
100
AcDb2dVertex
 10
287.1483641860254
 20
-31.960323071437
 30
0.0
  0
SEQEND
  5
1CB
330
1C9
100
AcDbEntity
  8
Calque 1
370
     0
  0
POLYLINE
  5
1CC
330
1C4
100
AcDbEntity
  8
Calque 1
370
     0
100
AcDb2dPolyline
 66
     1
 10
0.0
 20
0.0
 30
0.0
  0
VERTEX
  5
1CD
330
1CC
100
AcDbEntity
  8
Calque 1
370
     0
100
AcDbVertex
100
AcDb2dVertex
 10
312.4629258116412
 20
-32.09209797374781
 30
0.0
  0
VERTEX
  5
312
330
1CC
100
AcDbEntity
  8
0
100
AcDbVertex
100
AcDb2dVertex
 10
312.4629258116412
 20
-32.09209797374781
 30
0.0
  0
SEQEND
  5
1CE
330
1CC
100
AcDbEntity
  8
Calque 1
370
     0
  0
SPLINE
  5
1CF
330
1C4
100
AcDbEntity
  8
Calque 1
370
     0
100
AcDbSpline
210
0.0
220
0.0
230
1.0
 70
     8
 71
     3
 72
    23
 73
    19
 74
     0
 42
0.0000000001
 43
0.0000000001
 40
0.0
 40
0.0
 40
0.0
 40
0.0
 40
1.0
 40
1.0
 40
1.0
 40
2.0
 40
2.0
 40
2.0
 40
3.0
 40
3.0
 40
3.0
 40
4.0
 40
4.0
 40
4.0
 40
5.0
 40
5.0
 40
5.0
 40
6.0
 40
6.0
 40
6.0
 40
6.0
 10
312.5011663715275
 20
-32.1885606473348
 30
0.0
 10
312.5011663715275
 20
-28.83200411605589
 30
0.0
 10
310.377954023968
 20
-25.86405435551315
 30
0.0
 10
307.1257838858922
 20
-24.06537000266421
 30
0.0
 10
307.1257838858922
 20
-24.06537000266421
 30
0.0
 10
306.6386473842779
 20
-23.80922715333589
 30
0.0
 10
306.6386473842779
 20
-23.80922715333589
 30
0.0
 10
305.0556260088056
 20
-22.87250569089646
 30
0.0
 10
299.7842854068248
 20
-18.90582274917979
 30
0.0
 10
299.7842854068248
 20
-18.90582274917979
 30
0.0
 10
299.7842854068248
 20
-18.90582274917979
 30
0.0
 10
293.7071369708441
 20
-23.43319498112087
 30
0.0
 10
293.0105386637265
 20
-23.80922715333589
 30
0.0
 10
293.0105386637265
 20
-23.80922715333589
 30
0.0
 10
292.4179822402636
 20
-24.12479789978477
 30
0.0
 10
292.4179822402636
 20
-24.12479789978477
 30
0.0
 10
289.2257567636311
 20
-25.92882215063585
 30
0.0
 10
287.1483641860254
 20
-28.86852212819954
 30
0.0
 10
287.1483641860254
 20
-32.1885606473348
 30
0.0
  0
ENDBLK
  5
1C7
330
1C4
100
AcDbEntity
  8
0
100
AcDbBlockEnd
  0
BLOCK
  5
1D2
330
1D0
100
AcDbEntity
  8
0
100
AcDbBlockBegin
  2
block 37
 70
     0
 71
     0
 10
0.0
 20
0.0
 30
0.0
  3
block 37
  1

  0
SPLINE
  5
1D4
330
1D0
100
AcDbEntity
  8
Calque 1
370
     0
100
AcDbSpline
210
0.0
220
0.0
230
1.0
 70
     8
 71
     3
 72
    20
 73
    16
 74
     0
 42
0.0000000001
 43
0.0000000001
 40
0.0
 40
0.0
 40
0.0
 40
0.0
 40
1.0
 40
1.0
 40
1.0
 40
2.0
 40
2.0
 40
2.0
 40
3.0
 40
3.0
 40
3.0
 40
4.0
 40
4.0
 40
4.0
 40
5.0
 40
5.0
 40
5.0
 40
5.0
 10
265.9599934230934
 20
-75.86496444500946
 30
0.0
 10
265.9599934230934
 20
-75.86496444500946
 30
0.0
 10
265.9599934230934
 20
-56.3137030566681
 30
0.0
 10
265.9599934230934
 20
-56.3137030566681
 30
0.0
 10
265.9599934230934
 20
-54.51605223246474
 30
0.0
 10
267.113411391555
 20
-53.05808782310701
 30
0.0
 10
268.5358913174147
 20
-53.05808782310701
 30
0.0
 10
268.5358913174147
 20
-53.05808782310701
 30
0.0
 10
294.9122313715845
 20
-53.05808782310701
 30
0.0
 10
294.9122313715845
 20
-53.05808782310701
 30
0.0
 10
296.3350558069926
 20
-53.05808782310701
 30
0.0
 10
297.4881292659057
 20
-54.51605223246474
 30
0.0
 10
297.4881292659057
 20
-56.3137030566681
 30
0.0
 10
297.4881292659057
 20
-56.3137030566681
 30
0.0
 10
297.4881292659057
 20
-76.02895099010735
 30
0.0
 10
297.4881292659057
 20
-76.02895099010735
 30
0.0
  0
POLYLINE
  5
1D5
330
1D0
100
AcDbEntity
  8
Calque 1
370
     0
100
AcDb2dPolyline
 66
     1
 10
0.0
 20
0.0
 30
0.0
  0
VERTEX
  5
1D6
330
1D5
100
AcDbEntity
  8
Calque 1
370
     0
100
AcDbVertex
100
AcDb2dVertex
 10
297.4881292659057
 20
-76.02895099010735
 30
0.0
  0
VERTEX
  5
313
330
1D5
100
AcDbEntity
  8
0
100
AcDbVertex
100
AcDb2dVertex
 10
297.4881292659057
 20
-76.02895099010735
 30
0.0
  0
SEQEND
  5
1D7
330
1D5
100
AcDbEntity
  8
Calque 1
370
     0
  0
POLYLINE
  5
1D8
330
1D0
100
AcDbEntity
  8
Calque 1
370
     0
100
AcDb2dPolyline
 66
     1
 10
0.0
 20
0.0
 30
0.0
  0
VERTEX
  5
1D9
330
1D8
100
AcDbEntity
  8
Calque 1
370
     0
100
AcDbVertex
100
AcDb2dVertex
 10
266.0071912312413
 20
-75.86496444500946
 30
0.0
  0
VERTEX
  5
314
330
1D8
100
AcDbEntity
  8
0
100
AcDbVertex
100
AcDb2dVertex
 10
266.0071912312413
 20
-75.86496444500946
 30
0.0
  0
SEQEND
  5
1DA
330
1D8
100
AcDbEntity
  8
Calque 1
370
     0
  0
SPLINE
  5
1DB
330
1D0
100
AcDbEntity
  8
Calque 1
370
     0
100
AcDbSpline
210
0.0
220
0.0
230
1.0
 70
     8
 71
     3
 72
    23
 73
    19
 74
     0
 42
0.0000000001
 43
0.0000000001
 40
0.0
 40
0.0
 40
0.0
 40
0.0
 40
1.0
 40
1.0
 40
1.0
 40
2.0
 40
2.0
 40
2.0
 40
3.0
 40
3.0
 40
3.0
 40
4.0
 40
4.0
 40
4.0
 40
5.0
 40
5.0
 40
5.0
 40
6.0
 40
6.0
 40
6.0
 40
6.0
 10
265.9599934230934
 20
-75.74541963167128
 30
0.0
 10
265.9599934230934
 20
-79.91932506682573
 30
0.0
 10
268.6006591125374
 20
-83.61005586017387
 30
0.0
 10
272.6445121931236
 20
-85.84643959442381
 30
0.0
 10
272.6445121931236
 20
-85.84643959442381
 30
0.0
 10
273.2505044889791
 20
-86.16562769113222
 30
0.0
 10
273.2505044889791
 20
-86.16562769113222
 30
0.0
 10
275.2193765587994
 20
-87.33058672946945
 30
0.0
 10
281.7740152290357
 20
-92.26275768092736
 30
0.0
 10
281.7740152290357
 20
-92.26275768092736
 30
0.0
 10
281.7740152290357
 20
-92.26275768092736
 30
0.0
 10
289.3315211950282
 20
-86.63261038415783
 30
0.0
 10
290.1979627095686
 20
-86.16562769113222
 30
0.0
 10
290.1979627095686
 20
-86.16562769113222
 30
0.0
 10
290.9352131434121
 20
-85.77305906058798
 30
0.0
 10
290.9352131434121
 20
-85.77305906058798
 30
0.0
 10
294.9046521615169
 20
-83.52944062581903
 30
0.0
 10
297.4881292659057
 20
-79.8740220611947
 30
0.0
 10
297.4881292659057
 20
-75.74541963167128
 30
0.0
  0
ENDBLK
  5
1D3
330
1D0
100
AcDbEntity
  8
0
100
AcDbBlockEnd
  0
BLOCK
  5
1DE
330
1DC
100
AcDbEntity
  8
0
100
AcDbBlockBegin
  2
block 38
 70
     0
 71
     0
 10
0.0
 20
0.0
 30
0.0
  3
block 38
  1

  0
SPLINE
  5
1E0
330
1DC
100
AcDbEntity
  8
Calque 1
370
     0
100
AcDbSpline
210
0.0
220
0.0
230
1.0
 70
     8
 71
     3
 72
    20
 73
    16
 74
     0
 42
0.0000000001
 43
0.0000000001
 40
0.0
 40
0.0
 40
0.0
 40
0.0
 40
1.0
 40
1.0
 40
1.0
 40
2.0
 40
2.0
 40
2.0
 40
3.0
 40
3.0
 40
3.0
 40
4.0
 40
4.0
 40
4.0
 40
5.0
 40
5.0
 40
5.0
 40
5.0
 10
328.2263047139504
 20
-66.19682072997857
 30
0.0
 10
328.2263047139504
 20
-66.19682072997857
 30
0.0
 10
328.2263047139504
 20
-54.93359780527702
 30
0.0
 10
328.2263047139504
 20
-54.93359780527702
 30
0.0
 10
328.2263047139504
 20
-53.89731308331387
 30
0.0
 10
328.8908636330551
 20
-53.05808782310701
 30
0.0
 10
329.7101073394475
 20
-53.05808782310701
 30
0.0
 10
329.7101073394475
 20
-53.05808782310701
 30
0.0
 10
344.9057345057874
 20
-53.05808782310701
 30
0.0
 10
344.9057345057874
 20
-53.05808782310701
 30
0.0
 10
345.7249782121799
 20
-53.05808782310701
 30
0.0
 10
346.3895371312846
 20
-53.89731308331387
 30
0.0
 10
346.3895371312846
 20
-54.93359780527702
 30
0.0
 10
346.3895371312846
 20
-54.93359780527702
 30
0.0
 10
346.3895371312846
 20
-66.29156085582295
 30
0.0
 10
346.3895371312846
 20
-66.29156085582295
 30
0.0
  0
POLYLINE
  5
1E1
330
1DC
100
AcDbEntity
  8
Calque 1
370
     0
100
AcDb2dPolyline
 66
     1
 10
0.0
 20
0.0
 30
0.0
  0
VERTEX
  5
1E2
330
1E1
100
AcDbEntity
  8
Calque 1
370
     0
100
AcDbVertex
100
AcDb2dVertex
 10
346.3895371312846
 20
-66.29156085582295
 30
0.0
  0
VERTEX
  5
315
330
1E1
100
AcDbEntity
  8
0
100
AcDbVertex
100
AcDb2dVertex
 10
346.3895371312846
 20
-66.29156085582295
 30
0.0
  0
SEQEND
  5
1E3
330
1E1
100
AcDbEntity
  8
Calque 1
370
     0
  0
POLYLINE
  5
1E4
330
1DC
100
AcDbEntity
  8
Calque 1
370
     0
100
AcDb2dPolyline
 66
     1
 10
0.0
 20
0.0
 30
0.0
  0
VERTEX
  5
1E5
330
1E4
100
AcDbEntity
  8
Calque 1
370
     0
100
AcDbVertex
100
AcDb2dVertex
 10
328.2535209682839
 20
-66.19682072997857
 30
0.0
  0
VERTEX
  5
316
330
1E4
100
AcDbEntity
  8
0
100
AcDbVertex
100
AcDb2dVertex
 10
328.2535209682839
 20
-66.19682072997857
 30
0.0
  0
SEQEND
  5
1E6
330
1E4
100
AcDbEntity
  8
Calque 1
370
     0
  0
SPLINE
  5
1E7
330
1DC
100
AcDbEntity
  8
Calque 1
370
     0
100
AcDbSpline
210
0.0
220
0.0
230
1.0
 70
     8
 71
     3
 72
    23
 73
    19
 74
     0
 42
0.0000000001
 43
0.0000000001
 40
0.0
 40
0.0
 40
0.0
 40
0.0
 40
1.0
 40
1.0
 40
1.0
 40
2.0
 40
2.0
 40
2.0
 40
3.0
 40
3.0
 40
3.0
 40
4.0
 40
4.0
 40
4.0
 40
5.0
 40
5.0
 40
5.0
 40
6.0
 40
6.0
 40
6.0
 40
6.0
 10
328.2263047139504
 20
-66.12791882027358
 30
0.0
 10
328.2263047139504
 20
-68.53293997852649
 30
0.0
 10
329.7476588802367
 20
-70.6587361476999
 30
0.0
 10
332.0772324473626
 20
-71.94720185918334
 30
0.0
 10
332.0772324473626
 20
-71.94720185918334
 30
0.0
 10
332.4262206200185
 20
-72.13134221286994
 30
0.0
 10
332.4262206200185
 20
-72.13134221286994
 30
0.0
 10
333.5603460537627
 20
-72.80210230384809
 30
0.0
 10
337.3368597246936
 20
-75.64361706008215
 30
0.0
 10
337.3368597246936
 20
-75.64361706008215
 30
0.0
 10
337.3368597246936
 20
-75.64361706008215
 30
0.0
 10
341.6904268894038
 20
-72.40005966071944
 30
0.0
 10
342.189965734765
 20
-72.13134221286994
 30
0.0
 10
342.189965734765
 20
-72.13134221286994
 30
0.0
 10
342.6144014985478
 20
-71.90517169426329
 30
0.0
 10
342.6144014985478
 20
-71.90517169426329
 30
0.0
 10
344.9012558816567
 20
-70.61222735864904
 30
0.0
 10
346.3895371312846
 20
-68.50606823374154
 30
0.0
 10
346.3895371312846
 20
-66.12791882027358
 30
0.0
  0
ENDBLK
  5
1DF
330
1DC
100
AcDbEntity
  8
0
100
AcDbBlockEnd
  0
BLOCK
  5
1EA
330
1E8
100
AcDbEntity
  8
0
100
AcDbBlockBegin
  2
block 39
 70
     0
 71
     0
 10
0.0
 20
0.0
 30
0.0
  3
block 39
  1

  0
SPLINE
  5
1EC
330
1E8
100
AcDbEntity
  8
Calque 1
370
     0
100
AcDbSpline
210
0.0
220
0.0
230
1.0
 70
     8
 71
     3
 72
    20
 73
    16
 74
     0
 42
0.0000000001
 43
0.0000000001
 40
0.0
 40
0.0
 40
0.0
 40
0.0
 40
1.0
 40
1.0
 40
1.0
 40
2.0
 40
2.0
 40
2.0
 40
3.0
 40
3.0
 40
3.0
 40
4.0
 40
4.0
 40
4.0
 40
5.0
 40
5.0
 40
5.0
 40
5.0
 10
299.8483641828504
 20
-71.39788138406026
 30
0.0
 10
299.8483641828504
 20
-71.39788138406026
 30
0.0
 10
299.8483641828504
 20
-55.67567137279983
 30
0.0
 10
299.8483641828504
 20
-55.67567137279983
 30
0.0
 10
299.8483641828504
 20
-54.230109307189
 30
0.0
 10
300.7757838874797
 20
-53.05808782310701
 30
0.0
 10
301.9199000981312
 20
-53.05808782310701
 30
0.0
 10
301.9199000981312
 20
-53.05808782310701
 30
0.0
 10
323.1299749626203
 20
-53.05808782310701
 30
0.0
 10
323.1299749626203
 20
-53.05808782310701
 30
0.0
 10
324.2737466637233
 20
-53.05808782310701
 30
0.0
 10
325.2011663683525
 20
-54.230109307189
 30
0.0
 10
325.2011663683525
 20
-55.67567137279983
 30
0.0
 10
325.2011663683525
 20
-55.67567137279983
 30
0.0
 10
325.2011663683525
 20
-71.52965628637106
 30
0.0
 10
325.2011663683525
 20
-71.52965628637106
 30
0.0
  0
POLYLINE
  5
1ED
330
1E8
100
AcDbEntity
  8
Calque 1
370
     0
100
AcDb2dPolyline
 66
     1
 10
0.0
 20
0.0
 30
0.0
  0
VERTEX
  5
1EE
330
1ED
100
AcDbEntity
  8
Calque 1
370
     0
100
AcDbVertex
100
AcDb2dVertex
 10
325.2011663683525
 20
-71.52965628637106
 30
0.0
  0
VERTEX
  5
317
330
1ED
100
AcDbEntity
  8
0
100
AcDbVertex
100
AcDb2dVertex
 10
325.2011663683525
 20
-71.52965628637106
 30
0.0
  0
SEQEND
  5
1EF
330
1ED
100
AcDbEntity
  8
Calque 1
370
     0
  0
POLYLINE
  5
1F0
330
1E8
100
AcDbEntity
  8
Calque 1
370
     0
100
AcDb2dPolyline
 66
     1
 10
0.0
 20
0.0
 30
0.0
  0
VERTEX
  5
1F1
330
1F0
100
AcDbEntity
  8
Calque 1
370
     0
100
AcDbVertex
100
AcDb2dVertex
 10
299.8866047427367
 20
-71.39788138406026
 30
0.0
  0
VERTEX
  5
318
330
1F0
100
AcDbEntity
  8
0
100
AcDbVertex
100
AcDb2dVertex
 10
299.8866047427367
 20
-71.39788138406026
 30
0.0
  0
SEQEND
  5
1F2
330
1F0
100
AcDbEntity
  8
Calque 1
370
     0
  0
SPLINE
  5
1F3
330
1E8
100
AcDbEntity
  8
Calque 1
370
     0
100
AcDbSpline
210
0.0
220
0.0
230
1.0
 70
     8
 71
     3
 72
    23
 73
    19
 74
     0
 42
0.0000000001
 43
0.0000000001
 40
0.0
 40
0.0
 40
0.0
 40
0.0
 40
1.0
 40
1.0
 40
1.0
 40
2.0
 40
2.0
 40
2.0
 40
3.0
 40
3.0
 40
3.0
 40
4.0
 40
4.0
 40
4.0
 40
5.0
 40
5.0
 40
5.0
 40
6.0
 40
6.0
 40
6.0
 40
6.0
 10
299.8483641828504
 20
-71.30141871047326
 30
0.0
 10
299.8483641828504
 20
-74.65797524175218
 30
0.0
 10
301.9719210399584
 20
-77.6259250022949
 30
0.0
 10
305.2234021589372
 20
-79.42460935514386
 30
0.0
 10
305.2234021589372
 20
-79.42460935514386
 30
0.0
 10
305.7108831701001
 20
-79.68075220447217
 30
0.0
 10
305.7108831701001
 20
-79.68075220447217
 30
0.0
 10
307.2939045455724
 20
-80.61747366691161
 30
0.0
 10
312.5649006380046
 20
-84.58415660862828
 30
0.0
 10
312.5649006380046
 20
-84.58415660862828
 30
0.0
 10
312.5649006380046
 20
-84.58415660862828
 30
0.0
 10
318.6420490739853
 20
-80.05678437668719
 30
0.0
 10
319.3389918906514
 20
-79.68075220447217
 30
0.0
 10
319.3389918906514
 20
-79.68075220447217
 30
0.0
 10
319.9315483141144
 20
-79.36518145802329
 30
0.0
 10
319.9315483141144
 20
-79.36518145802329
 30
0.0
 10
323.1237737907468
 20
-77.56115720717222
 30
0.0
 10
325.2011663683525
 20
-74.62145722960852
 30
0.0
 10
325.2011663683525
 20
-71.30141871047326
 30
0.0
  0
ENDBLK
  5
1EB
330
1E8
100
AcDbEntity
  8
0
100
AcDbBlockEnd
  0
BLOCK
  5
1F6
330
1F4
100
AcDbEntity
  8
0
100
AcDbBlockBegin
  2
block 40
 70
     0
 71
     0
 10
0.0
 20
0.0
 30
0.0
  3
block 40
  1

  0
SPLINE
  5
1F8
330
1F4
100
AcDbEntity
  8
Calque 1
370
     0
100
AcDbSpline
210
0.0
220
0.0
230
1.0
 70
     8
 71
     3
 72
    20
 73
    16
 74
     0
 42
0.0000000001
 43
0.0000000001
 40
0.0
 40
0.0
 40
0.0
 40
0.0
 40
1.0
 40
1.0
 40
1.0
 40
2.0
 40
2.0
 40
2.0
 40
3.0
 40
3.0
 40
3.0
 40
4.0
 40
4.0
 40
4.0
 40
5.0
 40
5.0
 40
5.0
 40
5.0
 10
262.832191232035
 20
-90.11301809813148
 30
0.0
 10
262.832191232035
 20
-90.11301809813148
 30
0.0
 10
262.832191232035
 20
-109.6642794864728
 30
0.0
 10
262.832191232035
 20
-109.6642794864728
 30
0.0
 10
262.832191232035
 20
-111.4619303106762
 30
0.0
 10
261.6787732635734
 20
-112.9198947200339
 30
0.0
 10
260.2566378472623
 20
-112.9198947200339
 30
0.0
 10
260.2566378472623
 20
-112.9198947200339
 30
0.0
 10
233.8802977930924
 20
-112.9198947200339
 30
0.0
 10
233.8802977930924
 20
-112.9198947200339
 30
0.0
 10
232.4574733576843
 20
-112.9198947200339
 30
0.0
 10
231.3040553892226
 20
-111.4619303106762
 30
0.0
 10
231.3040553892226
 20
-109.6642794864728
 30
0.0
 10
231.3040553892226
 20
-109.6642794864728
 30
0.0
 10
231.3040553892226
 20
-89.94903155303358
 30
0.0
 10
231.3040553892226
 20
-89.94903155303358
 30
0.0
  0
POLYLINE
  5
1F9
330
1F4
100
AcDbEntity
  8
Calque 1
370
     0
100
AcDb2dPolyline
 66
     1
 10
0.0
 20
0.0
 30
0.0
  0
VERTEX
  5
1FA
330
1F9
100
AcDbEntity
  8
Calque 1
370
     0
100
AcDbVertex
100
AcDb2dVertex
 10
231.3040553892226
 20
-89.94903155303358
 30
0.0
  0
VERTEX
  5
319
330
1F9
100
AcDbEntity
  8
0
100
AcDbVertex
100
AcDb2dVertex
 10
231.3040553892226
 20
-89.94903155303358
 30
0.0
  0
SEQEND
  5
1FB
330
1F9
100
AcDbEntity
  8
Calque 1
370
     0
  0
POLYLINE
  5
1FC
330
1F4
100
AcDbEntity
  8
Calque 1
370
     0
100
AcDb2dPolyline
 66
     1
 10
0.0
 20
0.0
 30
0.0
  0
VERTEX
  5
1FD
330
1FC
100
AcDbEntity
  8
Calque 1
370
     0
100
AcDbVertex
100
AcDb2dVertex
 10
262.7849934238871
 20
-90.11301809813148
 30
0.0
  0
VERTEX
  5
31A
330
1FC
100
AcDbEntity
  8
0
100
AcDbVertex
100
AcDb2dVertex
 10
262.7849934238871
 20
-90.11301809813148
 30
0.0
  0
SEQEND
  5
1FE
330
1FC
100
AcDbEntity
  8
Calque 1
370
     0
  0
SPLINE
  5
1FF
330
1F4
100
AcDbEntity
  8
Calque 1
370
     0
100
AcDbSpline
210
0.0
220
0.0
230
1.0
 70
     8
 71
     3
 72
    23
 73
    19
 74
     0
 42
0.0000000001
 43
0.0000000001
 40
0.0
 40
0.0
 40
0.0
 40
0.0
 40
1.0
 40
1.0
 40
1.0
 40
2.0
 40
2.0
 40
2.0
 40
3.0
 40
3.0
 40
3.0
 40
4.0
 40
4.0
 40
4.0
 40
5.0
 40
5.0
 40
5.0
 40
6.0
 40
6.0
 40
6.0
 40
6.0
 10
262.832191232035
 20
-90.23256291146964
 30
0.0
 10
262.832191232035
 20
-86.0586574763152
 30
0.0
 10
260.191525542591
 20
-82.36792668296705
 30
0.0
 10
256.1480169715533
 20
-80.13154294871711
 30
0.0
 10
256.1480169715533
 20
-80.13154294871711
 30
0.0
 10
255.5416801661493
 20
-79.81235485200872
 30
0.0
 10
255.5416801661493
 20
-79.81235485200872
 30
0.0
 10
253.5731526058776
 20
-78.6473958136715
 30
0.0
 10
247.0181694260927
 20
-73.71522486221356
 30
0.0
 10
247.0181694260927
 20
-73.71522486221356
 30
0.0
 10
247.0181694260927
 20
-73.71522486221356
 30
0.0
 10
239.4606634601001
 20
-79.34537215898311
 30
0.0
 10
238.5942219455598
 20
-79.81235485200872
 30
0.0
 10
238.5942219455598
 20
-79.81235485200872
 30
0.0
 10
237.8573160212648
 20
-80.20492348255294
 30
0.0
 10
237.8573160212648
 20
-80.20492348255294
 30
0.0
 10
233.88787700316
 20
-82.44854191732189
 30
0.0
 10
231.3040553892226
 20
-86.10396048194623
 30
0.0
 10
231.3040553892226
 20
-90.23256291146964
 30
0.0
  0
ENDBLK
  5
1F7
330
1F4
100
AcDbEntity
  8
0
100
AcDbBlockEnd
  0
BLOCK
  5
202
330
200
100
AcDbEntity
  8
0
100
AcDbBlockBegin
  2
block 41
 70
     0
 71
     0
 10
0.0
 20
0.0
 30
0.0
  3
block 41
  1

  0
SPLINE
  5
204
330
200
100
AcDbEntity
  8
Calque 1
370
     0
100
AcDbSpline
210
0.0
220
0.0
230
1.0
 70
     8
 71
     3
 72
    20
 73
    16
 74
     0
 42
0.0000000001
 43
0.0000000001
 40
0.0
 40
0.0
 40
0.0
 40
0.0
 40
1.0
 40
1.0
 40
1.0
 40
2.0
 40
2.0
 40
2.0
 40
3.0
 40
3.0
 40
3.0
 40
4.0
 40
4.0
 40
4.0
 40
5.0
 40
5.0
 40
5.0
 40
5.0
 10
200.5662244507265
 20
-99.78116181316236
 30
0.0
 10
200.5662244507265
 20
-99.78116181316236
 30
0.0
 10
200.5662244507265
 20
-111.0443847378639
 30
0.0
 10
200.5662244507265
 20
-111.0443847378639
 30
0.0
 10
200.5662244507265
 20
-112.0806694598271
 30
0.0
 10
199.9013210220733
 20
-112.9198947200339
 30
0.0
 10
199.0820773156809
 20
-112.9198947200339
 30
0.0
 10
199.0820773156809
 20
-112.9198947200339
 30
0.0
 10
183.8867946588894
 20
-112.9198947200339
 30
0.0
 10
183.8867946588894
 20
-112.9198947200339
 30
0.0
 10
183.0672064429485
 20
-112.9198947200339
 30
0.0
 10
182.4029920333923
 20
-112.0806694598271
 30
0.0
 10
182.4029920333923
 20
-111.0443847378639
 30
0.0
 10
182.4029920333923
 20
-111.0443847378639
 30
0.0
 10
182.4029920333923
 20
-99.68642168731799
 30
0.0
 10
182.4029920333923
 20
-99.68642168731799
 30
0.0
  0
POLYLINE
  5
205
330
200
100
AcDbEntity
  8
Calque 1
370
     0
100
AcDb2dPolyline
 66
     1
 10
0.0
 20
0.0
 30
0.0
  0
VERTEX
  5
206
330
205
100
AcDbEntity
  8
Calque 1
370
     0
100
AcDbVertex
100
AcDb2dVertex
 10
182.4029920333923
 20
-99.68642168731799
 30
0.0
  0
VERTEX
  5
31B
330
205
100
AcDbEntity
  8
0
100
AcDbVertex
100
AcDb2dVertex
 10
182.4029920333923
 20
-99.68642168731799
 30
0.0
  0
SEQEND
  5
207
330
205
100
AcDbEntity
  8
Calque 1
370
     0
  0
POLYLINE
  5
208
330
200
100
AcDbEntity
  8
Calque 1
370
     0
100
AcDb2dPolyline
 66
     1
 10
0.0
 20
0.0
 30
0.0
  0
VERTEX
  5
209
330
208
100
AcDbEntity
  8
Calque 1
370
     0
100
AcDbVertex
100
AcDb2dVertex
 10
200.5386636868445
 20
-99.78116181316236
 30
0.0
  0
VERTEX
  5
31C
330
208
100
AcDbEntity
  8
0
100
AcDbVertex
100
AcDb2dVertex
 10
200.5386636868445
 20
-99.78116181316236
 30
0.0
  0
SEQEND
  5
20A
330
208
100
AcDbEntity
  8
Calque 1
370
     0
  0
SPLINE
  5
20B
330
200
100
AcDbEntity
  8
Calque 1
370
     0
100
AcDbSpline
210
0.0
220
0.0
230
1.0
 70
     8
 71
     3
 72
    23
 73
    19
 74
     0
 42
0.0000000001
 43
0.0000000001
 40
0.0
 40
0.0
 40
0.0
 40
0.0
 40
1.0
 40
1.0
 40
1.0
 40
2.0
 40
2.0
 40
2.0
 40
3.0
 40
3.0
 40
3.0
 40
4.0
 40
4.0
 40
4.0
 40
5.0
 40
5.0
 40
5.0
 40
6.0
 40
6.0
 40
6.0
 40
6.0
 10
200.5662244507265
 20
-99.85006372286735
 30
0.0
 10
200.5662244507265
 20
-97.44504256461444
 30
0.0
 10
199.0448702844402
 20
-95.31924639544103
 30
0.0
 10
196.7152967173142
 20
-94.03078068395759
 30
0.0
 10
196.7152967173142
 20
-94.03078068395759
 30
0.0
 10
196.3659640351099
 20
-93.84664033027099
 30
0.0
 10
196.3659640351099
 20
-93.84664033027099
 30
0.0
 10
195.2318386013657
 20
-93.17588023929284
 30
0.0
 10
191.4553249304348
 20
-90.33436548305878
 30
0.0
 10
191.4553249304348
 20
-90.33436548305878
 30
0.0
 10
191.4553249304348
 20
-90.33436548305878
 30
0.0
 10
187.1021022752731
 20
-93.57792288242149
 30
0.0
 10
186.6025634299119
 20
-93.84664033027099
 30
0.0
 10
186.6025634299119
 20
-93.84664033027099
 30
0.0
 10
186.1781276661291
 20
-94.07281084887764
 30
0.0
 10
186.1781276661291
 20
-94.07281084887764
 30
0.0
 10
183.8912732830202
 20
-95.3657551844919
 30
0.0
 10
182.4029920333923
 20
-97.47191430939938
 30
0.0
 10
182.4029920333923
 20
-99.85006372286735
 30
0.0
  0
ENDBLK
  5
203
330
200
100
AcDbEntity
  8
0
100
AcDbBlockEnd
  0
BLOCK
  5
20E
330
20C
100
AcDbEntity
  8
0
100
AcDbBlockBegin
  2
block 42
 70
     0
 71
     0
 10
0.0
 20
0.0
 30
0.0
  3
block 42
  1

  0
SPLINE
  5
210
330
20C
100
AcDbEntity
  8
Calque 1
370
     0
100
AcDbSpline
210
0.0
220
0.0
230
1.0
 70
     8
 71
     3
 72
    20
 73
    16
 74
     0
 42
0.0000000001
 43
0.0000000001
 40
0.0
 40
0.0
 40
0.0
 40
0.0
 40
1.0
 40
1.0
 40
1.0
 40
2.0
 40
2.0
 40
2.0
 40
3.0
 40
3.0
 40
3.0
 40
4.0
 40
4.0
 40
4.0
 40
5.0
 40
5.0
 40
5.0
 40
5.0
 10
228.9441649818265
 20
-94.58010115908067
 30
0.0
 10
228.9441649818265
 20
-94.58010115908067
 30
0.0
 10
228.9441649818265
 20
-110.3023111703411
 30
0.0
 10
228.9441649818265
 20
-110.3023111703411
 30
0.0
 10
228.9441649818265
 20
-111.7478732359519
 30
0.0
 10
228.0164007676487
 20
-112.9198947200339
 30
0.0
 10
226.8722845569972
 20
-112.9198947200339
 30
0.0
 10
226.8722845569972
 20
-112.9198947200339
 30
0.0
 10
205.6622096925081
 20
-112.9198947200339
 30
0.0
 10
205.6622096925081
 20
-112.9198947200339
 30
0.0
 10
204.5184379914051
 20
-112.9198947200339
 30
0.0
 10
203.5910182867759
 20
-111.7478732359519
 30
0.0
 10
203.5910182867759
 20
-110.3023111703411
 30
0.0
 10
203.5910182867759
 20
-110.3023111703411
 30
0.0
 10
203.5910182867759
 20
-94.44832625676986
 30
0.0
 10
203.5910182867759
 20
-94.44832625676986
 30
0.0
  0
POLYLINE
  5
211
330
20C
100
AcDbEntity
  8
Calque 1
370
     0
100
AcDb2dPolyline
 66
     1
 10
0.0
 20
0.0
 30
0.0
  0
VERTEX
  5
212
330
211
100
AcDbEntity
  8
Calque 1
370
     0
100
AcDbVertex
100
AcDb2dVertex
 10
203.5910182867759
 20
-94.44832625676986
 30
0.0
  0
VERTEX
  5
31D
330
211
100
AcDbEntity
  8
0
100
AcDbVertex
100
AcDb2dVertex
 10
203.5910182867759
 20
-94.44832625676986
 30
0.0
  0
SEQEND
  5
213
330
211
100
AcDbEntity
  8
Calque 1
370
     0
  0
POLYLINE
  5
214
330
20C
100
AcDbEntity
  8
Calque 1
370
     0
100
AcDb2dPolyline
 66
     1
 10
0.0
 20
0.0
 30
0.0
  0
VERTEX
  5
215
330
214
100
AcDbEntity
  8
Calque 1
370
     0
100
AcDbVertex
100
AcDb2dVertex
 10
228.9055799123917
 20
-94.58010115908067
 30
0.0
  0
VERTEX
  5
31E
330
214
100
AcDbEntity
  8
0
100
AcDbVertex
100
AcDb2dVertex
 10
228.9055799123917
 20
-94.58010115908067
 30
0.0
  0
SEQEND
  5
216
330
214
100
AcDbEntity
  8
Calque 1
370
     0
  0
SPLINE
  5
217
330
20C
100
AcDbEntity
  8
Calque 1
370
     0
100
AcDbSpline
210
0.0
220
0.0
230
1.0
 70
     8
 71
     3
 72
    23
 73
    19
 74
     0
 42
0.0000000001
 43
0.0000000001
 40
0.0
 40
0.0
 40
0.0
 40
0.0
 40
1.0
 40
1.0
 40
1.0
 40
2.0
 40
2.0
 40
2.0
 40
3.0
 40
3.0
 40
3.0
 40
4.0
 40
4.0
 40
4.0
 40
5.0
 40
5.0
 40
5.0
 40
6.0
 40
6.0
 40
6.0
 40
6.0
 10
228.9441649818265
 20
-94.67656383266767
 30
0.0
 10
228.9441649818265
 20
-91.32000730138876
 30
0.0
 10
226.8206081247185
 20
-88.35205754084602
 30
0.0
 10
223.5687824961911
 20
-86.55337318799708
 30
0.0
 10
223.5687824961911
 20
-86.55337318799708
 30
0.0
 10
223.0813014850283
 20
-86.29723033866875
 30
0.0
 10
223.0813014850283
 20
-86.29723033866875
 30
0.0
 10
221.4986246191045
 20
-85.36050887622932
 30
0.0
 10
216.2272840171237
 20
-81.39382593451266
 30
0.0
 10
216.2272840171237
 20
-81.39382593451266
 30
0.0
 10
216.2272840171237
 20
-81.39382593451266
 30
0.0
 10
210.150135581143
 20
-85.92119816645373
 30
0.0
 10
209.453192764477
 20
-86.29723033866875
 30
0.0
 10
209.453192764477
 20
-86.29723033866875
 30
0.0
 10
208.860636341014
 20
-86.61280108511764
 30
0.0
 10
208.860636341014
 20
-86.61280108511764
 30
0.0
 10
205.6687553739301
 20
-88.41682533596871
 30
0.0
 10
203.5910182867759
 20
-91.3565253135324
 30
0.0
 10
203.5910182867759
 20
-94.67656383266767
 30
0.0
  0
ENDBLK
  5
20F
330
20C
100
AcDbEntity
  8
0
100
AcDbBlockEnd
  0
BLOCK
  5
21A
330
218
100
AcDbEntity
  8
0
100
AcDbBlockBegin
  2
block 43
 70
     0
 71
     0
 10
0.0
 20
0.0
 30
0.0
  3
block 43
  1

  0
SPLINE
  5
21C
330
218
100
AcDbEntity
  8
Calque 1
370
     0
100
AcDbSpline
210
0.0
220
0.0
230
1.0
 70
     8
 71
     3
 72
    20
 73
    16
 74
     0
 42
0.0000000001
 43
0.0000000001
 40
0.0
 40
0.0
 40
0.0
 40
0.0
 40
1.0
 40
1.0
 40
1.0
 40
2.0
 40
2.0
 40
2.0
 40
3.0
 40
3.0
 40
3.0
 40
4.0
 40
4.0
 40
4.0
 40
5.0
 40
5.0
 40
5.0
 40
5.0
 10
182.4029920333923
 20
-138.3529676303423
 30
0.0
 10
182.4029920333923
 20
-138.3529676303423
 30
0.0
 10
182.4029920333923
 20
-118.801706242001
 30
0.0
 10
182.4029920333923
 20
-118.801706242001
 30
0.0
 10
182.4029920333923
 20
-117.0040554177976
 30
0.0
 10
183.5564100018539
 20
-115.5460910084399
 30
0.0
 10
184.9785454181651
 20
-115.5460910084399
 30
0.0
 10
184.9785454181651
 20
-115.5460910084399
 30
0.0
 10
211.3548854723349
 20
-115.5460910084399
 30
0.0
 10
211.3548854723349
 20
-115.5460910084399
 30
0.0
 10
212.7777099077431
 20
-115.5460910084399
 30
0.0
 10
213.9311278762047
 20
-117.0040554177976
 30
0.0
 10
213.9311278762047
 20
-118.801706242001
 30
0.0
 10
213.9311278762047
 20
-118.801706242001
 30
0.0
 10
213.9311278762047
 20
-138.5169541754402
 30
0.0
 10
213.9311278762047
 20
-138.5169541754402
 30
0.0
  0
POLYLINE
  5
21D
330
218
100
AcDbEntity
  8
Calque 1
370
     0
100
AcDb2dPolyline
 66
     1
 10
0.0
 20
0.0
 30
0.0
  0
VERTEX
  5
21E
330
21D
100
AcDbEntity
  8
Calque 1
370
     0
100
AcDbVertex
100
AcDb2dVertex
 10
213.9311278762047
 20
-138.5169541754402
 30
0.0
  0
VERTEX
  5
31F
330
21D
100
AcDbEntity
  8
0
100
AcDbVertex
100
AcDb2dVertex
 10
213.9311278762047
 20
-138.5169541754402
 30
0.0
  0
SEQEND
  5
21F
330
21D
100
AcDbEntity
  8
Calque 1
370
     0
  0
POLYLINE
  5
220
330
218
100
AcDbEntity
  8
Calque 1
370
     0
100
AcDb2dPolyline
 66
     1
 10
0.0
 20
0.0
 30
0.0
  0
VERTEX
  5
221
330
220
100
AcDbEntity
  8
Calque 1
370
     0
100
AcDbVertex
100
AcDb2dVertex
 10
182.4501898415402
 20
-138.3529676303423
 30
0.0
  0
VERTEX
  5
320
330
220
100
AcDbEntity
  8
0
100
AcDbVertex
100
AcDb2dVertex
 10
182.4501898415402
 20
-138.3529676303423
 30
0.0
  0
SEQEND
  5
222
330
220
100
AcDbEntity
  8
Calque 1
370
     0
  0
SPLINE
  5
223
330
218
100
AcDbEntity
  8
Calque 1
370
     0
100
AcDbSpline
210
0.0
220
0.0
230
1.0
 70
     8
 71
     3
 72
    23
 73
    19
 74
     0
 42
0.0000000001
 43
0.0000000001
 40
0.0
 40
0.0
 40
0.0
 40
0.0
 40
1.0
 40
1.0
 40
1.0
 40
2.0
 40
2.0
 40
2.0
 40
3.0
 40
3.0
 40
3.0
 40
4.0
 40
4.0
 40
4.0
 40
5.0
 40
5.0
 40
5.0
 40
6.0
 40
6.0
 40
6.0
 40
6.0
 10
182.4029920333923
 20
-138.2334228170041
 30
0.0
 10
182.4029920333923
 20
-142.4075005069328
 30
0.0
 10
185.0436577228363
 20
-146.0978867907325
 30
0.0
 10
189.087166293874
 20
-148.3344427797567
 30
0.0
 10
189.087166293874
 20
-148.3344427797567
 30
0.0
 10
189.693503099278
 20
-148.6534586216908
 30
0.0
 10
189.693503099278
 20
-148.6534586216908
 30
0.0
 10
191.6620306595498
 20
-149.8185899148023
 30
0.0
 10
198.2170138393346
 20
-154.750588611486
 30
0.0
 10
198.2170138393346
 20
-154.750588611486
 30
0.0
 10
198.2170138393346
 20
-154.750588611486
 30
0.0
 10
205.7745198053272
 20
-149.1206135694907
 30
0.0
 10
206.6409613198676
 20
-148.6534586216908
 30
0.0
 10
206.6409613198676
 20
-148.6534586216908
 30
0.0
 10
207.3778672441625
 20
-148.2610622459208
 30
0.0
 10
207.3778672441625
 20
-148.2610622459208
 30
0.0
 10
211.3473062622674
 20
-146.0172715563776
 30
0.0
 10
213.9311278762047
 20
-142.3620252465276
 30
0.0
 10
213.9311278762047
 20
-138.2334228170041
 30
0.0
  0
ENDBLK
  5
21B
330
218
100
AcDbEntity
  8
0
100
AcDbBlockEnd
  0
BLOCK
  5
226
330
224
100
AcDbEntity
  8
0
100
AcDbBlockBegin
  2
block 44
 70
     0
 71
     0
 10
0.0
 20
0.0
 30
0.0
  3
block 44
  1

  0
SPLINE
  5
228
330
224
100
AcDbEntity
  8
Calque 1
370
     0
100
AcDbSpline
210
0.0
220
0.0
230
1.0
 70
     8
 71
     3
 72
    20
 73
    16
 74
     0
 42
0.0000000001
 43
0.0000000001
 40
0.0
 40
0.0
 40
0.0
 40
0.0
 40
1.0
 40
1.0
 40
1.0
 40
2.0
 40
2.0
 40
2.0
 40
3.0
 40
3.0
 40
3.0
 40
4.0
 40
4.0
 40
4.0
 40
5.0
 40
5.0
 40
5.0
 40
5.0
 10
244.6689588147008
 20
-128.6849961700857
 30
0.0
 10
244.6689588147008
 20
-128.6849961700857
 30
0.0
 10
244.6689588147008
 20
-117.4216009906099
 30
0.0
 10
244.6689588147008
 20
-117.4216009906099
 30
0.0
 10
244.6689588147008
 20
-116.3853162686467
 30
0.0
 10
245.333862243354
 20
-115.5460910084399
 30
0.0
 10
246.1531059497464
 20
-115.5460910084399
 30
0.0
 10
246.1531059497464
 20
-115.5460910084399
 30
0.0
 10
261.3483886065379
 20
-115.5460910084399
 30
0.0
 10
261.3483886065379
 20
-115.5460910084399
 30
0.0
 10
262.1679768224789
 20
-115.5460910084399
 30
0.0
 10
262.832191232035
 20
-116.3853162686467
 30
0.0
 10
262.832191232035
 20
-117.4216009906099
 30
0.0
 10
262.832191232035
 20
-117.4216009906099
 30
0.0
 10
262.832191232035
 20
-128.7793917863816
 30
0.0
 10
262.832191232035
 20
-128.7793917863816
 30
0.0
  0
POLYLINE
  5
229
330
224
100
AcDbEntity
  8
Calque 1
370
     0
100
AcDb2dPolyline
 66
     1
 10
0.0
 20
0.0
 30
0.0
  0
VERTEX
  5
22A
330
229
100
AcDbEntity
  8
Calque 1
370
     0
100
AcDbVertex
100
AcDb2dVertex
 10
262.832191232035
 20
-128.7793917863816
 30
0.0
  0
VERTEX
  5
321
330
229
100
AcDbEntity
  8
0
100
AcDbVertex
100
AcDb2dVertex
 10
262.832191232035
 20
-128.7793917863816
 30
0.0
  0
SEQEND
  5
22B
330
229
100
AcDbEntity
  8
Calque 1
370
     0
  0
POLYLINE
  5
22C
330
224
100
AcDbEntity
  8
Calque 1
370
     0
100
AcDb2dPolyline
 66
     1
 10
0.0
 20
0.0
 30
0.0
  0
VERTEX
  5
22D
330
22C
100
AcDbEntity
  8
Calque 1
370
     0
100
AcDbVertex
100
AcDb2dVertex
 10
244.6965195785828
 20
-128.6849961700857
 30
0.0
  0
VERTEX
  5
322
330
22C
100
AcDbEntity
  8
0
100
AcDbVertex
100
AcDb2dVertex
 10
244.6965195785828
 20
-128.6849961700857
 30
0.0
  0
SEQEND
  5
22E
330
22C
100
AcDbEntity
  8
Calque 1
370
     0
  0
SPLINE
  5
22F
330
224
100
AcDbEntity
  8
Calque 1
370
     0
100
AcDbSpline
210
0.0
220
0.0
230
1.0
 70
     8
 71
     3
 72
    23
 73
    19
 74
     0
 42
0.0000000001
 43
0.0000000001
 40
0.0
 40
0.0
 40
0.0
 40
0.0
 40
1.0
 40
1.0
 40
1.0
 40
2.0
 40
2.0
 40
2.0
 40
3.0
 40
3.0
 40
3.0
 40
4.0
 40
4.0
 40
4.0
 40
5.0
 40
5.0
 40
5.0
 40
6.0
 40
6.0
 40
6.0
 40
6.0
 10
244.6689588147008
 20
-128.6160942603807
 30
0.0
 10
244.6689588147008
 20
-131.0207709090851
 30
0.0
 10
246.1903129809872
 20
-133.1467393330328
 30
0.0
 10
248.5198865481131
 20
-134.4352050445162
 30
0.0
 10
248.5198865481131
 20
-134.4352050445162
 30
0.0
 10
248.8692192303174
 20
-134.6195176529771
 30
0.0
 10
248.8692192303174
 20
-134.6195176529771
 30
0.0
 10
250.0033446640617
 20
-135.2899332344067
 30
0.0
 10
253.7798583349926
 20
-138.1314479906408
 30
0.0
 10
253.7798583349926
 20
-138.1314479906408
 30
0.0
 10
253.7798583349926
 20
-138.1314479906408
 30
0.0
 10
258.1330809901543
 20
-134.8882351008266
 30
0.0
 10
258.6326198355155
 20
-134.6195176529771
 30
0.0
 10
258.6326198355155
 20
-134.6195176529771
 30
0.0
 10
259.0570555992982
 20
-134.3931748795962
 30
0.0
 10
259.0570555992982
 20
-134.3931748795962
 30
0.0
 10
261.3439099824071
 20
-133.1002305439819
 30
0.0
 10
262.832191232035
 20
-130.9938991643001
 30
0.0
 10
262.832191232035
 20
-128.6160942603807
 30
0.0
  0
ENDBLK
  5
227
330
224
100
AcDbEntity
  8
0
100
AcDbBlockEnd
  0
BLOCK
  5
232
330
230
100
AcDbEntity
  8
0
100
AcDbBlockBegin
  2
block 45
 70
     0
 71
     0
 10
0.0
 20
0.0
 30
0.0
  3
block 45
  1

  0
SPLINE
  5
234
330
230
100
AcDbEntity
  8
Calque 1
370
     0
100
AcDbSpline
210
0.0
220
0.0
230
1.0
 70
     8
 71
     3
 72
    20
 73
    16
 74
     0
 42
0.0000000001
 43
0.0000000001
 40
0.0
 40
0.0
 40
0.0
 40
0.0
 40
1.0
 40
1.0
 40
1.0
 40
2.0
 40
2.0
 40
2.0
 40
3.0
 40
3.0
 40
3.0
 40
4.0
 40
4.0
 40
4.0
 40
5.0
 40
5.0
 40
5.0
 40
5.0
 10
216.2910182836009
 20
-133.8857123146188
 30
0.0
 10
216.2910182836009
 20
-133.8857123146188
 30
0.0
 10
216.2910182836009
 20
-118.1636745581327
 30
0.0
 10
216.2910182836009
 20
-118.1636745581327
 30
0.0
 10
216.2910182836009
 20
-116.7181124925219
 30
0.0
 10
217.2187824977786
 20
-115.5460910084399
 30
0.0
 10
218.3628987084301
 20
-115.5460910084399
 30
0.0
 10
218.3628987084301
 20
-115.5460910084399
 30
0.0
 10
239.5729735729193
 20
-115.5460910084399
 30
0.0
 10
239.5729735729193
 20
-115.5460910084399
 30
0.0
 10
240.7167452740222
 20
-115.5460910084399
 30
0.0
 10
241.6441649786515
 20
-116.7181124925219
 30
0.0
 10
241.6441649786515
 20
-118.1636745581327
 30
0.0
 10
241.6441649786515
 20
-118.1636745581327
 30
0.0
 10
241.6441649786515
 20
-134.0176594717039
 30
0.0
 10
241.6441649786515
 20
-134.0176594717039
 30
0.0
  0
POLYLINE
  5
235
330
230
100
AcDbEntity
  8
Calque 1
370
     0
100
AcDb2dPolyline
 66
     1
 10
0.0
 20
0.0
 30
0.0
  0
VERTEX
  5
236
330
235
100
AcDbEntity
  8
Calque 1
370
     0
100
AcDbVertex
100
AcDb2dVertex
 10
241.6441649786515
 20
-134.0176594717039
 30
0.0
  0
VERTEX
  5
323
330
235
100
AcDbEntity
  8
0
100
AcDbVertex
100
AcDb2dVertex
 10
241.6441649786515
 20
-134.0176594717039
 30
0.0
  0
SEQEND
  5
237
330
235
100
AcDbEntity
  8
Calque 1
370
     0
  0
POLYLINE
  5
238
330
230
100
AcDbEntity
  8
Calque 1
370
     0
100
AcDb2dPolyline
 66
     1
 10
0.0
 20
0.0
 30
0.0
  0
VERTEX
  5
239
330
238
100
AcDbEntity
  8
Calque 1
370
     0
100
AcDbVertex
100
AcDb2dVertex
 10
216.3296033530357
 20
-133.8857123146188
 30
0.0
  0
VERTEX
  5
324
330
238
100
AcDbEntity
  8
0
100
AcDbVertex
100
AcDb2dVertex
 10
216.3296033530357
 20
-133.8857123146188
 30
0.0
  0
SEQEND
  5
23A
330
238
100
AcDbEntity
  8
Calque 1
370
     0
  0
SPLINE
  5
23B
330
230
100
AcDbEntity
  8
Calque 1
370
     0
100
AcDbSpline
210
0.0
220
0.0
230
1.0
 70
     8
 71
     3
 72
    23
 73
    19
 74
     0
 42
0.0000000001
 43
0.0000000001
 40
0.0
 40
0.0
 40
0.0
 40
0.0
 40
1.0
 40
1.0
 40
1.0
 40
2.0
 40
2.0
 40
2.0
 40
3.0
 40
3.0
 40
3.0
 40
4.0
 40
4.0
 40
4.0
 40
5.0
 40
5.0
 40
5.0
 40
6.0
 40
6.0
 40
6.0
 40
6.0
 10
216.2910182836009
 20
-133.7892496410319
 30
0.0
 10
216.2910182836009
 20
-137.1461506818593
 30
0.0
 10
218.4145751407089
 20
-140.1137559328535
 30
0.0
 10
221.6664007692362
 20
-141.912784795251
 30
0.0
 10
221.6664007692362
 20
-141.912784795251
 30
0.0
 10
222.153881780399
 20
-142.168755389805
 30
0.0
 10
222.153881780399
 20
-142.168755389805
 30
0.0
 10
223.7365586463228
 20
-143.1054768522445
 30
0.0
 10
229.0078992483036
 20
-147.0721597939611
 30
0.0
 10
229.0078992483036
 20
-147.0721597939611
 30
0.0
 10
229.0078992483036
 20
-147.0721597939611
 30
0.0
 10
235.0850476842843
 20
-142.5446153072458
 30
0.0
 10
235.7819905009503
 20
-142.168755389805
 30
0.0
 10
235.7819905009503
 20
-142.168755389805
 30
0.0
 10
236.3745469244133
 20
-141.8531846433561
 30
0.0
 10
236.3745469244133
 20
-141.8531846433561
 30
0.0
 10
239.5664278914973
 20
-140.0489881377308
 30
0.0
 10
241.6441649786515
 20
-137.1096326697157
 30
0.0
 10
241.6441649786515
 20
-133.7892496410319
 30
0.0
  0
ENDBLK
  5
233
330
230
100
AcDbEntity
  8
0
100
AcDbBlockEnd
  0
BLOCK
  5
23E
330
23C
100
AcDbEntity
  8
0
100
AcDbBlockBegin
  2
block 46
 70
     0
 71
     0
 10
0.0
 20
0.0
 30
0.0
  3
block 46
  1

  0
SPLINE
  5
240
330
23C
100
AcDbEntity
  8
Calque 1
370
     0
100
AcDbSpline
210
0.0
220
0.0
230
1.0
 70
     8
 71
     3
 72
    20
 73
    16
 74
     0
 42
0.0000000001
 43
0.0000000001
 40
0.0
 40
0.0
 40
0.0
 40
0.0
 40
1.0
 40
1.0
 40
1.0
 40
2.0
 40
2.0
 40
2.0
 40
3.0
 40
3.0
 40
3.0
 40
4.0
 40
4.0
 40
4.0
 40
5.0
 40
5.0
 40
5.0
 40
5.0
 10
346.4367349394325
 20
-91.42611624233444
 30
0.0
 10
346.4367349394325
 20
-91.42611624233444
 30
0.0
 10
346.4367349394325
 20
-110.9772053759015
 30
0.0
 10
346.4367349394325
 20
-110.9772053759015
 30
0.0
 10
346.4367349394325
 20
-112.7748562001049
 30
0.0
 10
345.2833169709709
 20
-114.2328206094626
 30
0.0
 10
343.8611815546597
 20
-114.2328206094626
 30
0.0
 10
343.8611815546597
 20
-114.2328206094626
 30
0.0
 10
317.4844969909414
 20
-114.2328206094626
 30
0.0
 10
317.4844969909414
 20
-114.2328206094626
 30
0.0
 10
316.0620170650817
 20
-114.2328206094626
 30
0.0
 10
314.9089436061686
 20
-112.7748562001049
 30
0.0
 10
314.9089436061686
 20
-110.9772053759015
 30
0.0
 10
314.9089436061686
 20
-110.9772053759015
 30
0.0
 10
314.9089436061686
 20
-91.26212969723656
 30
0.0
 10
314.9089436061686
 20
-91.26212969723656
 30
0.0
  0
POLYLINE
  5
241
330
23C
100
AcDbEntity
  8
Calque 1
370
     0
100
AcDb2dPolyline
 66
     1
 10
0.0
 20
0.0
 30
0.0
  0
VERTEX
  5
242
330
241
100
AcDbEntity
  8
Calque 1
370
     0
100
AcDbVertex
100
AcDb2dVertex
 10
314.9089436061686
 20
-91.26212969723656
 30
0.0
  0
VERTEX
  5
325
330
241
100
AcDbEntity
  8
0
100
AcDbVertex
100
AcDb2dVertex
 10
314.9089436061686
 20
-91.26212969723656
 30
0.0
  0
SEQEND
  5
243
330
241
100
AcDbEntity
  8
Calque 1
370
     0
  0
POLYLINE
  5
244
330
23C
100
AcDbEntity
  8
Calque 1
370
     0
100
AcDb2dPolyline
 66
     1
 10
0.0
 20
0.0
 30
0.0
  0
VERTEX
  5
245
330
244
100
AcDbEntity
  8
Calque 1
370
     0
100
AcDbVertex
100
AcDb2dVertex
 10
346.3895371312846
 20
-91.42611624233444
 30
0.0
  0
VERTEX
  5
326
330
244
100
AcDbEntity
  8
0
100
AcDbVertex
100
AcDb2dVertex
 10
346.3895371312846
 20
-91.42611624233444
 30
0.0
  0
SEQEND
  5
246
330
244
100
AcDbEntity
  8
Calque 1
370
     0
  0
SPLINE
  5
247
330
23C
100
AcDbEntity
  8
Calque 1
370
     0
100
AcDbSpline
210
0.0
220
0.0
230
1.0
 70
     8
 71
     3
 72
    23
 73
    19
 74
     0
 42
0.0000000001
 43
0.0000000001
 40
0.0
 40
0.0
 40
0.0
 40
0.0
 40
1.0
 40
1.0
 40
1.0
 40
2.0
 40
2.0
 40
2.0
 40
3.0
 40
3.0
 40
3.0
 40
4.0
 40
4.0
 40
4.0
 40
5.0
 40
5.0
 40
5.0
 40
6.0
 40
6.0
 40
6.0
 40
6.0
 10
346.4367349394325
 20
-91.54566105567261
 30
0.0
 10
346.4367349394325
 20
-87.37175562051817
 30
0.0
 10
343.7960692499885
 20
-83.68102482717002
 30
0.0
 10
339.7525606789508
 20
-81.4446410929201
 30
0.0
 10
339.7525606789508
 20
-81.4446410929201
 30
0.0
 10
339.1462238735468
 20
-81.12545299621169
 30
0.0
 10
339.1462238735468
 20
-81.12545299621169
 30
0.0
 10
337.177696313275
 20
-79.96049395787446
 30
0.0
 10
330.6227131334902
 20
-75.02832300641653
 30
0.0
 10
330.6227131334902
 20
-75.02832300641653
 30
0.0
 10
330.6227131334902
 20
-75.02832300641653
 30
0.0
 10
323.0652071674976
 20
-80.65847030318608
 30
0.0
 10
322.1987656529573
 20
-81.12545299621169
 30
0.0
 10
322.1987656529573
 20
-81.12545299621169
 30
0.0
 10
321.4618597286623
 20
-81.51802162675591
 30
0.0
 10
321.4618597286623
 20
-81.51802162675591
 30
0.0
 10
317.4924207105574
 20
-83.76164006152487
 30
0.0
 10
314.9089436061686
 20
-87.41705862614921
 30
0.0
 10
314.9089436061686
 20
-91.54566105567261
 30
0.0
  0
ENDBLK
  5
23F
330
23C
100
AcDbEntity
  8
0
100
AcDbBlockEnd
  0
BLOCK
  5
24A
330
248
100
AcDbEntity
  8
0
100
AcDbBlockBegin
  2
block 47
 70
     0
 71
     0
 10
0.0
 20
0.0
 30
0.0
  3
block 47
  1

  0
SPLINE
  5
24C
330
248
100
AcDbEntity
  8
Calque 1
370
     0
100
AcDbSpline
210
0.0
220
0.0
230
1.0
 70
     8
 71
     3
 72
    20
 73
    16
 74
     0
 42
0.0000000001
 43
0.0000000001
 40
0.0
 40
0.0
 40
0.0
 40
0.0
 40
1.0
 40
1.0
 40
1.0
 40
2.0
 40
2.0
 40
2.0
 40
3.0
 40
3.0
 40
3.0
 40
4.0
 40
4.0
 40
4.0
 40
5.0
 40
5.0
 40
5.0
 40
5.0
 10
284.1704236485755
 20
-101.0942599573653
 30
0.0
 10
284.1704236485755
 20
-101.0942599573653
 30
0.0
 10
284.1704236485755
 20
-112.3573106272926
 30
0.0
 10
284.1704236485755
 20
-112.3573106272926
 30
0.0
 10
284.1704236485755
 20
-113.3935953492558
 30
0.0
 10
283.5062092390193
 20
-114.2328206094626
 30
0.0
 10
282.6866210230784
 20
-114.2328206094626
 30
0.0
 10
282.6866210230784
 20
-114.2328206094626
 30
0.0
 10
267.4913383662869
 20
-114.2328206094626
 30
0.0
 10
267.4913383662869
 20
-114.2328206094626
 30
0.0
 10
266.671750150346
 20
-114.2328206094626
 30
0.0
 10
266.0071912312413
 20
-113.3935953492558
 30
0.0
 10
266.0071912312413
 20
-112.3573106272926
 30
0.0
 10
266.0071912312413
 20
-112.3573106272926
 30
0.0
 10
266.0071912312413
 20
-100.999519831521
 30
0.0
 10
266.0071912312413
 20
-100.999519831521
 30
0.0
  0
POLYLINE
  5
24D
330
248
100
AcDbEntity
  8
Calque 1
370
     0
100
AcDb2dPolyline
 66
     1
 10
0.0
 20
0.0
 30
0.0
  0
VERTEX
  5
24E
330
24D
100
AcDbEntity
  8
Calque 1
370
     0
100
AcDbVertex
100
AcDb2dVertex
 10
266.0071912312413
 20
-100.999519831521
 30
0.0
  0
VERTEX
  5
327
330
24D
100
AcDbEntity
  8
0
100
AcDbVertex
100
AcDb2dVertex
 10
266.0071912312413
 20
-100.999519831521
 30
0.0
  0
SEQEND
  5
24F
330
24D
100
AcDbEntity
  8
Calque 1
370
     0
  0
POLYLINE
  5
250
330
248
100
AcDbEntity
  8
Calque 1
370
     0
100
AcDb2dPolyline
 66
     1
 10
0.0
 20
0.0
 30
0.0
  0
VERTEX
  5
251
330
250
100
AcDbEntity
  8
Calque 1
370
     0
100
AcDbVertex
100
AcDb2dVertex
 10
284.143207394242
 20
-101.0942599573653
 30
0.0
  0
VERTEX
  5
328
330
250
100
AcDbEntity
  8
0
100
AcDbVertex
100
AcDb2dVertex
 10
284.143207394242
 20
-101.0942599573653
 30
0.0
  0
SEQEND
  5
252
330
250
100
AcDbEntity
  8
Calque 1
370
     0
  0
SPLINE
  5
253
330
248
100
AcDbEntity
  8
Calque 1
370
     0
100
AcDbSpline
210
0.0
220
0.0
230
1.0
 70
     8
 71
     3
 72
    23
 73
    19
 74
     0
 42
0.0000000001
 43
0.0000000001
 40
0.0
 40
0.0
 40
0.0
 40
0.0
 40
1.0
 40
1.0
 40
1.0
 40
2.0
 40
2.0
 40
2.0
 40
3.0
 40
3.0
 40
3.0
 40
4.0
 40
4.0
 40
4.0
 40
5.0
 40
5.0
 40
5.0
 40
6.0
 40
6.0
 40
6.0
 40
6.0
 10
284.1704236485755
 20
-101.1631618670703
 30
0.0
 10
284.1704236485755
 20
-98.75814070881741
 30
0.0
 10
282.6490694822891
 20
-96.632344539644
 30
0.0
 10
280.3194959151632
 20
-95.34387882816056
 30
0.0
 10
280.3194959151632
 20
-95.34387882816056
 30
0.0
 10
279.9705077425074
 20
-95.15973847447395
 30
0.0
 10
279.9705077425074
 20
-95.15973847447395
 30
0.0
 10
278.8363823087631
 20
-94.48897838349582
 30
0.0
 10
275.0602131473808
 20
-91.64746362726174
 30
0.0
 10
275.0602131473808
 20
-91.64746362726174
 30
0.0
 10
275.0602131473808
 20
-91.64746362726174
 30
0.0
 10
270.706301473122
 20
-94.89102102662447
 30
0.0
 10
270.2067626277608
 20
-95.15973847447395
 30
0.0
 10
270.2067626277608
 20
-95.15973847447395
 30
0.0
 10
269.782326863978
 20
-95.3859089930806
 30
0.0
 10
269.782326863978
 20
-95.3859089930806
 30
0.0
 10
267.4954724808692
 20
-96.67885332869487
 30
0.0
 10
266.0071912312413
 20
-98.78501245360236
 30
0.0
 10
266.0071912312413
 20
-101.1631618670703
 30
0.0
  0
ENDBLK
  5
24B
330
248
100
AcDbEntity
  8
0
100
AcDbBlockEnd
  0
BLOCK
  5
256
330
254
100
AcDbEntity
  8
0
100
AcDbBlockBegin
  2
block 48
 70
     0
 71
     0
 10
0.0
 20
0.0
 30
0.0
  3
block 48
  1

  0
SPLINE
  5
258
330
254
100
AcDbEntity
  8
Calque 1
370
     0
100
AcDbSpline
210
0.0
220
0.0
230
1.0
 70
     8
 71
     3
 72
    20
 73
    16
 74
     0
 42
0.0000000001
 43
0.0000000001
 40
0.0
 40
0.0
 40
0.0
 40
0.0
 40
1.0
 40
1.0
 40
1.0
 40
2.0
 40
2.0
 40
2.0
 40
3.0
 40
3.0
 40
3.0
 40
4.0
 40
4.0
 40
4.0
 40
5.0
 40
5.0
 40
5.0
 40
5.0
 10
312.5483641796754
 20
-95.89319930328365
 30
0.0
 10
312.5483641796754
 20
-95.89319930328365
 30
0.0
 10
312.5483641796754
 20
-111.6152370597698
 30
0.0
 10
312.5483641796754
 20
-111.6152370597698
 30
0.0
 10
312.5483641796754
 20
-113.0607991253806
 30
0.0
 10
311.6209444750461
 20
-114.2328206094626
 30
0.0
 10
310.4771727739432
 20
-114.2328206094626
 30
0.0
 10
310.4771727739432
 20
-114.2328206094626
 30
0.0
 10
289.2670979094541
 20
-114.2328206094626
 30
0.0
 10
289.2670979094541
 20
-114.2328206094626
 30
0.0
 10
288.1229816988026
 20
-114.2328206094626
 30
0.0
 10
287.1959065037219
 20
-113.0607991253806
 30
0.0
 10
287.1959065037219
 20
-111.6152370597698
 30
0.0
 10
287.1959065037219
 20
-111.6152370597698
 30
0.0
 10
287.1959065037219
 20
-95.76142440097284
 30
0.0
 10
287.1959065037219
 20
-95.76142440097284
 30
0.0
  0
POLYLINE
  5
259
330
254
100
AcDbEntity
  8
Calque 1
370
     0
100
AcDb2dPolyline
 66
     1
 10
0.0
 20
0.0
 30
0.0
  0
VERTEX
  5
25A
330
259
100
AcDbEntity
  8
Calque 1
370
     0
100
AcDbVertex
100
AcDb2dVertex
 10
287.1959065037219
 20
-95.76142440097284
 30
0.0
  0
VERTEX
  5
329
330
259
100
AcDbEntity
  8
0
100
AcDbVertex
100
AcDb2dVertex
 10
287.1959065037219
 20
-95.76142440097284
 30
0.0
  0
SEQEND
  5
25B
330
259
100
AcDbEntity
  8
Calque 1
370
     0
  0
POLYLINE
  5
25C
330
254
100
AcDbEntity
  8
Calque 1
370
     0
100
AcDb2dPolyline
 66
     1
 10
0.0
 20
0.0
 30
0.0
  0
VERTEX
  5
25D
330
25C
100
AcDbEntity
  8
Calque 1
370
     0
100
AcDbVertex
100
AcDb2dVertex
 10
312.5104681293377
 20
-95.89319930328365
 30
0.0
  0
VERTEX
  5
32A
330
25C
100
AcDbEntity
  8
0
100
AcDbVertex
100
AcDb2dVertex
 10
312.5104681293377
 20
-95.89319930328365
 30
0.0
  0
SEQEND
  5
25E
330
25C
100
AcDbEntity
  8
Calque 1
370
     0
  0
SPLINE
  5
25F
330
254
100
AcDbEntity
  8
Calque 1
370
     0
100
AcDbSpline
210
0.0
220
0.0
230
1.0
 70
     8
 71
     3
 72
    23
 73
    19
 74
     0
 42
0.0000000001
 43
0.0000000001
 40
0.0
 40
0.0
 40
0.0
 40
0.0
 40
1.0
 40
1.0
 40
1.0
 40
2.0
 40
2.0
 40
2.0
 40
3.0
 40
3.0
 40
3.0
 40
4.0
 40
4.0
 40
4.0
 40
5.0
 40
5.0
 40
5.0
 40
6.0
 40
6.0
 40
6.0
 40
6.0
 10
312.5483641796754
 20
-95.98966197687065
 30
0.0
 10
312.5483641796754
 20
-92.63310544559172
 30
0.0
 10
310.4251518321159
 20
-89.66515568504899
 30
0.0
 10
307.1733262035886
 20
-87.86647133220005
 30
0.0
 10
307.1733262035886
 20
-87.86647133220005
 30
0.0
 10
306.6861897019743
 20
-87.61032848287172
 30
0.0
 10
306.6861897019743
 20
-87.61032848287172
 30
0.0
 10
305.1028238169535
 20
-86.6736070204323
 30
0.0
 10
299.8318277245212
 20
-82.70692407871563
 30
0.0
 10
299.8318277245212
 20
-82.70692407871563
 30
0.0
 10
299.8318277245212
 20
-82.70692407871563
 30
0.0
 10
293.7546792885405
 20
-87.2342963106567
 30
0.0
 10
293.0577364718745
 20
-87.61032848287172
 30
0.0
 10
293.0577364718745
 20
-87.61032848287172
 30
0.0
 10
292.4651800484115
 20
-87.9258992293206
 30
0.0
 10
292.4651800484115
 20
-87.9258992293206
 30
0.0
 10
289.2732990813275
 20
-89.72992348017169
 30
0.0
 10
287.1959065037219
 20
-92.66962345773537
 30
0.0
 10
287.1959065037219
 20
-95.98966197687065
 30
0.0
  0
ENDBLK
  5
257
330
254
100
AcDbEntity
  8
0
100
AcDbBlockEnd
  0
BLOCK
  5
262
330
260
100
AcDbEntity
  8
0
100
AcDbBlockBegin
  2
block 49
 70
     0
 71
     0
 10
0.0
 20
0.0
 30
0.0
  3
block 49
  1

  0
SPLINE
  5
264
330
260
100
AcDbEntity
  8
Calque 1
370
     0
100
AcDbSpline
210
0.0
220
0.0
230
1.0
 70
     8
 71
     3
 72
    20
 73
    16
 74
     0
 42
0.0000000001
 43
0.0000000001
 40
0.0
 40
0.0
 40
0.0
 40
0.0
 40
1.0
 40
1.0
 40
1.0
 40
2.0
 40
2.0
 40
2.0
 40
3.0
 40
3.0
 40
3.0
 40
4.0
 40
4.0
 40
4.0
 40
5.0
 40
5.0
 40
5.0
 40
5.0
 10
266.0071912312413
 20
-139.665893519771
 30
0.0
 10
266.0071912312413
 20
-139.665893519771
 30
0.0
 10
266.0071912312413
 20
-120.1149766409782
 30
0.0
 10
266.0071912312413
 20
-120.1149766409782
 30
0.0
 10
266.0071912312413
 20
-118.3173258167748
 30
0.0
 10
267.1606091997029
 20
-116.8593614074171
 30
0.0
 10
268.5834336351111
 20
-116.8593614074171
 30
0.0
 10
268.5834336351111
 20
-116.8593614074171
 30
0.0
 10
294.9597736892809
 20
-116.8593614074171
 30
0.0
 10
294.9597736892809
 20
-116.8593614074171
 30
0.0
 10
296.3822536151405
 20
-116.8593614074171
 30
0.0
 10
297.5353270740537
 20
-118.3173258167748
 30
0.0
 10
297.5353270740537
 20
-120.1149766409782
 30
0.0
 10
297.5353270740537
 20
-120.1149766409782
 30
0.0
 10
297.5353270740537
 20
-139.8298800648689
 30
0.0
 10
297.5353270740537
 20
-139.8298800648689
 30
0.0
  0
POLYLINE
  5
265
330
260
100
AcDbEntity
  8
Calque 1
370
     0
100
AcDb2dPolyline
 66
     1
 10
0.0
 20
0.0
 30
0.0
  0
VERTEX
  5
266
330
265
100
AcDbEntity
  8
Calque 1
370
     0
100
AcDbVertex
100
AcDb2dVertex
 10
297.5353270740537
 20
-139.8298800648689
 30
0.0
  0
VERTEX
  5
32B
330
265
100
AcDbEntity
  8
0
100
AcDbVertex
100
AcDb2dVertex
 10
297.5353270740537
 20
-139.8298800648689
 30
0.0
  0
SEQEND
  5
267
330
265
100
AcDbEntity
  8
Calque 1
370
     0
  0
POLYLINE
  5
268
330
260
100
AcDbEntity
  8
Calque 1
370
     0
100
AcDb2dPolyline
 66
     1
 10
0.0
 20
0.0
 30
0.0
  0
VERTEX
  5
269
330
268
100
AcDbEntity
  8
Calque 1
370
     0
100
AcDbVertex
100
AcDb2dVertex
 10
266.0547335489377
 20
-139.665893519771
 30
0.0
  0
VERTEX
  5
32C
330
268
100
AcDbEntity
  8
0
100
AcDbVertex
100
AcDb2dVertex
 10
266.0547335489377
 20
-139.665893519771
 30
0.0
  0
SEQEND
  5
26A
330
268
100
AcDbEntity
  8
Calque 1
370
     0
  0
SPLINE
  5
26B
330
260
100
AcDbEntity
  8
Calque 1
370
     0
100
AcDbSpline
210
0.0
220
0.0
230
1.0
 70
     8
 71
     3
 72
    23
 73
    19
 74
     0
 42
0.0000000001
 43
0.0000000001
 40
0.0
 40
0.0
 40
0.0
 40
0.0
 40
1.0
 40
1.0
 40
1.0
 40
2.0
 40
2.0
 40
2.0
 40
3.0
 40
3.0
 40
3.0
 40
4.0
 40
4.0
 40
4.0
 40
5.0
 40
5.0
 40
5.0
 40
6.0
 40
6.0
 40
6.0
 40
6.0
 10
266.0071912312413
 20
-139.5466932159814
 30
0.0
 10
266.0071912312413
 20
-143.7204263963616
 30
0.0
 10
268.6482014302338
 20
-147.4111571897097
 30
0.0
 10
272.6917100012715
 20
-149.6477131787339
 30
0.0
 10
272.6917100012715
 20
-149.6477131787339
 30
0.0
 10
273.297702297127
 20
-149.9667290206681
 30
0.0
 10
273.297702297127
 20
-149.9667290206681
 30
0.0
 10
275.2665743669473
 20
-151.1318603137796
 30
0.0
 10
281.8215575467322
 20
-156.0638590104632
 30
0.0
 10
281.8215575467322
 20
-156.0638590104632
 30
0.0
 10
281.8215575467322
 20
-156.0638590104632
 30
0.0
 10
289.3787190031762
 20
-150.4338839684679
 30
0.0
 10
290.245505027265
 20
-149.9667290206681
 30
0.0
 10
290.245505027265
 20
-149.9667290206681
 30
0.0
 10
290.98241095156
 20
-149.5739881353496
 30
0.0
 10
290.98241095156
 20
-149.5739881353496
 30
0.0
 10
294.9518499696648
 20
-147.3305419553549
 30
0.0
 10
297.5353270740537
 20
-143.6752956455048
 30
0.0
 10
297.5353270740537
 20
-139.5466932159814
 30
0.0
  0
ENDBLK
  5
263
330
260
100
AcDbEntity
  8
0
100
AcDbBlockEnd
  0
BLOCK
  5
26E
330
26C
100
AcDbEntity
  8
0
100
AcDbBlockBegin
  2
block 50
 70
     0
 71
     0
 10
0.0
 20
0.0
 30
0.0
  3
block 50
  1

  0
SPLINE
  5
270
330
26C
100
AcDbEntity
  8
Calque 1
370
     0
100
AcDbSpline
210
0.0
220
0.0
230
1.0
 70
     8
 71
     3
 72
    20
 73
    16
 74
     0
 42
0.0000000001
 43
0.0000000001
 40
0.0
 40
0.0
 40
0.0
 40
0.0
 40
1.0
 40
1.0
 40
1.0
 40
2.0
 40
2.0
 40
2.0
 40
3.0
 40
3.0
 40
3.0
 40
4.0
 40
4.0
 40
4.0
 40
5.0
 40
5.0
 40
5.0
 40
5.0
 10
328.2735025220983
 20
-129.9979220595144
 30
0.0
 10
328.2735025220983
 20
-129.9979220595144
 30
0.0
 10
328.2735025220983
 20
-118.7348713895871
 30
0.0
 10
328.2735025220983
 20
-118.7348713895871
 30
0.0
 10
328.2735025220983
 20
-117.698586667624
 30
0.0
 10
328.9384059507515
 20
-116.8593614074171
 30
0.0
 10
329.7576496571439
 20
-116.8593614074171
 30
0.0
 10
329.7576496571439
 20
-116.8593614074171
 30
0.0
 10
344.9529323139354
 20
-116.8593614074171
 30
0.0
 10
344.9529323139354
 20
-116.8593614074171
 30
0.0
 10
345.7725205298763
 20
-116.8593614074171
 30
0.0
 10
346.4367349394325
 20
-117.698586667624
 30
0.0
 10
346.4367349394325
 20
-118.7348713895871
 30
0.0
 10
346.4367349394325
 20
-118.7348713895871
 30
0.0
 10
346.4367349394325
 20
-130.0926621853588
 30
0.0
 10
346.4367349394325
 20
-130.0926621853588
 30
0.0
  0
POLYLINE
  5
271
330
26C
100
AcDbEntity
  8
Calque 1
370
     0
100
AcDb2dPolyline
 66
     1
 10
0.0
 20
0.0
 30
0.0
  0
VERTEX
  5
272
330
271
100
AcDbEntity
  8
Calque 1
370
     0
100
AcDbVertex
100
AcDb2dVertex
 10
346.4367349394325
 20
-130.0926621853588
 30
0.0
  0
VERTEX
  5
32D
330
271
100
AcDbEntity
  8
0
100
AcDbVertex
100
AcDb2dVertex
 10
346.4367349394325
 20
-130.0926621853588
 30
0.0
  0
SEQEND
  5
273
330
271
100
AcDbEntity
  8
Calque 1
370
     0
  0
POLYLINE
  5
274
330
26C
100
AcDbEntity
  8
Calque 1
370
     0
100
AcDb2dPolyline
 66
     1
 10
0.0
 20
0.0
 30
0.0
  0
VERTEX
  5
275
330
274
100
AcDbEntity
  8
Calque 1
370
     0
100
AcDbVertex
100
AcDb2dVertex
 10
328.3010632859803
 20
-129.9979220595144
 30
0.0
  0
VERTEX
  5
32E
330
274
100
AcDbEntity
  8
0
100
AcDbVertex
100
AcDb2dVertex
 10
328.3010632859803
 20
-129.9979220595144
 30
0.0
  0
SEQEND
  5
276
330
274
100
AcDbEntity
  8
Calque 1
370
     0
  0
SPLINE
  5
277
330
26C
100
AcDbEntity
  8
Calque 1
370
     0
100
AcDbSpline
210
0.0
220
0.0
230
1.0
 70
     8
 71
     3
 72
    23
 73
    19
 74
     0
 42
0.0000000001
 43
0.0000000001
 40
0.0
 40
0.0
 40
0.0
 40
0.0
 40
1.0
 40
1.0
 40
1.0
 40
2.0
 40
2.0
 40
2.0
 40
3.0
 40
3.0
 40
3.0
 40
4.0
 40
4.0
 40
4.0
 40
5.0
 40
5.0
 40
5.0
 40
6.0
 40
6.0
 40
6.0
 40
6.0
 10
328.2735025220983
 20
-129.9290201498094
 30
0.0
 10
328.2735025220983
 20
-132.3340413080623
 30
0.0
 10
329.7948566883846
 20
-134.4596652224615
 30
0.0
 10
332.1244302555106
 20
-135.7481309339449
 30
0.0
 10
332.1244302555106
 20
-135.7481309339449
 30
0.0
 10
332.4737629377149
 20
-135.9324435424058
 30
0.0
 10
332.4737629377149
 20
-135.9324435424058
 30
0.0
 10
333.6078883714592
 20
-136.6032036333839
 30
0.0
 10
337.38440204239
 20
-139.444718389618
 30
0.0
 10
337.38440204239
 20
-139.444718389618
 30
0.0
 10
337.38440204239
 20
-139.444718389618
 30
0.0
 10
341.7376246975517
 20
-136.2011609902553
 30
0.0
 10
342.2371635429129
 20
-135.9324435424058
 30
0.0
 10
342.2371635429129
 20
-135.9324435424058
 30
0.0
 10
342.6615993066957
 20
-135.7061007690249
 30
0.0
 10
342.6615993066957
 20
-135.7061007690249
 30
0.0
 10
344.9484536898046
 20
-134.4135009429591
 30
0.0
 10
346.4367349394325
 20
-132.3071695632774
 30
0.0
 10
346.4367349394325
 20
-129.9290201498094
 30
0.0
  0
ENDBLK
  5
26F
330
26C
100
AcDbEntity
  8
0
100
AcDbBlockEnd
  0
BLOCK
  5
27A
330
278
100
AcDbEntity
  8
0
100
AcDbBlockBegin
  2
block 51
 70
     0
 71
     0
 10
0.0
 20
0.0
 30
0.0
  3
block 51
  1

  0
SPLINE
  5
27C
330
278
100
AcDbEntity
  8
Calque 1
370
     0
100
AcDbSpline
210
0.0
220
0.0
230
1.0
 70
     8
 71
     3
 72
    20
 73
    16
 74
     0
 42
0.0000000001
 43
0.0000000001
 40
0.0
 40
0.0
 40
0.0
 40
0.0
 40
1.0
 40
1.0
 40
1.0
 40
2.0
 40
2.0
 40
2.0
 40
3.0
 40
3.0
 40
3.0
 40
4.0
 40
4.0
 40
4.0
 40
5.0
 40
5.0
 40
5.0
 40
5.0
 10
299.8959065005469
 20
-135.1989827135961
 30
0.0
 10
299.8959065005469
 20
-135.1989827135961
 30
0.0
 10
299.8959065005469
 20
-119.4769449571099
 30
0.0
 10
299.8959065005469
 20
-119.4769449571099
 30
0.0
 10
299.8959065005469
 20
-118.0313828914991
 30
0.0
 10
300.8233262051761
 20
-116.8593614074171
 30
0.0
 10
301.9670979062791
 20
-116.8593614074171
 30
0.0
 10
301.9670979062791
 20
-116.8593614074171
 30
0.0
 10
323.1775172803167
 20
-116.8593614074171
 30
0.0
 10
323.1775172803167
 20
-116.8593614074171
 30
0.0
 10
324.3212889814197
 20
-116.8593614074171
 30
0.0
 10
325.2487086860489
 20
-118.0313828914991
 30
0.0
 10
325.2487086860489
 20
-119.4769449571099
 30
0.0
 10
325.2487086860489
 20
-119.4769449571099
 30
0.0
 10
325.2487086860489
 20
-135.3305853611326
 30
0.0
 10
325.2487086860489
 20
-135.3305853611326
 30
0.0
  0
POLYLINE
  5
27D
330
278
100
AcDbEntity
  8
Calque 1
370
     0
100
AcDb2dPolyline
 66
     1
 10
0.0
 20
0.0
 30
0.0
  0
VERTEX
  5
27E
330
27D
100
AcDbEntity
  8
Calque 1
370
     0
100
AcDbVertex
100
AcDb2dVertex
 10
325.2487086860489
 20
-135.3305853611326
 30
0.0
  0
VERTEX
  5
32F
330
27D
100
AcDbEntity
  8
0
100
AcDbVertex
100
AcDb2dVertex
 10
325.2487086860489
 20
-135.3305853611326
 30
0.0
  0
SEQEND
  5
27F
330
27D
100
AcDbEntity
  8
Calque 1
370
     0
  0
POLYLINE
  5
280
330
278
100
AcDbEntity
  8
Calque 1
370
     0
100
AcDb2dPolyline
 66
     1
 10
0.0
 20
0.0
 30
0.0
  0
VERTEX
  5
281
330
280
100
AcDbEntity
  8
Calque 1
370
     0
100
AcDbVertex
100
AcDb2dVertex
 10
299.9338025508846
 20
-135.1989827135961
 30
0.0
  0
VERTEX
  5
330
330
280
100
AcDbEntity
  8
0
100
AcDbVertex
100
AcDb2dVertex
 10
299.9338025508846
 20
-135.1989827135961
 30
0.0
  0
SEQEND
  5
282
330
280
100
AcDbEntity
  8
Calque 1
370
     0
  0
SPLINE
  5
283
330
278
100
AcDbEntity
  8
Calque 1
370
     0
100
AcDbSpline
210
0.0
220
0.0
230
1.0
 70
     8
 71
     3
 72
    23
 73
    19
 74
     0
 42
0.0000000001
 43
0.0000000001
 40
0.0
 40
0.0
 40
0.0
 40
0.0
 40
1.0
 40
1.0
 40
1.0
 40
2.0
 40
2.0
 40
2.0
 40
3.0
 40
3.0
 40
3.0
 40
4.0
 40
4.0
 40
4.0
 40
5.0
 40
5.0
 40
5.0
 40
6.0
 40
6.0
 40
6.0
 40
6.0
 10
299.8959065005469
 20
-135.1025200400091
 30
0.0
 10
299.8959065005469
 20
-138.459076571288
 30
0.0
 10
302.0191188481064
 20
-141.4270263318307
 30
0.0
 10
305.2709444766336
 20
-143.2257106846797
 30
0.0
 10
305.2709444766336
 20
-143.2257106846797
 30
0.0
 10
305.758080978248
 20
-143.4816812792338
 30
0.0
 10
305.758080978248
 20
-143.4816812792338
 30
0.0
 10
307.3414468632688
 20
-144.4187472512217
 30
0.0
 10
312.6124429557011
 20
-148.3854301929384
 30
0.0
 10
312.6124429557011
 20
-148.3854301929384
 30
0.0
 10
312.6124429557011
 20
-148.3854301929384
 30
0.0
 10
318.6895913916818
 20
-143.857885706223
 30
0.0
 10
319.3865342083478
 20
-143.4816812792338
 30
0.0
 10
319.3865342083478
 20
-143.4816812792338
 30
0.0
 10
319.9790906318108
 20
-143.1661105327849
 30
0.0
 10
319.9790906318108
 20
-143.1661105327849
 30
0.0
 10
323.1709715988948
 20
-141.3622585367081
 30
0.0
 10
325.2487086860489
 20
-138.4225585591444
 30
0.0
 10
325.2487086860489
 20
-135.1025200400091
 30
0.0
  0
ENDBLK
  5
27B
330
278
100
AcDbEntity
  8
0
100
AcDbBlockEnd
  0
BLOCK
  5
286
330
284
100
AcDbEntity
  8
0
100
AcDbBlockBegin
  2
block 52
 70
     0
 71
     0
 10
0.0
 20
0.0
 30
0.0
  3
block 52
  1

  0
INSERT
  5
289
330
284
100
AcDbEntity
  8
Calque 1
100
AcDbBlockReference
  2
block 53
 10
0.0
 20
0.0
 30
0.0
  0
INSERT
  5
28E
330
284
100
AcDbEntity
  8
Calque 1
100
AcDbBlockReference
  2
block 54
 10
0.0
 20
0.0
 30
0.0
  0
INSERT
  5
293
330
284
100
AcDbEntity
  8
Calque 1
100
AcDbBlockReference
  2
block 55
 10
0.0
 20
0.0
 30
0.0
  0
INSERT
  5
298
330
284
100
AcDbEntity
  8
Calque 1
100
AcDbBlockReference
  2
block 56
 10
0.0
 20
0.0
 30
0.0
  0
INSERT
  5
29D
330
284
100
AcDbEntity
  8
Calque 1
100
AcDbBlockReference
  2
block 57
 10
0.0
 20
0.0
 30
0.0
  0
INSERT
  5
2A2
330
284
100
AcDbEntity
  8
Calque 1
100
AcDbBlockReference
  2
block 58
 10
0.0
 20
0.0
 30
0.0
  0
INSERT
  5
2A7
330
284
100
AcDbEntity
  8
Calque 1
100
AcDbBlockReference
  2
block 59
 10
0.0
 20
0.0
 30
0.0
  0
INSERT
  5
2AC
330
284
100
AcDbEntity
  8
Calque 1
100
AcDbBlockReference
  2
block 60
 10
0.0
 20
0.0
 30
0.0
  0
ENDBLK
  5
287
330
284
100
AcDbEntity
  8
0
100
AcDbBlockEnd
  0
BLOCK
  5
28A
330
288
100
AcDbEntity
  8
0
100
AcDbBlockBegin
  2
block 53
 70
     0
 71
     0
 10
0.0
 20
0.0
 30
0.0
  3
block 53
  1

  0
SPLINE
  5
28C
330
288
100
AcDbEntity
  8
Calque 1
370
     0
100
AcDbSpline
210
0.0
220
0.0
230
1.0
 70
    11
 71
     3
 72
   107
 73
   103
 74
     0
 42
0.0000000001
 43
0.0000000001
 40
0.0
 40
0.0
 40
0.0
 40
0.0
 40
1.0
 40
1.0
 40
1.0
 40
2.0
 40
2.0
 40
2.0
 40
3.0
 40
3.0
 40
3.0
 40
4.0
 40
4.0
 40
4.0
 40
5.0
 40
5.0
 40
5.0
 40
6.0
 40
6.0
 40
6.0
 40
7.0
 40
7.0
 40
7.0
 40
8.0
 40
8.0
 40
8.0
 40
9.0
 40
9.0
 40
9.0
 40
10.0
 40
10.0
 40
10.0
 40
11.0
 40
11.0
 40
11.0
 40
12.0
 40
12.0
 40
12.0
 40
13.0
 40
13.0
 40
13.0
 40
14.0
 40
14.0
 40
14.0
 40
15.0
 40
15.0
 40
15.0
 40
16.0
 40
16.0
 40
16.0
 40
17.0
 40
17.0
 40
17.0
 40
18.0
 40
18.0
 40
18.0
 40
19.0
 40
19.0
 40
19.0
 40
20.0
 40
20.0
 40
20.0
 40
21.0
 40
21.0
 40
21.0
 40
22.0
 40
22.0
 40
22.0
 40
23.0
 40
23.0
 40
23.0
 40
24.0
 40
24.0
 40
24.0
 40
25.0
 40
25.0
 40
25.0
 40
26.0
 40
26.0
 40
26.0
 40
27.0
 40
27.0
 40
27.0
 40
28.0
 40
28.0
 40
28.0
 40
29.0
 40
29.0
 40
29.0
 40
30.0
 40
30.0
 40
30.0
 40
31.0
 40
31.0
 40
31.0
 40
32.0
 40
32.0
 40
32.0
 40
33.0
 40
33.0
 40
33.0
 40
34.0
 40
34.0
 40
34.0
 40
34.0
 10
36.49234618228316
 20
-163.0356987439633
 30
0.0
 10
36.49234618228316
 20
-163.0356987439633
 30
0.0
 10
36.13681232820538
 20
-161.7193277590493
 30
0.0
 10
36.13681232820538
 20
-161.7193277590493
 30
0.0
 10
36.13681232820538
 20
-161.7193277590493
 30
0.0
 10
35.79574787516565
 20
-160.1349283453829
 30
0.0
 10
33.7376478322774
 20
-160.1349283453829
 30
0.0
 10
33.7376478322774
 20
-160.1349283453829
 30
0.0
 10
31.5327867217175
 20
-160.1349283453829
 30
0.0
 10
31.5327867217175
 20
-160.1349283453829
 30
0.0
 10
31.5327867217175
 20
-160.1349283453829
 30
0.0
 10
20.38928086512837
 20
-160.1349283453829
 30
0.0
 10
20.38928086512837
 20
-160.1349283453829
 30
0.0
 10
20.38928086512837
 20
-160.1349283453829
 30
0.0
 10
19.06636419879244
 20
-160.1349283453829
 30
0.0
 10
19.06636419879244
 20
-160.1349283453829
 30
0.0
 10
16.53835313171611
 20
-160.1349283453829
 30
0.0
 10
16.41846380882941
 20
-162.1430745037351
 30
0.0
 10
16.41846380882941
 20
-162.1430745037351
 30
0.0
 10
16.41846380882941
 20
-162.1430745037351
 30
0.0
 10
16.41846380882941
 20
-163.8480522593852
 30
0.0
 10
16.41846380882941
 20
-163.8480522593852
 30
0.0
 10
16.41846380882941
 20
-163.8480522593852
 30
0.0
 10
16.41846380882941
 20
-172.6075520401814
 30
0.0
 10
16.41846380882941
 20
-172.6075520401814
 30
0.0
 10
16.41846380882941
 20
-172.6075520401814
 30
0.0
 10
21.57990586483072
 20
-172.6075520401814
 30
0.0
 10
21.57990586483072
 20
-172.6075520401814
 30
0.0
 10
21.57990586483072
 20
-172.6075520401814
 30
0.0
 10
21.57990586483072
 20
-175.504532833728
 30
0.0
 10
21.57990586483072
 20
-175.504532833728
 30
0.0
 10
21.57990586483072
 20
-175.504532833728
 30
0.0
 10
16.41846380882941
 20
-175.5489745654878
 30
0.0
 10
16.41846380882941
 20
-175.5489745654878
 30
0.0
 10
16.41846380882941
 20
-175.5489745654878
 30
0.0
 10
16.41846380882941
 20
-195.4127061143413
 30
0.0
 10
16.41846380882941
 20
-195.4127061143413
 30
0.0
 10
16.41846380882941
 20
-195.4127061143413
 30
0.0
 10
40.64644231839742
 20
-195.4127061143413
 30
0.0
 10
40.64644231839742
 20
-195.4127061143413
 30
0.0
 10
40.64644231839742
 20
-195.4127061143413
 30
0.0
 10
43.70430907110517
 20
-195.4127061143413
 30
0.0
 10
43.70430907110517
 20
-195.4127061143413
 30
0.0
 10
43.70430907110517
 20
-195.4127061143413
 30
0.0
 10
45.23530950475021
 20
-195.4209743435059
 30
0.0
 10
44.78193493889133
 20
-193.7408012753495
 30
0.0
 10
44.78193493889133
 20
-193.7408012753495
 30
0.0
 10
44.48979084174213
 20
-192.6607638407237
 30
0.0
 10
44.48979084174213
 20
-192.6607638407237
 30
0.0
 10
44.48979084174213
 20
-192.6607638407237
 30
0.0
 10
43.77252196171312
 20
-190.003906202499
 30
0.0
 10
43.77252196171312
 20
-190.003906202499
 30
0.0
 10
43.77252196171312
 20
-190.003906202499
 30
0.0
 10
43.47142061630228
 20
-189.0265326133336
 30
0.0
 10
43.47142061630228
 20
-189.0265326133336
 30
0.0
 10
43.47142061630228
 20
-189.0265326133336
 30
0.0
 10
33.7900132836532
 20
-191.9055989103569
 30
0.0
 10
33.7900132836532
 20
-191.9055989103569
 30
0.0
 10
33.7900132836532
 20
-191.9055989103569
 30
0.0
 10
32.93494058421418
 20
-189.0299777088189
 30
0.0
 10
32.93494058421418
 20
-189.0299777088189
 30
0.0
 10
32.93494058421418
 20
-189.0299777088189
 30
0.0
 10
42.75277369807917
 20
-186.22463645518
 30
0.0
 10
42.75277369807917
 20
-186.22463645518
 30
0.0
 10
42.75277369807917
 20
-186.22463645518
 30
0.0
 10
42.56742756097273
 20
-185.5400959822608
 30
0.0
 10
42.56742756097273
 20
-185.5400959822608
 30
0.0
 10
42.56742756097273
 20
-185.5400959822608
 30
0.0
 10
39.94777695398875
 20
-175.8349174907635
 30
0.0
 10
39.94777695398875
 20
-175.8349174907635
 30
0.0
 10
39.94777695398875
 20
-175.8349174907635
 30
0.0
 10
39.72177869015636
 20
-174.9984483069449
 30
0.0
 10
39.72177869015636
 20
-174.9984483069449
 30
0.0
 10
39.72177869015636
 20
-174.9984483069449
 30
0.0
 10
30.3897040397116
 20
-177.7738172298621
 30
0.0
 10
30.3897040397116
 20
-177.7738172298621
 30
0.0
 10
30.3897040397116
 20
-177.7738172298621
 30
0.0
 10
29.53463134027259
 20
-174.8981960283241
 30
0.0
 10
29.53463134027259
 20
-174.8981960283241
 30
0.0
 10
29.53463134027259
 20
-174.8981960283241
 30
0.0
 10
38.96868081708075
 20
-172.0928547746851
 30
0.0
 10
38.96868081708075
 20
-172.0928547746851
 30
0.0
 10
38.96868081708075
 20
-172.0928547746851
 30
0.0
 10
38.78815781365365
 20
-171.5378498920114
 30
0.0
 10
38.78815781365365
 20
-171.5378498920114
 30
0.0
 10
38.78815781365365
 20
-171.5378498920114
 30
0.0
 10
37.92895099963235
 20
-168.3576822495773
 30
0.0
 10
37.92895099963235
 20
-168.3576822495773
 30
0.0
 10
37.92895099963235
 20
-168.3576822495773
 30
0.0
 10
37.51829561779056
 20
-166.8363280832909
 30
0.0
 10
37.51829561779056
 20
-166.8363280832909
 30
0.0
 10
37.51829561779056
 20
-166.8363280832909
 30
0.0
 10
28.52177326760914
 20
-169.511789237136
 30
0.0
 10
28.52177326760914
 20
-169.511789237136
 30
0.0
 10
28.52177326760914
 20
-169.511789237136
 30
0.0
 10
27.66670056817013
 20
-166.6361680355979
 30
0.0
 10
27.66670056817013
 20
-166.6361680355979
 30
0.0
 10
27.66670056817013
 20
-166.6361680355979
 30
0.0
 10
36.73625894263886
 20
-163.9393472897443
 30
0.0
 10
36.73625894263886
 20
-163.9393472897443
 30
0.0
 10
36.73625894263886
 20
-163.9393472897443
 30
0.0
 10
36.49234618228316
 20
-163.0356987439633
 30
0.0
 10
36.49234618228316
 20
-163.0356987439633
 30
0.0
  0
ENDBLK
  5
28B
330
288
100
AcDbEntity
  8
0
100
AcDbBlockEnd
  0
BLOCK
  5
28F
330
28D
100
AcDbEntity
  8
0
100
AcDbBlockBegin
  2
block 54
 70
     0
 71
     0
 10
0.0
 20
0.0
 30
0.0
  3
block 54
  1

  0
SPLINE
  5
291
330
28D
100
AcDbEntity
  8
Calque 1
370
     0
100
AcDbSpline
210
0.0
220
0.0
230
1.0
 70
    11
 71
     3
 72
   107
 73
   103
 74
     0
 42
0.0000000001
 43
0.0000000001
 40
0.0
 40
0.0
 40
0.0
 40
0.0
 40
1.0
 40
1.0
 40
1.0
 40
2.0
 40
2.0
 40
2.0
 40
3.0
 40
3.0
 40
3.0
 40
4.0
 40
4.0
 40
4.0
 40
5.0
 40
5.0
 40
5.0
 40
6.0
 40
6.0
 40
6.0
 40
7.0
 40
7.0
 40
7.0
 40
8.0
 40
8.0
 40
8.0
 40
9.0
 40
9.0
 40
9.0
 40
10.0
 40
10.0
 40
10.0
 40
11.0
 40
11.0
 40
11.0
 40
12.0
 40
12.0
 40
12.0
 40
13.0
 40
13.0
 40
13.0
 40
14.0
 40
14.0
 40
14.0
 40
15.0
 40
15.0
 40
15.0
 40
16.0
 40
16.0
 40
16.0
 40
17.0
 40
17.0
 40
17.0
 40
18.0
 40
18.0
 40
18.0
 40
19.0
 40
19.0
 40
19.0
 40
20.0
 40
20.0
 40
20.0
 40
21.0
 40
21.0
 40
21.0
 40
22.0
 40
22.0
 40
22.0
 40
23.0
 40
23.0
 40
23.0
 40
24.0
 40
24.0
 40
24.0
 40
25.0
 40
25.0
 40
25.0
 40
26.0
 40
26.0
 40
26.0
 40
27.0
 40
27.0
 40
27.0
 40
28.0
 40
28.0
 40
28.0
 40
29.0
 40
29.0
 40
29.0
 40
30.0
 40
30.0
 40
30.0
 40
31.0
 40
31.0
 40
31.0
 40
32.0
 40
32.0
 40
32.0
 40
33.0
 40
33.0
 40
33.0
 40
34.0
 40
34.0
 40
34.0
 40
34.0
 10
69.6589694378804
 20
-163.0356987439633
 30
0.0
 10
69.6589694378804
 20
-163.0356987439633
 30
0.0
 10
69.30343558380261
 20
-161.7193277590493
 30
0.0
 10
69.30343558380261
 20
-161.7193277590493
 30
0.0
 10
69.30343558380261
 20
-161.7193277590493
 30
0.0
 10
68.96237113076289
 20
-160.1349283453829
 30
0.0
 10
66.90496010697169
 20
-160.1349283453829
 30
0.0
 10
66.90496010697169
 20
-160.1349283453829
 30
0.0
 10
64.70009899641178
 20
-160.1349283453829
 30
0.0
 10
64.70009899641178
 20
-160.1349283453829
 30
0.0
 10
64.70009899641178
 20
-160.1349283453829
 30
0.0
 10
53.55659313982266
 20
-160.1349283453829
 30
0.0
 10
53.55659313982266
 20
-160.1349283453829
 30
0.0
 10
53.55659313982266
 20
-160.1349283453829
 30
0.0
 10
52.23367647348672
 20
-160.1349283453829
 30
0.0
 10
52.23367647348672
 20
-160.1349283453829
 30
0.0
 10
49.70497638731334
 20
-160.1349283453829
 30
0.0
 10
49.58508706442665
 20
-162.1430745037351
 30
0.0
 10
49.58508706442665
 20
-162.1430745037351
 30
0.0
 10
49.58508706442665
 20
-162.1430745037351
 30
0.0
 10
49.58508706442665
 20
-163.8480522593852
 30
0.0
 10
49.58508706442665
 20
-163.8480522593852
 30
0.0
 10
49.58508706442665
 20
-163.8480522593852
 30
0.0
 10
49.58508706442665
 20
-172.6075520401814
 30
0.0
 10
49.58508706442665
 20
-172.6075520401814
 30
0.0
 10
49.58508706442665
 20
-172.6075520401814
 30
0.0
 10
54.74652912042795
 20
-172.6075520401814
 30
0.0
 10
54.74652912042795
 20
-172.6075520401814
 30
0.0
 10
54.74652912042795
 20
-172.6075520401814
 30
0.0
 10
54.74652912042795
 20
-175.504532833728
 30
0.0
 10
54.74652912042795
 20
-175.504532833728
 30
0.0
 10
54.74652912042795
 20
-175.504532833728
 30
0.0
 10
49.58508706442665
 20
-175.5489745654878
 30
0.0
 10
49.58508706442665
 20
-175.5489745654878
 30
0.0
 10
49.58508706442665
 20
-175.5489745654878
 30
0.0
 10
49.58508706442665
 20
-195.4127061143413
 30
0.0
 10
49.58508706442665
 20
-195.4127061143413
 30
0.0
 10
49.58508706442665
 20
-195.4127061143413
 30
0.0
 10
73.8137545930917
 20
-195.4127061143413
 30
0.0
 10
73.8137545930917
 20
-195.4127061143413
 30
0.0
 10
73.8137545930917
 20
-195.4127061143413
 30
0.0
 10
76.87093232670242
 20
-195.4127061143413
 30
0.0
 10
76.87093232670242
 20
-195.4127061143413
 30
0.0
 10
76.87093232670242
 20
-195.4127061143413
 30
0.0
 10
78.40262177944449
 20
-195.4209743435059
 30
0.0
 10
77.94855819448856
 20
-193.7408012753495
 30
0.0
 10
77.94855819448856
 20
-193.7408012753495
 30
0.0
 10
77.65710311643642
 20
-192.6607638407237
 30
0.0
 10
77.65710311643642
 20
-192.6607638407237
 30
0.0
 10
77.65710311643642
 20
-192.6607638407237
 30
0.0
 10
76.9398342364074
 20
-190.003906202499
 30
0.0
 10
76.9398342364074
 20
-190.003906202499
 30
0.0
 10
76.9398342364074
 20
-190.003906202499
 30
0.0
 10
76.63873289099656
 20
-189.0265326133336
 30
0.0
 10
76.63873289099656
 20
-189.0265326133336
 30
0.0
 10
76.63873289099656
 20
-189.0265326133336
 30
0.0
 10
66.95732555834748
 20
-191.9055989103569
 30
0.0
 10
66.95732555834748
 20
-191.9055989103569
 30
0.0
 10
66.95732555834748
 20
-191.9055989103569
 30
0.0
 10
66.10225285890847
 20
-189.0299777088189
 30
0.0
 10
66.10225285890847
 20
-189.0299777088189
 30
0.0
 10
66.10225285890847
 20
-189.0299777088189
 30
0.0
 10
75.9193969536764
 20
-186.22463645518
 30
0.0
 10
75.9193969536764
 20
-186.22463645518
 30
0.0
 10
75.9193969536764
 20
-186.22463645518
 30
0.0
 10
75.73473983566701
 20
-185.5400959822608
 30
0.0
 10
75.73473983566701
 20
-185.5400959822608
 30
0.0
 10
75.73473983566701
 20
-185.5400959822608
 30
0.0
 10
73.11440020958598
 20
-175.8349174907635
 30
0.0
 10
73.11440020958598
 20
-175.8349174907635
 30
0.0
 10
73.11440020958598
 20
-175.8349174907635
 30
0.0
 10
72.88909096485065
 20
-174.9984483069449
 30
0.0
 10
72.88909096485065
 20
-174.9984483069449
 30
0.0
 10
72.88909096485065
 20
-174.9984483069449
 30
0.0
 10
63.55632729530884
 20
-177.7738172298621
 30
0.0
 10
63.55632729530884
 20
-177.7738172298621
 30
0.0
 10
63.55632729530884
 20
-177.7738172298621
 30
0.0
 10
62.70125459586983
 20
-174.8981960283241
 30
0.0
 10
62.70125459586983
 20
-174.8981960283241
 30
0.0
 10
62.70125459586983
 20
-174.8981960283241
 30
0.0
 10
72.13599309177503
 20
-172.0928547746851
 30
0.0
 10
72.13599309177503
 20
-172.0928547746851
 30
0.0
 10
72.13599309177503
 20
-172.0928547746851
 30
0.0
 10
71.95478106925088
 20
-171.5378498920114
 30
0.0
 10
71.95478106925088
 20
-171.5378498920114
 30
0.0
 10
71.95478106925088
 20
-171.5378498920114
 30
0.0
 10
71.09626327432663
 20
-168.3576822495773
 30
0.0
 10
71.09626327432663
 20
-168.3576822495773
 30
0.0
 10
71.09626327432663
 20
-168.3576822495773
 30
0.0
 10
70.68560789248485
 20
-166.8363280832909
 30
0.0
 10
70.68560789248485
 20
-166.8363280832909
 30
0.0
 10
70.68560789248485
 20
-166.8363280832909
 30
0.0
 10
61.68908554230342
 20
-169.511789237136
 30
0.0
 10
61.68908554230342
 20
-169.511789237136
 30
0.0
 10
61.68908554230342
 20
-169.511789237136
 30
0.0
 10
60.83401284286442
 20
-166.6361680355979
 30
0.0
 10
60.83401284286442
 20
-166.6361680355979
 30
0.0
 10
60.83401284286442
 20
-166.6361680355979
 30
0.0
 10
69.90288219823609
 20
-163.9393472897443
 30
0.0
 10
69.90288219823609
 20
-163.9393472897443
 30
0.0
 10
69.90288219823609
 20
-163.9393472897443
 30
0.0
 10
69.6589694378804
 20
-163.0356987439633
 30
0.0
 10
69.6589694378804
 20
-163.0356987439633
 30
0.0
  0
ENDBLK
  5
290
330
28D
100
AcDbEntity
  8
0
100
AcDbBlockEnd
  0
BLOCK
  5
294
330
292
100
AcDbEntity
  8
0
100
AcDbBlockBegin
  2
block 55
 70
     0
 71
     0
 10
0.0
 20
0.0
 30
0.0
  3
block 55
  1

  0
SPLINE
  5
296
330
292
100
AcDbEntity
  8
Calque 1
370
     0
100
AcDbSpline
210
0.0
220
0.0
230
1.0
 70
    11
 71
     3
 72
   107
 73
   103
 74
     0
 42
0.0000000001
 43
0.0000000001
 40
0.0
 40
0.0
 40
0.0
 40
0.0
 40
1.0
 40
1.0
 40
1.0
 40
2.0
 40
2.0
 40
2.0
 40
3.0
 40
3.0
 40
3.0
 40
4.0
 40
4.0
 40
4.0
 40
5.0
 40
5.0
 40
5.0
 40
6.0
 40
6.0
 40
6.0
 40
7.0
 40
7.0
 40
7.0
 40
8.0
 40
8.0
 40
8.0
 40
9.0
 40
9.0
 40
9.0
 40
10.0
 40
10.0
 40
10.0
 40
11.0
 40
11.0
 40
11.0
 40
12.0
 40
12.0
 40
12.0
 40
13.0
 40
13.0
 40
13.0
 40
14.0
 40
14.0
 40
14.0
 40
15.0
 40
15.0
 40
15.0
 40
16.0
 40
16.0
 40
16.0
 40
17.0
 40
17.0
 40
17.0
 40
18.0
 40
18.0
 40
18.0
 40
19.0
 40
19.0
 40
19.0
 40
20.0
 40
20.0
 40
20.0
 40
21.0
 40
21.0
 40
21.0
 40
22.0
 40
22.0
 40
22.0
 40
23.0
 40
23.0
 40
23.0
 40
24.0
 40
24.0
 40
24.0
 40
25.0
 40
25.0
 40
25.0
 40
26.0
 40
26.0
 40
26.0
 40
27.0
 40
27.0
 40
27.0
 40
28.0
 40
28.0
 40
28.0
 40
29.0
 40
29.0
 40
29.0
 40
30.0
 40
30.0
 40
30.0
 40
31.0
 40
31.0
 40
31.0
 40
32.0
 40
32.0
 40
32.0
 40
33.0
 40
33.0
 40
33.0
 40
34.0
 40
34.0
 40
34.0
 40
34.0
 10
103.1129136569475
 20
-163.0356987439633
 30
0.0
 10
103.1129136569475
 20
-163.0356987439633
 30
0.0
 10
102.7573798028697
 20
-161.7193277590493
 30
0.0
 10
102.7573798028697
 20
-161.7193277590493
 30
0.0
 10
102.7573798028697
 20
-161.7193277590493
 30
0.0
 10
102.41631534983
 20
-160.1349283453829
 30
0.0
 10
100.3589043260388
 20
-160.1349283453829
 30
0.0
 10
100.3589043260388
 20
-160.1349283453829
 30
0.0
 10
98.15404321547885
 20
-160.1349283453829
 30
0.0
 10
98.15404321547885
 20
-160.1349283453829
 30
0.0
 10
98.15404321547885
 20
-160.1349283453829
 30
0.0
 10
87.01053735888974
 20
-160.1349283453829
 30
0.0
 10
87.01053735888974
 20
-160.1349283453829
 30
0.0
 10
87.01053735888974
 20
-160.1349283453829
 30
0.0
 10
85.68762069255379
 20
-160.1349283453829
 30
0.0
 10
85.68762069255379
 20
-160.1349283453829
 30
0.0
 10
83.1589206063804
 20
-160.1349283453829
 30
0.0
 10
83.03903128349371
 20
-162.1430745037351
 30
0.0
 10
83.03903128349371
 20
-162.1430745037351
 30
0.0
 10
83.03903128349371
 20
-162.1430745037351
 30
0.0
 10
83.03903128349371
 20
-163.8480522593852
 30
0.0
 10
83.03903128349371
 20
-163.8480522593852
 30
0.0
 10
83.03903128349371
 20
-163.8480522593852
 30
0.0
 10
83.03903128349371
 20
-172.6075520401814
 30
0.0
 10
83.03903128349371
 20
-172.6075520401814
 30
0.0
 10
83.03903128349371
 20
-172.6075520401814
 30
0.0
 10
88.20047333949502
 20
-172.6075520401814
 30
0.0
 10
88.20047333949502
 20
-172.6075520401814
 30
0.0
 10
88.20047333949502
 20
-172.6075520401814
 30
0.0
 10
88.20047333949502
 20
-175.504532833728
 30
0.0
 10
88.20047333949502
 20
-175.504532833728
 30
0.0
 10
88.20047333949502
 20
-175.504532833728
 30
0.0
 10
83.03903128349371
 20
-175.5489745654878
 30
0.0
 10
83.03903128349371
 20
-175.5489745654878
 30
0.0
 10
83.03903128349371
 20
-175.5489745654878
 30
0.0
 10
83.03903128349371
 20
-195.4127061143413
 30
0.0
 10
83.03903128349371
 20
-195.4127061143413
 30
0.0
 10
83.03903128349371
 20
-195.4127061143413
 30
0.0
 10
107.2676988121588
 20
-195.4127061143413
 30
0.0
 10
107.2676988121588
 20
-195.4127061143413
 30
0.0
 10
107.2676988121588
 20
-195.4127061143413
 30
0.0
 10
110.3248765457695
 20
-195.4127061143413
 30
0.0
 10
110.3248765457695
 20
-195.4127061143413
 30
0.0
 10
110.3248765457695
 20
-195.4127061143413
 30
0.0
 10
111.8565659985116
 20
-195.4209743435059
 30
0.0
 10
111.4025024135556
 20
-193.7408012753495
 30
0.0
 10
111.4025024135556
 20
-193.7408012753495
 30
0.0
 10
111.1110473355035
 20
-192.6607638407237
 30
0.0
 10
111.1110473355035
 20
-192.6607638407237
 30
0.0
 10
111.1110473355035
 20
-192.6607638407237
 30
0.0
 10
110.3937784554745
 20
-190.003906202499
 30
0.0
 10
110.3937784554745
 20
-190.003906202499
 30
0.0
 10
110.3937784554745
 20
-190.003906202499
 30
0.0
 10
110.0926771100636
 20
-189.0265326133336
 30
0.0
 10
110.0926771100636
 20
-189.0265326133336
 30
0.0
 10
110.0926771100636
 20
-189.0265326133336
 30
0.0
 10
100.4112697774145
 20
-191.9055989103569
 30
0.0
 10
100.4112697774145
 20
-191.9055989103569
 30
0.0
 10
100.4112697774145
 20
-191.9055989103569
 30
0.0
 10
99.55619707797554
 20
-189.0299777088189
 30
0.0
 10
99.55619707797554
 20
-189.0299777088189
 30
0.0
 10
99.55619707797554
 20
-189.0299777088189
 30
0.0
 10
109.3733411727435
 20
-186.22463645518
 30
0.0
 10
109.3733411727435
 20
-186.22463645518
 30
0.0
 10
109.3733411727435
 20
-186.22463645518
 30
0.0
 10
109.1886840547341
 20
-185.5400959822608
 30
0.0
 10
109.1886840547341
 20
-185.5400959822608
 30
0.0
 10
109.1886840547341
 20
-185.5400959822608
 30
0.0
 10
106.5683444286531
 20
-175.8349174907635
 30
0.0
 10
106.5683444286531
 20
-175.8349174907635
 30
0.0
 10
106.5683444286531
 20
-175.8349174907635
 30
0.0
 10
106.3430351839177
 20
-174.9984483069449
 30
0.0
 10
106.3430351839177
 20
-174.9984483069449
 30
0.0
 10
106.3430351839177
 20
-174.9984483069449
 30
0.0
 10
97.01027151437592
 20
-177.7738172298621
 30
0.0
 10
97.01027151437592
 20
-177.7738172298621
 30
0.0
 10
97.01027151437592
 20
-177.7738172298621
 30
0.0
 10
96.1551988149369
 20
-174.8981960283241
 30
0.0
 10
96.1551988149369
 20
-174.8981960283241
 30
0.0
 10
96.1551988149369
 20
-174.8981960283241
 30
0.0
 10
105.5899373108421
 20
-172.0928547746851
 30
0.0
 10
105.5899373108421
 20
-172.0928547746851
 30
0.0
 10
105.5899373108421
 20
-172.0928547746851
 30
0.0
 10
105.408725288318
 20
-171.5378498920114
 30
0.0
 10
105.408725288318
 20
-171.5378498920114
 30
0.0
 10
105.408725288318
 20
-171.5378498920114
 30
0.0
 10
104.5502074933937
 20
-168.3576822495773
 30
0.0
 10
104.5502074933937
 20
-168.3576822495773
 30
0.0
 10
104.5502074933937
 20
-168.3576822495773
 30
0.0
 10
104.1395521115519
 20
-166.8363280832909
 30
0.0
 10
104.1395521115519
 20
-166.8363280832909
 30
0.0
 10
104.1395521115519
 20
-166.8363280832909
 30
0.0
 10
95.1430297613705
 20
-169.511789237136
 30
0.0
 10
95.1430297613705
 20
-169.511789237136
 30
0.0
 10
95.1430297613705
 20
-169.511789237136
 30
0.0
 10
94.2879570619315
 20
-166.6361680355979
 30
0.0
 10
94.2879570619315
 20
-166.6361680355979
 30
0.0
 10
94.2879570619315
 20
-166.6361680355979
 30
0.0
 10
103.3568264173032
 20
-163.9393472897443
 30
0.0
 10
103.3568264173032
 20
-163.9393472897443
 30
0.0
 10
103.3568264173032
 20
-163.9393472897443
 30
0.0
 10
103.1129136569475
 20
-163.0356987439633
 30
0.0
 10
103.1129136569475
 20
-163.0356987439633
 30
0.0
  0
ENDBLK
  5
295
330
292
100
AcDbEntity
  8
0
100
AcDbBlockEnd
  0
BLOCK
  5
299
330
297
100
AcDbEntity
  8
0
100
AcDbBlockBegin
  2
block 56
 70
     0
 71
     0
 10
0.0
 20
0.0
 30
0.0
  3
block 56
  1

  0
SPLINE
  5
29B
330
297
100
AcDbEntity
  8
Calque 1
370
     0
100
AcDbSpline
210
0.0
220
0.0
230
1.0
 70
    11
 71
     3
 72
   107
 73
   103
 74
     0
 42
0.0000000001
 43
0.0000000001
 40
0.0
 40
0.0
 40
0.0
 40
0.0
 40
1.0
 40
1.0
 40
1.0
 40
2.0
 40
2.0
 40
2.0
 40
3.0
 40
3.0
 40
3.0
 40
4.0
 40
4.0
 40
4.0
 40
5.0
 40
5.0
 40
5.0
 40
6.0
 40
6.0
 40
6.0
 40
7.0
 40
7.0
 40
7.0
 40
8.0
 40
8.0
 40
8.0
 40
9.0
 40
9.0
 40
9.0
 40
10.0
 40
10.0
 40
10.0
 40
11.0
 40
11.0
 40
11.0
 40
12.0
 40
12.0
 40
12.0
 40
13.0
 40
13.0
 40
13.0
 40
14.0
 40
14.0
 40
14.0
 40
15.0
 40
15.0
 40
15.0
 40
16.0
 40
16.0
 40
16.0
 40
17.0
 40
17.0
 40
17.0
 40
18.0
 40
18.0
 40
18.0
 40
19.0
 40
19.0
 40
19.0
 40
20.0
 40
20.0
 40
20.0
 40
21.0
 40
21.0
 40
21.0
 40
22.0
 40
22.0
 40
22.0
 40
23.0
 40
23.0
 40
23.0
 40
24.0
 40
24.0
 40
24.0
 40
25.0
 40
25.0
 40
25.0
 40
26.0
 40
26.0
 40
26.0
 40
27.0
 40
27.0
 40
27.0
 40
28.0
 40
28.0
 40
28.0
 40
29.0
 40
29.0
 40
29.0
 40
30.0
 40
30.0
 40
30.0
 40
31.0
 40
31.0
 40
31.0
 40
32.0
 40
32.0
 40
32.0
 40
33.0
 40
33.0
 40
33.0
 40
34.0
 40
34.0
 40
34.0
 40
34.0
 10
136.2802259316418
 20
-163.0356987439633
 30
0.0
 10
136.2802259316418
 20
-163.0356987439633
 30
0.0
 10
135.924692077564
 20
-161.7193277590493
 30
0.0
 10
135.924692077564
 20
-161.7193277590493
 30
0.0
 10
135.924692077564
 20
-161.7193277590493
 30
0.0
 10
135.5836276245242
 20
-160.1349283453829
 30
0.0
 10
133.525527581636
 20
-160.1349283453829
 30
0.0
 10
133.525527581636
 20
-160.1349283453829
 30
0.0
 10
131.3206664710761
 20
-160.1349283453829
 30
0.0
 10
131.3206664710761
 20
-160.1349283453829
 30
0.0
 10
131.3206664710761
 20
-160.1349283453829
 30
0.0
 10
120.177160614487
 20
-160.1349283453829
 30
0.0
 10
120.177160614487
 20
-160.1349283453829
 30
0.0
 10
120.177160614487
 20
-160.1349283453829
 30
0.0
 10
118.854243948151
 20
-160.1349283453829
 30
0.0
 10
118.854243948151
 20
-160.1349283453829
 30
0.0
 10
116.3262328810747
 20
-160.1349283453829
 30
0.0
 10
116.206343558188
 20
-162.1430745037351
 30
0.0
 10
116.206343558188
 20
-162.1430745037351
 30
0.0
 10
116.206343558188
 20
-162.1430745037351
 30
0.0
 10
116.206343558188
 20
-163.8480522593852
 30
0.0
 10
116.206343558188
 20
-163.8480522593852
 30
0.0
 10
116.206343558188
 20
-163.8480522593852
 30
0.0
 10
116.206343558188
 20
-172.6075520401814
 30
0.0
 10
116.206343558188
 20
-172.6075520401814
 30
0.0
 10
116.206343558188
 20
-172.6075520401814
 30
0.0
 10
121.3677856141893
 20
-172.6075520401814
 30
0.0
 10
121.3677856141893
 20
-172.6075520401814
 30
0.0
 10
121.3677856141893
 20
-172.6075520401814
 30
0.0
 10
121.3677856141893
 20
-175.504532833728
 30
0.0
 10
121.3677856141893
 20
-175.504532833728
 30
0.0
 10
121.3677856141893
 20
-175.504532833728
 30
0.0
 10
116.206343558188
 20
-175.5489745654878
 30
0.0
 10
116.206343558188
 20
-175.5489745654878
 30
0.0
 10
116.206343558188
 20
-175.5489745654878
 30
0.0
 10
116.206343558188
 20
-195.4127061143413
 30
0.0
 10
116.206343558188
 20
-195.4127061143413
 30
0.0
 10
116.206343558188
 20
-195.4127061143413
 30
0.0
 10
140.434322067756
 20
-195.4127061143413
 30
0.0
 10
140.434322067756
 20
-195.4127061143413
 30
0.0
 10
140.434322067756
 20
-195.4127061143413
 30
0.0
 10
143.4921888204638
 20
-195.4127061143413
 30
0.0
 10
143.4921888204638
 20
-195.4127061143413
 30
0.0
 10
143.4921888204638
 20
-195.4127061143413
 30
0.0
 10
145.0233615088831
 20
-195.4209743435059
 30
0.0
 10
144.5699869430242
 20
-193.7408012753495
 30
0.0
 10
144.5699869430242
 20
-193.7408012753495
 30
0.0
 10
144.277842845875
 20
-192.6607638407237
 30
0.0
 10
144.277842845875
 20
-192.6607638407237
 30
0.0
 10
144.277842845875
 20
-192.6607638407237
 30
0.0
 10
143.5604017110717
 20
-190.003906202499
 30
0.0
 10
143.5604017110717
 20
-190.003906202499
 30
0.0
 10
143.5604017110717
 20
-190.003906202499
 30
0.0
 10
143.2593003656609
 20
-189.0265326133336
 30
0.0
 10
143.2593003656609
 20
-189.0265326133336
 30
0.0
 10
143.2593003656609
 20
-189.0265326133336
 30
0.0
 10
133.5778930330118
 20
-191.9055989103569
 30
0.0
 10
133.5778930330118
 20
-191.9055989103569
 30
0.0
 10
133.5778930330118
 20
-191.9055989103569
 30
0.0
 10
132.7228203335728
 20
-189.0299777088189
 30
0.0
 10
132.7228203335728
 20
-189.0299777088189
 30
0.0
 10
132.7228203335728
 20
-189.0299777088189
 30
0.0
 10
142.5406534474378
 20
-186.22463645518
 30
0.0
 10
142.5406534474378
 20
-186.22463645518
 30
0.0
 10
142.5406534474378
 20
-186.22463645518
 30
0.0
 10
142.3553073103313
 20
-185.5400959822608
 30
0.0
 10
142.3553073103313
 20
-185.5400959822608
 30
0.0
 10
142.3553073103313
 20
-185.5400959822608
 30
0.0
 10
139.7356567033473
 20
-175.8349174907635
 30
0.0
 10
139.7356567033473
 20
-175.8349174907635
 30
0.0
 10
139.7356567033473
 20
-175.8349174907635
 30
0.0
 10
139.509658439515
 20
-174.9984483069449
 30
0.0
 10
139.509658439515
 20
-174.9984483069449
 30
0.0
 10
139.509658439515
 20
-174.9984483069449
 30
0.0
 10
130.1775837890702
 20
-177.7738172298621
 30
0.0
 10
130.1775837890702
 20
-177.7738172298621
 30
0.0
 10
130.1775837890702
 20
-177.7738172298621
 30
0.0
 10
129.3225110896312
 20
-174.8981960283241
 30
0.0
 10
129.3225110896312
 20
-174.8981960283241
 30
0.0
 10
129.3225110896312
 20
-174.8981960283241
 30
0.0
 10
138.7565605664393
 20
-172.0928547746851
 30
0.0
 10
138.7565605664393
 20
-172.0928547746851
 30
0.0
 10
138.7565605664393
 20
-172.0928547746851
 30
0.0
 10
138.5760375630122
 20
-171.5378498920114
 30
0.0
 10
138.5760375630122
 20
-171.5378498920114
 30
0.0
 10
138.5760375630122
 20
-171.5378498920114
 30
0.0
 10
137.7168307489909
 20
-168.3576822495773
 30
0.0
 10
137.7168307489909
 20
-168.3576822495773
 30
0.0
 10
137.7168307489909
 20
-168.3576822495773
 30
0.0
 10
137.3061753671492
 20
-166.8363280832909
 30
0.0
 10
137.3061753671492
 20
-166.8363280832909
 30
0.0
 10
137.3061753671492
 20
-166.8363280832909
 30
0.0
 10
128.3096530169677
 20
-169.511789237136
 30
0.0
 10
128.3096530169677
 20
-169.511789237136
 30
0.0
 10
128.3096530169677
 20
-169.511789237136
 30
0.0
 10
127.4545803175287
 20
-166.6361680355979
 30
0.0
 10
127.4545803175287
 20
-166.6361680355979
 30
0.0
 10
127.4545803175287
 20
-166.6361680355979
 30
0.0
 10
136.5241386919975
 20
-163.9393472897443
 30
0.0
 10
136.5241386919975
 20
-163.9393472897443
 30
0.0
 10
136.5241386919975
 20
-163.9393472897443
 30
0.0
 10
136.2802259316418
 20
-163.0356987439633
 30
0.0
 10
136.2802259316418
 20
-163.0356987439633
 30
0.0
  0
ENDBLK
  5
29A
330
297
100
AcDbEntity
  8
0
100
AcDbBlockEnd
  0
BLOCK
  5
29E
330
29C
100
AcDbEntity
  8
0
100
AcDbBlockBegin
  2
block 57
 70
     0
 71
     0
 10
0.0
 20
0.0
 30
0.0
  3
block 57
  1

  0
SPLINE
  5
2A0
330
29C
100
AcDbEntity
  8
Calque 1
370
     0
100
AcDbSpline
210
0.0
220
0.0
230
1.0
 70
    11
 71
     3
 72
   107
 73
   103
 74
     0
 42
0.0000000001
 43
0.0000000001
 40
0.0
 40
0.0
 40
0.0
 40
0.0
 40
1.0
 40
1.0
 40
1.0
 40
2.0
 40
2.0
 40
2.0
 40
3.0
 40
3.0
 40
3.0
 40
4.0
 40
4.0
 40
4.0
 40
5.0
 40
5.0
 40
5.0
 40
6.0
 40
6.0
 40
6.0
 40
7.0
 40
7.0
 40
7.0
 40
8.0
 40
8.0
 40
8.0
 40
9.0
 40
9.0
 40
9.0
 40
10.0
 40
10.0
 40
10.0
 40
11.0
 40
11.0
 40
11.0
 40
12.0
 40
12.0
 40
12.0
 40
13.0
 40
13.0
 40
13.0
 40
14.0
 40
14.0
 40
14.0
 40
15.0
 40
15.0
 40
15.0
 40
16.0
 40
16.0
 40
16.0
 40
17.0
 40
17.0
 40
17.0
 40
18.0
 40
18.0
 40
18.0
 40
19.0
 40
19.0
 40
19.0
 40
20.0
 40
20.0
 40
20.0
 40
21.0
 40
21.0
 40
21.0
 40
22.0
 40
22.0
 40
22.0
 40
23.0
 40
23.0
 40
23.0
 40
24.0
 40
24.0
 40
24.0
 40
25.0
 40
25.0
 40
25.0
 40
26.0
 40
26.0
 40
26.0
 40
27.0
 40
27.0
 40
27.0
 40
28.0
 40
28.0
 40
28.0
 40
29.0
 40
29.0
 40
29.0
 40
30.0
 40
30.0
 40
30.0
 40
31.0
 40
31.0
 40
31.0
 40
32.0
 40
32.0
 40
32.0
 40
33.0
 40
33.0
 40
33.0
 40
34.0
 40
34.0
 40
34.0
 40
34.0
 10
167.4576510540557
 20
-163.0356987439633
 30
0.0
 10
167.4576510540557
 20
-163.0356987439633
 30
0.0
 10
167.102117199978
 20
-161.7193277590493
 30
0.0
 10
167.102117199978
 20
-161.7193277590493
 30
0.0
 10
167.102117199978
 20
-161.7193277590493
 30
0.0
 10
166.7610527469382
 20
-160.1349283453829
 30
0.0
 10
164.703641723147
 20
-160.1349283453829
 30
0.0
 10
164.703641723147
 20
-160.1349283453829
 30
0.0
 10
162.4987806125871
 20
-160.1349283453829
 30
0.0
 10
162.4987806125871
 20
-160.1349283453829
 30
0.0
 10
162.4987806125871
 20
-160.1349283453829
 30
0.0
 10
151.355274755998
 20
-160.1349283453829
 30
0.0
 10
151.355274755998
 20
-160.1349283453829
 30
0.0
 10
151.355274755998
 20
-160.1349283453829
 30
0.0
 10
150.0323580896621
 20
-160.1349283453829
 30
0.0
 10
150.0323580896621
 20
-160.1349283453829
 30
0.0
 10
147.5036580034887
 20
-160.1349283453829
 30
0.0
 10
147.383768680602
 20
-162.1430745037351
 30
0.0
 10
147.383768680602
 20
-162.1430745037351
 30
0.0
 10
147.383768680602
 20
-162.1430745037351
 30
0.0
 10
147.383768680602
 20
-163.8480522593852
 30
0.0
 10
147.383768680602
 20
-163.8480522593852
 30
0.0
 10
147.383768680602
 20
-163.8480522593852
 30
0.0
 10
147.383768680602
 20
-172.6075520401814
 30
0.0
 10
147.383768680602
 20
-172.6075520401814
 30
0.0
 10
147.383768680602
 20
-172.6075520401814
 30
0.0
 10
152.5452107366033
 20
-172.6075520401814
 30
0.0
 10
152.5452107366033
 20
-172.6075520401814
 30
0.0
 10
152.5452107366033
 20
-172.6075520401814
 30
0.0
 10
152.5452107366033
 20
-175.504532833728
 30
0.0
 10
152.5452107366033
 20
-175.504532833728
 30
0.0
 10
152.5452107366033
 20
-175.504532833728
 30
0.0
 10
147.383768680602
 20
-175.5489745654878
 30
0.0
 10
147.383768680602
 20
-175.5489745654878
 30
0.0
 10
147.383768680602
 20
-175.5489745654878
 30
0.0
 10
147.383768680602
 20
-195.4127061143413
 30
0.0
 10
147.383768680602
 20
-195.4127061143413
 30
0.0
 10
147.383768680602
 20
-195.4127061143413
 30
0.0
 10
171.612436209267
 20
-195.4127061143413
 30
0.0
 10
171.612436209267
 20
-195.4127061143413
 30
0.0
 10
171.612436209267
 20
-195.4127061143413
 30
0.0
 10
174.6696139428777
 20
-195.4127061143413
 30
0.0
 10
174.6696139428777
 20
-195.4127061143413
 30
0.0
 10
174.6696139428777
 20
-195.4127061143413
 30
0.0
 10
176.2013033956198
 20
-195.4209743435059
 30
0.0
 10
175.7472398106639
 20
-193.7408012753495
 30
0.0
 10
175.7472398106639
 20
-193.7408012753495
 30
0.0
 10
175.4557847326118
 20
-192.6607638407237
 30
0.0
 10
175.4557847326118
 20
-192.6607638407237
 30
0.0
 10
175.4557847326118
 20
-192.6607638407237
 30
0.0
 10
174.7385158525827
 20
-190.003906202499
 30
0.0
 10
174.7385158525827
 20
-190.003906202499
 30
0.0
 10
174.7385158525827
 20
-190.003906202499
 30
0.0
 10
174.4374145071719
 20
-189.0265326133336
 30
0.0
 10
174.4374145071719
 20
-189.0265326133336
 30
0.0
 10
174.4374145071719
 20
-189.0265326133336
 30
0.0
 10
164.7560071745228
 20
-191.9055989103569
 30
0.0
 10
164.7560071745228
 20
-191.9055989103569
 30
0.0
 10
164.7560071745228
 20
-191.9055989103569
 30
0.0
 10
163.9009344750838
 20
-189.0299777088189
 30
0.0
 10
163.9009344750838
 20
-189.0299777088189
 30
0.0
 10
163.9009344750838
 20
-189.0299777088189
 30
0.0
 10
173.7180785698517
 20
-186.22463645518
 30
0.0
 10
173.7180785698517
 20
-186.22463645518
 30
0.0
 10
173.7180785698517
 20
-186.22463645518
 30
0.0
 10
173.5334214518423
 20
-185.5400959822608
 30
0.0
 10
173.5334214518423
 20
-185.5400959822608
 30
0.0
 10
173.5334214518423
 20
-185.5400959822608
 30
0.0
 10
170.9130818257613
 20
-175.8349174907635
 30
0.0
 10
170.9130818257613
 20
-175.8349174907635
 30
0.0
 10
170.9130818257613
 20
-175.8349174907635
 30
0.0
 10
170.687772581026
 20
-174.9984483069449
 30
0.0
 10
170.687772581026
 20
-174.9984483069449
 30
0.0
 10
170.687772581026
 20
-174.9984483069449
 30
0.0
 10
161.3550089114842
 20
-177.7738172298621
 30
0.0
 10
161.3550089114842
 20
-177.7738172298621
 30
0.0
 10
161.3550089114842
 20
-177.7738172298621
 30
0.0
 10
160.4999362120452
 20
-174.8981960283241
 30
0.0
 10
160.4999362120452
 20
-174.8981960283241
 30
0.0
 10
160.4999362120452
 20
-174.8981960283241
 30
0.0
 10
169.9346747079504
 20
-172.0928547746851
 30
0.0
 10
169.9346747079504
 20
-172.0928547746851
 30
0.0
 10
169.9346747079504
 20
-172.0928547746851
 30
0.0
 10
169.7534626854262
 20
-171.5378498920114
 30
0.0
 10
169.7534626854262
 20
-171.5378498920114
 30
0.0
 10
169.7534626854262
 20
-171.5378498920114
 30
0.0
 10
168.894944890502
 20
-168.3576822495773
 30
0.0
 10
168.894944890502
 20
-168.3576822495773
 30
0.0
 10
168.894944890502
 20
-168.3576822495773
 30
0.0
 10
168.4842895086602
 20
-166.8363280832909
 30
0.0
 10
168.4842895086602
 20
-166.8363280832909
 30
0.0
 10
168.4842895086602
 20
-166.8363280832909
 30
0.0
 10
159.4877671584788
 20
-169.511789237136
 30
0.0
 10
159.4877671584788
 20
-169.511789237136
 30
0.0
 10
159.4877671584788
 20
-169.511789237136
 30
0.0
 10
158.6326944590398
 20
-166.6361680355979
 30
0.0
 10
158.6326944590398
 20
-166.6361680355979
 30
0.0
 10
158.6326944590398
 20
-166.6361680355979
 30
0.0
 10
167.7015638144114
 20
-163.9393472897443
 30
0.0
 10
167.7015638144114
 20
-163.9393472897443
 30
0.0
 10
167.7015638144114
 20
-163.9393472897443
 30
0.0
 10
167.4576510540557
 20
-163.0356987439633
 30
0.0
 10
167.4576510540557
 20
-163.0356987439633
 30
0.0
  0
ENDBLK
  5
29F
330
29C
100
AcDbEntity
  8
0
100
AcDbBlockEnd
  0
BLOCK
  5
2A3
330
2A1
100
AcDbEntity
  8
0
100
AcDbBlockBegin
  2
block 58
 70
     0
 71
     0
 10
0.0
 20
0.0
 30
0.0
  3
block 58
  1

  0
SPLINE
  5
2A5
330
2A1
100
AcDbEntity
  8
Calque 1
370
     0
100
AcDbSpline
210
0.0
220
0.0
230
1.0
 70
    11
 71
     3
 72
   107
 73
   103
 74
     0
 42
0.0000000001
 43
0.0000000001
 40
0.0
 40
0.0
 40
0.0
 40
0.0
 40
1.0
 40
1.0
 40
1.0
 40
2.0
 40
2.0
 40
2.0
 40
3.0
 40
3.0
 40
3.0
 40
4.0
 40
4.0
 40
4.0
 40
5.0
 40
5.0
 40
5.0
 40
6.0
 40
6.0
 40
6.0
 40
7.0
 40
7.0
 40
7.0
 40
8.0
 40
8.0
 40
8.0
 40
9.0
 40
9.0
 40
9.0
 40
10.0
 40
10.0
 40
10.0
 40
11.0
 40
11.0
 40
11.0
 40
12.0
 40
12.0
 40
12.0
 40
13.0
 40
13.0
 40
13.0
 40
14.0
 40
14.0
 40
14.0
 40
15.0
 40
15.0
 40
15.0
 40
16.0
 40
16.0
 40
16.0
 40
17.0
 40
17.0
 40
17.0
 40
18.0
 40
18.0
 40
18.0
 40
19.0
 40
19.0
 40
19.0
 40
20.0
 40
20.0
 40
20.0
 40
21.0
 40
21.0
 40
21.0
 40
22.0
 40
22.0
 40
22.0
 40
23.0
 40
23.0
 40
23.0
 40
24.0
 40
24.0
 40
24.0
 40
25.0
 40
25.0
 40
25.0
 40
26.0
 40
26.0
 40
26.0
 40
27.0
 40
27.0
 40
27.0
 40
28.0
 40
28.0
 40
28.0
 40
29.0
 40
29.0
 40
29.0
 40
30.0
 40
30.0
 40
30.0
 40
31.0
 40
31.0
 40
31.0
 40
32.0
 40
32.0
 40
32.0
 40
33.0
 40
33.0
 40
33.0
 40
34.0
 40
34.0
 40
34.0
 40
34.0
 10
200.6247910739758
 20
-163.0356987439633
 30
0.0
 10
200.6247910739758
 20
-163.0356987439633
 30
0.0
 10
200.269257219898
 20
-161.7193277590493
 30
0.0
 10
200.269257219898
 20
-161.7193277590493
 30
0.0
 10
200.269257219898
 20
-161.7193277590493
 30
0.0
 10
199.9281927668582
 20
-160.1349283453829
 30
0.0
 10
197.87009272397
 20
-160.1349283453829
 30
0.0
 10
197.87009272397
 20
-160.1349283453829
 30
0.0
 10
195.6652316134101
 20
-160.1349283453829
 30
0.0
 10
195.6652316134101
 20
-160.1349283453829
 30
0.0
 10
195.6652316134101
 20
-160.1349283453829
 30
0.0
 10
184.521725756821
 20
-160.1349283453829
 30
0.0
 10
184.521725756821
 20
-160.1349283453829
 30
0.0
 10
184.521725756821
 20
-160.1349283453829
 30
0.0
 10
183.198809090485
 20
-160.1349283453829
 30
0.0
 10
183.198809090485
 20
-160.1349283453829
 30
0.0
 10
180.6707980234087
 20
-160.1349283453829
 30
0.0
 10
180.550908700522
 20
-162.1430745037351
 30
0.0
 10
180.550908700522
 20
-162.1430745037351
 30
0.0
 10
180.550908700522
 20
-162.1430745037351
 30
0.0
 10
180.550908700522
 20
-163.8480522593852
 30
0.0
 10
180.550908700522
 20
-163.8480522593852
 30
0.0
 10
180.550908700522
 20
-163.8480522593852
 30
0.0
 10
180.550908700522
 20
-172.6075520401814
 30
0.0
 10
180.550908700522
 20
-172.6075520401814
 30
0.0
 10
180.550908700522
 20
-172.6075520401814
 30
0.0
 10
185.7123507565233
 20
-172.6075520401814
 30
0.0
 10
185.7123507565233
 20
-172.6075520401814
 30
0.0
 10
185.7123507565233
 20
-172.6075520401814
 30
0.0
 10
185.7123507565233
 20
-175.504532833728
 30
0.0
 10
185.7123507565233
 20
-175.504532833728
 30
0.0
 10
185.7123507565233
 20
-175.504532833728
 30
0.0
 10
180.550908700522
 20
-175.5489745654878
 30
0.0
 10
180.550908700522
 20
-175.5489745654878
 30
0.0
 10
180.550908700522
 20
-175.5489745654878
 30
0.0
 10
180.550908700522
 20
-195.4127061143413
 30
0.0
 10
180.550908700522
 20
-195.4127061143413
 30
0.0
 10
180.550908700522
 20
-195.4127061143413
 30
0.0
 10
204.77888721009
 20
-195.4127061143413
 30
0.0
 10
204.77888721009
 20
-195.4127061143413
 30
0.0
 10
204.77888721009
 20
-195.4127061143413
 30
0.0
 10
207.8367539627978
 20
-195.4127061143413
 30
0.0
 10
207.8367539627978
 20
-195.4127061143413
 30
0.0
 10
207.8367539627978
 20
-195.4127061143413
 30
0.0
 10
209.3677543964428
 20
-195.4209743435059
 30
0.0
 10
208.9143798305839
 20
-193.7408012753495
 30
0.0
 10
208.9143798305839
 20
-193.7408012753495
 30
0.0
 10
208.6222357334347
 20
-192.6607638407237
 30
0.0
 10
208.6222357334347
 20
-192.6607638407237
 30
0.0
 10
208.6222357334347
 20
-192.6607638407237
 30
0.0
 10
207.9049668534057
 20
-190.003906202499
 30
0.0
 10
207.9049668534057
 20
-190.003906202499
 30
0.0
 10
207.9049668534057
 20
-190.003906202499
 30
0.0
 10
207.6038655079949
 20
-189.0265326133336
 30
0.0
 10
207.6038655079949
 20
-189.0265326133336
 30
0.0
 10
207.6038655079949
 20
-189.0265326133336
 30
0.0
 10
197.9224581753458
 20
-191.9055989103569
 30
0.0
 10
197.9224581753458
 20
-191.9055989103569
 30
0.0
 10
197.9224581753458
 20
-191.9055989103569
 30
0.0
 10
197.0673854759068
 20
-189.0299777088189
 30
0.0
 10
197.0673854759068
 20
-189.0299777088189
 30
0.0
 10
197.0673854759068
 20
-189.0299777088189
 30
0.0
 10
206.8852185897718
 20
-186.22463645518
 30
0.0
 10
206.8852185897718
 20
-186.22463645518
 30
0.0
 10
206.8852185897718
 20
-186.22463645518
 30
0.0
 10
206.6998724526653
 20
-185.5400959822608
 30
0.0
 10
206.6998724526653
 20
-185.5400959822608
 30
0.0
 10
206.6998724526653
 20
-185.5400959822608
 30
0.0
 10
204.0802218456813
 20
-175.8349174907635
 30
0.0
 10
204.0802218456813
 20
-175.8349174907635
 30
0.0
 10
204.0802218456813
 20
-175.8349174907635
 30
0.0
 10
203.8542235818489
 20
-174.9984483069449
 30
0.0
 10
203.8542235818489
 20
-174.9984483069449
 30
0.0
 10
203.8542235818489
 20
-174.9984483069449
 30
0.0
 10
194.5221489314042
 20
-177.7738172298621
 30
0.0
 10
194.5221489314042
 20
-177.7738172298621
 30
0.0
 10
194.5221489314042
 20
-177.7738172298621
 30
0.0
 10
193.6670762319652
 20
-174.8981960283241
 30
0.0
 10
193.6670762319652
 20
-174.8981960283241
 30
0.0
 10
193.6670762319652
 20
-174.8981960283241
 30
0.0
 10
203.1011257087733
 20
-172.0928547746851
 30
0.0
 10
203.1011257087733
 20
-172.0928547746851
 30
0.0
 10
203.1011257087733
 20
-172.0928547746851
 30
0.0
 10
202.9206027053463
 20
-171.5378498920114
 30
0.0
 10
202.9206027053463
 20
-171.5378498920114
 30
0.0
 10
202.9206027053463
 20
-171.5378498920114
 30
0.0
 10
202.0613958913249
 20
-168.3576822495773
 30
0.0
 10
202.0613958913249
 20
-168.3576822495773
 30
0.0
 10
202.0613958913249
 20
-168.3576822495773
 30
0.0
 10
201.6507405094832
 20
-166.8363280832909
 30
0.0
 10
201.6507405094832
 20
-166.8363280832909
 30
0.0
 10
201.6507405094832
 20
-166.8363280832909
 30
0.0
 10
192.6542181593017
 20
-169.511789237136
 30
0.0
 10
192.6542181593017
 20
-169.511789237136
 30
0.0
 10
192.6542181593017
 20
-169.511789237136
 30
0.0
 10
191.7991454598627
 20
-166.6361680355979
 30
0.0
 10
191.7991454598627
 20
-166.6361680355979
 30
0.0
 10
191.7991454598627
 20
-166.6361680355979
 30
0.0
 10
200.8687038343315
 20
-163.9393472897443
 30
0.0
 10
200.8687038343315
 20
-163.9393472897443
 30
0.0
 10
200.8687038343315
 20
-163.9393472897443
 30
0.0
 10
200.6247910739758
 20
-163.0356987439633
 30
0.0
 10
200.6247910739758
 20
-163.0356987439633
 30
0.0
  0
ENDBLK
  5
2A4
330
2A1
100
AcDbEntity
  8
0
100
AcDbBlockEnd
  0
BLOCK
  5
2A8
330
2A6
100
AcDbEntity
  8
0
100
AcDbBlockBegin
  2
block 59
 70
     0
 71
     0
 10
0.0
 20
0.0
 30
0.0
  3
block 59
  1

  0
SPLINE
  5
2AA
330
2A6
100
AcDbEntity
  8
Calque 1
370
     0
100
AcDbSpline
210
0.0
220
0.0
230
1.0
 70
    11
 71
     3
 72
   107
 73
   103
 74
     0
 42
0.0000000001
 43
0.0000000001
 40
0.0
 40
0.0
 40
0.0
 40
0.0
 40
1.0
 40
1.0
 40
1.0
 40
2.0
 40
2.0
 40
2.0
 40
3.0
 40
3.0
 40
3.0
 40
4.0
 40
4.0
 40
4.0
 40
5.0
 40
5.0
 40
5.0
 40
6.0
 40
6.0
 40
6.0
 40
7.0
 40
7.0
 40
7.0
 40
8.0
 40
8.0
 40
8.0
 40
9.0
 40
9.0
 40
9.0
 40
10.0
 40
10.0
 40
10.0
 40
11.0
 40
11.0
 40
11.0
 40
12.0
 40
12.0
 40
12.0
 40
13.0
 40
13.0
 40
13.0
 40
14.0
 40
14.0
 40
14.0
 40
15.0
 40
15.0
 40
15.0
 40
16.0
 40
16.0
 40
16.0
 40
17.0
 40
17.0
 40
17.0
 40
18.0
 40
18.0
 40
18.0
 40
19.0
 40
19.0
 40
19.0
 40
20.0
 40
20.0
 40
20.0
 40
21.0
 40
21.0
 40
21.0
 40
22.0
 40
22.0
 40
22.0
 40
23.0
 40
23.0
 40
23.0
 40
24.0
 40
24.0
 40
24.0
 40
25.0
 40
25.0
 40
25.0
 40
26.0
 40
26.0
 40
26.0
 40
27.0
 40
27.0
 40
27.0
 40
28.0
 40
28.0
 40
28.0
 40
29.0
 40
29.0
 40
29.0
 40
30.0
 40
30.0
 40
30.0
 40
31.0
 40
31.0
 40
31.0
 40
32.0
 40
32.0
 40
32.0
 40
33.0
 40
33.0
 40
33.0
 40
34.0
 40
34.0
 40
34.0
 40
34.0
 10
234.0787352930428
 20
-163.0356987439633
 30
0.0
 10
234.0787352930428
 20
-163.0356987439633
 30
0.0
 10
233.723201438965
 20
-161.7193277590493
 30
0.0
 10
233.723201438965
 20
-161.7193277590493
 30
0.0
 10
233.723201438965
 20
-161.7193277590493
 30
0.0
 10
233.3821369859253
 20
-160.1349283453829
 30
0.0
 10
231.324036943037
 20
-160.1349283453829
 30
0.0
 10
231.324036943037
 20
-160.1349283453829
 30
0.0
 10
229.1191758324772
 20
-160.1349283453829
 30
0.0
 10
229.1191758324772
 20
-160.1349283453829
 30
0.0
 10
229.1191758324772
 20
-160.1349283453829
 30
0.0
 10
217.975669975888
 20
-160.1349283453829
 30
0.0
 10
217.975669975888
 20
-160.1349283453829
 30
0.0
 10
217.975669975888
 20
-160.1349283453829
 30
0.0
 10
216.6527533095521
 20
-160.1349283453829
 30
0.0
 10
216.6527533095521
 20
-160.1349283453829
 30
0.0
 10
214.1247422424758
 20
-160.1349283453829
 30
0.0
 10
214.0048529195891
 20
-162.1430745037351
 30
0.0
 10
214.0048529195891
 20
-162.1430745037351
 30
0.0
 10
214.0048529195891
 20
-162.1430745037351
 30
0.0
 10
214.0048529195891
 20
-163.8480522593852
 30
0.0
 10
214.0048529195891
 20
-163.8480522593852
 30
0.0
 10
214.0048529195891
 20
-163.8480522593852
 30
0.0
 10
214.0048529195891
 20
-172.6075520401814
 30
0.0
 10
214.0048529195891
 20
-172.6075520401814
 30
0.0
 10
214.0048529195891
 20
-172.6075520401814
 30
0.0
 10
219.1662949755904
 20
-172.6075520401814
 30
0.0
 10
219.1662949755904
 20
-172.6075520401814
 30
0.0
 10
219.1662949755904
 20
-172.6075520401814
 30
0.0
 10
219.1662949755904
 20
-175.504532833728
 30
0.0
 10
219.1662949755904
 20
-175.504532833728
 30
0.0
 10
219.1662949755904
 20
-175.504532833728
 30
0.0
 10
214.0048529195891
 20
-175.5489745654878
 30
0.0
 10
214.0048529195891
 20
-175.5489745654878
 30
0.0
 10
214.0048529195891
 20
-175.5489745654878
 30
0.0
 10
214.0048529195891
 20
-195.4127061143413
 30
0.0
 10
214.0048529195891
 20
-195.4127061143413
 30
0.0
 10
214.0048529195891
 20
-195.4127061143413
 30
0.0
 10
238.2328314291571
 20
-195.4127061143413
 30
0.0
 10
238.2328314291571
 20
-195.4127061143413
 30
0.0
 10
238.2328314291571
 20
-195.4127061143413
 30
0.0
 10
241.2906981818648
 20
-195.4127061143413
 30
0.0
 10
241.2906981818648
 20
-195.4127061143413
 30
0.0
 10
241.2906981818648
 20
-195.4127061143413
 30
0.0
 10
242.8216986155099
 20
-195.4209743435059
 30
0.0
 10
242.368324049651
 20
-193.7408012753495
 30
0.0
 10
242.368324049651
 20
-193.7408012753495
 30
0.0
 10
242.0761799525018
 20
-192.6607638407237
 30
0.0
 10
242.0761799525018
 20
-192.6607638407237
 30
0.0
 10
242.0761799525018
 20
-192.6607638407237
 30
0.0
 10
241.3589110724728
 20
-190.003906202499
 30
0.0
 10
241.3589110724728
 20
-190.003906202499
 30
0.0
 10
241.3589110724728
 20
-190.003906202499
 30
0.0
 10
241.0578097270619
 20
-189.0265326133336
 30
0.0
 10
241.0578097270619
 20
-189.0265326133336
 30
0.0
 10
241.0578097270619
 20
-189.0265326133336
 30
0.0
 10
231.3764023944128
 20
-191.9055989103569
 30
0.0
 10
231.3764023944128
 20
-191.9055989103569
 30
0.0
 10
231.3764023944128
 20
-191.9055989103569
 30
0.0
 10
230.5213296949738
 20
-189.0299777088189
 30
0.0
 10
230.5213296949738
 20
-189.0299777088189
 30
0.0
 10
230.5213296949738
 20
-189.0299777088189
 30
0.0
 10
240.3391628088388
 20
-186.22463645518
 30
0.0
 10
240.3391628088388
 20
-186.22463645518
 30
0.0
 10
240.3391628088388
 20
-186.22463645518
 30
0.0
 10
240.1538166717324
 20
-185.5400959822608
 30
0.0
 10
240.1538166717324
 20
-185.5400959822608
 30
0.0
 10
240.1538166717324
 20
-185.5400959822608
 30
0.0
 10
237.5341660647484
 20
-175.8349174907635
 30
0.0
 10
237.5341660647484
 20
-175.8349174907635
 30
0.0
 10
237.5341660647484
 20
-175.8349174907635
 30
0.0
 10
237.308167800916
 20
-174.9984483069449
 30
0.0
 10
237.308167800916
 20
-174.9984483069449
 30
0.0
 10
237.308167800916
 20
-174.9984483069449
 30
0.0
 10
227.9760931504713
 20
-177.7738172298621
 30
0.0
 10
227.9760931504713
 20
-177.7738172298621
 30
0.0
 10
227.9760931504713
 20
-177.7738172298621
 30
0.0
 10
227.1210204510323
 20
-174.8981960283241
 30
0.0
 10
227.1210204510323
 20
-174.8981960283241
 30
0.0
 10
227.1210204510323
 20
-174.8981960283241
 30
0.0
 10
236.5550699278404
 20
-172.0928547746851
 30
0.0
 10
236.5550699278404
 20
-172.0928547746851
 30
0.0
 10
236.5550699278404
 20
-172.0928547746851
 30
0.0
 10
236.3745469244133
 20
-171.5378498920114
 30
0.0
 10
236.3745469244133
 20
-171.5378498920114
 30
0.0
 10
236.3745469244133
 20
-171.5378498920114
 30
0.0
 10
235.515340110392
 20
-168.3576822495773
 30
0.0
 10
235.515340110392
 20
-168.3576822495773
 30
0.0
 10
235.515340110392
 20
-168.3576822495773
 30
0.0
 10
235.1046847285502
 20
-166.8363280832909
 30
0.0
 10
235.1046847285502
 20
-166.8363280832909
 30
0.0
 10
235.1046847285502
 20
-166.8363280832909
 30
0.0
 10
226.1081623783688
 20
-169.511789237136
 30
0.0
 10
226.1081623783688
 20
-169.511789237136
 30
0.0
 10
226.1081623783688
 20
-169.511789237136
 30
0.0
 10
225.2530896789298
 20
-166.6361680355979
 30
0.0
 10
225.2530896789298
 20
-166.6361680355979
 30
0.0
 10
225.2530896789298
 20
-166.6361680355979
 30
0.0
 10
234.3226480533985
 20
-163.9393472897443
 30
0.0
 10
234.3226480533985
 20
-163.9393472897443
 30
0.0
 10
234.3226480533985
 20
-163.9393472897443
 30
0.0
 10
234.0787352930428
 20
-163.0356987439633
 30
0.0
 10
234.0787352930428
 20
-163.0356987439633
 30
0.0
  0
ENDBLK
  5
2A9
330
2A6
100
AcDbEntity
  8
0
100
AcDbBlockEnd
  0
BLOCK
  5
2AD
330
2AB
100
AcDbEntity
  8
0
100
AcDbBlockBegin
  2
block 60
 70
     0
 71
     0
 10
0.0
 20
0.0
 30
0.0
  3
block 60
  1

  0
SPLINE
  5
2AF
330
2AB
100
AcDbEntity
  8
Calque 1
370
     0
100
AcDbSpline
210
0.0
220
0.0
230
1.0
 70
    11
 71
     3
 72
   107
 73
   103
 74
     0
 42
0.0000000001
 43
0.0000000001
 40
0.0
 40
0.0
 40
0.0
 40
0.0
 40
1.0
 40
1.0
 40
1.0
 40
2.0
 40
2.0
 40
2.0
 40
3.0
 40
3.0
 40
3.0
 40
4.0
 40
4.0
 40
4.0
 40
5.0
 40
5.0
 40
5.0
 40
6.0
 40
6.0
 40
6.0
 40
7.0
 40
7.0
 40
7.0
 40
8.0
 40
8.0
 40
8.0
 40
9.0
 40
9.0
 40
9.0
 40
10.0
 40
10.0
 40
10.0
 40
11.0
 40
11.0
 40
11.0
 40
12.0
 40
12.0
 40
12.0
 40
13.0
 40
13.0
 40
13.0
 40
14.0
 40
14.0
 40
14.0
 40
15.0
 40
15.0
 40
15.0
 40
16.0
 40
16.0
 40
16.0
 40
17.0
 40
17.0
 40
17.0
 40
18.0
 40
18.0
 40
18.0
 40
19.0
 40
19.0
 40
19.0
 40
20.0
 40
20.0
 40
20.0
 40
21.0
 40
21.0
 40
21.0
 40
22.0
 40
22.0
 40
22.0
 40
23.0
 40
23.0
 40
23.0
 40
24.0
 40
24.0
 40
24.0
 40
25.0
 40
25.0
 40
25.0
 40
26.0
 40
26.0
 40
26.0
 40
27.0
 40
27.0
 40
27.0
 40
28.0
 40
28.0
 40
28.0
 40
29.0
 40
29.0
 40
29.0
 40
30.0
 40
30.0
 40
30.0
 40
31.0
 40
31.0
 40
31.0
 40
32.0
 40
32.0
 40
32.0
 40
33.0
 40
33.0
 40
33.0
 40
34.0
 40
34.0
 40
34.0
 40
34.0
 10
267.2453585486401
 20
-163.0353542344148
 30
0.0
 10
267.2453585486401
 20
-163.0353542344148
 30
0.0
 10
266.8898246945623
 20
-161.7193277590493
 30
0.0
 10
266.8898246945623
 20
-161.7193277590493
 30
0.0
 10
266.8898246945623
 20
-161.7193277590493
 30
0.0
 10
266.5487602415225
 20
-160.1345838358344
 30
0.0
 10
264.4913492177313
 20
-160.1345838358344
 30
0.0
 10
264.4913492177313
 20
-160.1345838358344
 30
0.0
 10
262.2864881071715
 20
-160.1345838358344
 30
0.0
 10
262.2864881071715
 20
-160.1345838358344
 30
0.0
 10
262.2864881071715
 20
-160.1345838358344
 30
0.0
 10
251.1429822505823
 20
-160.1345838358344
 30
0.0
 10
251.1429822505823
 20
-160.1345838358344
 30
0.0
 10
251.1429822505823
 20
-160.1345838358344
 30
0.0
 10
249.8200655842464
 20
-160.1345838358344
 30
0.0
 10
249.8200655842464
 20
-160.1345838358344
 30
0.0
 10
247.291365498073
 20
-160.1345838358344
 30
0.0
 10
247.1714761751863
 20
-162.1430745037351
 30
0.0
 10
247.1714761751863
 20
-162.1430745037351
 30
0.0
 10
247.1714761751863
 20
-162.1430745037351
 30
0.0
 10
247.1714761751863
 20
-163.8477077498367
 30
0.0
 10
247.1714761751863
 20
-163.8477077498367
 30
0.0
 10
247.1714761751863
 20
-163.8477077498367
 30
0.0
 10
247.1714761751863
 20
-172.6075520401814
 30
0.0
 10
247.1714761751863
 20
-172.6075520401814
 30
0.0
 10
247.1714761751863
 20
-172.6075520401814
 30
0.0
 10
252.3329182311876
 20
-172.6075520401814
 30
0.0
 10
252.3329182311876
 20
-172.6075520401814
 30
0.0
 10
252.3329182311876
 20
-172.6075520401814
 30
0.0
 10
252.3329182311876
 20
-175.5041883241795
 30
0.0
 10
252.3329182311876
 20
-175.5041883241795
 30
0.0
 10
252.3329182311876
 20
-175.5041883241795
 30
0.0
 10
247.1714761751863
 20
-175.5489745654878
 30
0.0
 10
247.1714761751863
 20
-175.5489745654878
 30
0.0
 10
247.1714761751863
 20
-175.5489745654878
 30
0.0
 10
247.1714761751863
 20
-195.4123616047927
 30
0.0
 10
247.1714761751863
 20
-195.4123616047927
 30
0.0
 10
247.1714761751863
 20
-195.4123616047927
 30
0.0
 10
271.4001437038514
 20
-195.4123616047927
 30
0.0
 10
271.4001437038514
 20
-195.4123616047927
 30
0.0
 10
271.4001437038514
 20
-195.4123616047927
 30
0.0
 10
274.4573214374621
 20
-195.4123616047927
 30
0.0
 10
274.4573214374621
 20
-195.4123616047927
 30
0.0
 10
274.4573214374621
 20
-195.4123616047927
 30
0.0
 10
275.9890108902042
 20
-195.4206298339573
 30
0.0
 10
275.5349473052482
 20
-193.7408012753495
 30
0.0
 10
275.5349473052482
 20
-193.7408012753495
 30
0.0
 10
275.2434922271961
 20
-192.6604193311752
 30
0.0
 10
275.2434922271961
 20
-192.6604193311752
 30
0.0
 10
275.2434922271961
 20
-192.6604193311752
 30
0.0
 10
274.526223347167
 20
-190.0035616929505
 30
0.0
 10
274.526223347167
 20
-190.0035616929505
 30
0.0
 10
274.526223347167
 20
-190.0035616929505
 30
0.0
 10
274.2251220017562
 20
-189.0265326133336
 30
0.0
 10
274.2251220017562
 20
-189.0265326133336
 30
0.0
 10
274.2251220017562
 20
-189.0265326133336
 30
0.0
 10
264.5437146691071
 20
-191.9052544008084
 30
0.0
 10
264.5437146691071
 20
-191.9052544008084
 30
0.0
 10
264.5437146691071
 20
-191.9052544008084
 30
0.0
 10
263.6886419696681
 20
-189.0299777088189
 30
0.0
 10
263.6886419696681
 20
-189.0299777088189
 30
0.0
 10
263.6886419696681
 20
-189.0299777088189
 30
0.0
 10
273.5057860644361
 20
-186.2242919456314
 30
0.0
 10
273.5057860644361
 20
-186.2242919456314
 30
0.0
 10
273.5057860644361
 20
-186.2242919456314
 30
0.0
 10
273.3211289464267
 20
-185.5400959822608
 30
0.0
 10
273.3211289464267
 20
-185.5400959822608
 30
0.0
 10
273.3211289464267
 20
-185.5400959822608
 30
0.0
 10
270.7007893203456
 20
-175.8349174907635
 30
0.0
 10
270.7007893203456
 20
-175.8349174907635
 30
0.0
 10
270.7007893203456
 20
-175.8349174907635
 30
0.0
 10
270.4754800756103
 20
-174.9984483069449
 30
0.0
 10
270.4754800756103
 20
-174.9984483069449
 30
0.0
 10
270.4754800756103
 20
-174.9984483069449
 30
0.0
 10
261.1427164060685
 20
-177.7734727203136
 30
0.0
 10
261.1427164060685
 20
-177.7734727203136
 30
0.0
 10
261.1427164060685
 20
-177.7734727203136
 30
0.0
 10
260.2876437066295
 20
-174.8978515187756
 30
0.0
 10
260.2876437066295
 20
-174.8978515187756
 30
0.0
 10
260.2876437066295
 20
-174.8978515187756
 30
0.0
 10
269.7223822025347
 20
-172.0928547746851
 30
0.0
 10
269.7223822025347
 20
-172.0928547746851
 30
0.0
 10
269.7223822025347
 20
-172.0928547746851
 30
0.0
 10
269.5411701800106
 20
-171.5375053824629
 30
0.0
 10
269.5411701800106
 20
-171.5375053824629
 30
0.0
 10
269.5411701800106
 20
-171.5375053824629
 30
0.0
 10
268.6826523850863
 20
-168.3573377400287
 30
0.0
 10
268.6826523850863
 20
-168.3573377400287
 30
0.0
 10
268.6826523850863
 20
-168.3573377400287
 30
0.0
 10
268.2719970032445
 20
-166.8359835737424
 30
0.0
 10
268.2719970032445
 20
-166.8359835737424
 30
0.0
 10
268.2719970032445
 20
-166.8359835737424
 30
0.0
 10
259.2754746530631
 20
-169.511789237136
 30
0.0
 10
259.2754746530631
 20
-169.511789237136
 30
0.0
 10
259.2754746530631
 20
-169.511789237136
 30
0.0
 10
258.4204019536241
 20
-166.6361680355979
 30
0.0
 10
258.4204019536241
 20
-166.6361680355979
 30
0.0
 10
258.4204019536241
 20
-166.6361680355979
 30
0.0
 10
267.4892713089957
 20
-163.9393472897443
 30
0.0
 10
267.4892713089957
 20
-163.9393472897443
 30
0.0
 10
267.4892713089957
 20
-163.9393472897443
 30
0.0
 10
267.2453585486401
 20
-163.0353542344148
 30
0.0
 10
267.2453585486401
 20
-163.0353542344148
 30
0.0
  0
ENDBLK
  5
2AE
330
2AB
100
AcDbEntity
  8
0
100
AcDbBlockEnd
  0
BLOCK
  5
2B2
330
2B0
100
AcDbEntity
  8
0
100
AcDbBlockBegin
  2
block 61
 70
     0
 71
     0
 10
0.0
 20
0.0
 30
0.0
  3
block 61
  1

  0
SPLINE
  5
2B4
330
2B0
100
AcDbEntity
  8
Calque 1
370
     0
100
AcDbSpline
210
0.0
220
0.0
230
1.0
 70
    11
 71
     3
 72
   107
 73
   103
 74
     0
 42
0.0000000001
 43
0.0000000001
 40
0.0
 40
0.0
 40
0.0
 40
0.0
 40
1.0
 40
1.0
 40
1.0
 40
2.0
 40
2.0
 40
2.0
 40
3.0
 40
3.0
 40
3.0
 40
4.0
 40
4.0
 40
4.0
 40
5.0
 40
5.0
 40
5.0
 40
6.0
 40
6.0
 40
6.0
 40
7.0
 40
7.0
 40
7.0
 40
8.0
 40
8.0
 40
8.0
 40
9.0
 40
9.0
 40
9.0
 40
10.0
 40
10.0
 40
10.0
 40
11.0
 40
11.0
 40
11.0
 40
12.0
 40
12.0
 40
12.0
 40
13.0
 40
13.0
 40
13.0
 40
14.0
 40
14.0
 40
14.0
 40
15.0
 40
15.0
 40
15.0
 40
16.0
 40
16.0
 40
16.0
 40
17.0
 40
17.0
 40
17.0
 40
18.0
 40
18.0
 40
18.0
 40
19.0
 40
19.0
 40
19.0
 40
20.0
 40
20.0
 40
20.0
 40
21.0
 40
21.0
 40
21.0
 40
22.0
 40
22.0
 40
22.0
 40
23.0
 40
23.0
 40
23.0
 40
24.0
 40
24.0
 40
24.0
 40
25.0
 40
25.0
 40
25.0
 40
26.0
 40
26.0
 40
26.0
 40
27.0
 40
27.0
 40
27.0
 40
28.0
 40
28.0
 40
28.0
 40
29.0
 40
29.0
 40
29.0
 40
30.0
 40
30.0
 40
30.0
 40
31.0
 40
31.0
 40
31.0
 40
32.0
 40
32.0
 40
32.0
 40
33.0
 40
33.0
 40
33.0
 40
34.0
 40
34.0
 40
34.0
 40
34.0
 10
358.488023456385
 20
-118.092361081588
 30
0.0
 10
358.488023456385
 20
-118.092361081588
 30
0.0
 10
357.171652471471
 20
-118.4478949356658
 30
0.0
 10
357.171652471471
 20
-118.4478949356658
 30
0.0
 10
357.171652471471
 20
-118.4478949356658
 30
0.0
 10
355.5872530578046
 20
-118.7889593887055
 30
0.0
 10
355.5872530578046
 20
-120.8470594315938
 30
0.0
 10
355.5872530578046
 20
-120.8470594315938
 30
0.0
 10
355.5872530578046
 20
-123.0519205421537
 30
0.0
 10
355.5872530578046
 20
-123.0519205421537
 30
0.0
 10
355.5872530578046
 20
-123.0519205421537
 30
0.0
 10
355.5872530578046
 20
-134.1954263987428
 30
0.0
 10
355.5872530578046
 20
-134.1954263987428
 30
0.0
 10
355.5872530578046
 20
-134.1954263987428
 30
0.0
 10
355.5872530578046
 20
-135.5183430650788
 30
0.0
 10
355.5872530578046
 20
-135.5183430650788
 30
0.0
 10
355.5872530578046
 20
-138.0463541321551
 30
0.0
 10
357.5953992161567
 20
-138.1662434550418
 30
0.0
 10
357.5953992161567
 20
-138.1662434550418
 30
0.0
 10
357.5953992161567
 20
-138.1662434550418
 30
0.0
 10
359.3003769718069
 20
-138.1662434550418
 30
0.0
 10
359.3003769718069
 20
-138.1662434550418
 30
0.0
 10
359.3003769718069
 20
-138.1662434550418
 30
0.0
 10
368.0598767526031
 20
-138.1662434550418
 30
0.0
 10
368.0598767526031
 20
-138.1662434550418
 30
0.0
 10
368.0598767526031
 20
-138.1662434550418
 30
0.0
 10
368.0598767526031
 20
-133.0048013990405
 30
0.0
 10
368.0598767526031
 20
-133.0048013990405
 30
0.0
 10
368.0598767526031
 20
-133.0048013990405
 30
0.0
 10
370.9568575461497
 20
-133.0048013990405
 30
0.0
 10
370.9568575461497
 20
-133.0048013990405
 30
0.0
 10
370.9568575461497
 20
-133.0048013990405
 30
0.0
 10
371.0012992779094
 20
-138.1662434550418
 30
0.0
 10
371.0012992779094
 20
-138.1662434550418
 30
0.0
 10
371.0012992779094
 20
-138.1662434550418
 30
0.0
 10
390.8650308267629
 20
-138.1662434550418
 30
0.0
 10
390.8650308267629
 20
-138.1662434550418
 30
0.0
 10
390.8650308267629
 20
-138.1662434550418
 30
0.0
 10
390.8650308267629
 20
-113.9382649454738
 30
0.0
 10
390.8650308267629
 20
-113.9382649454738
 30
0.0
 10
390.8650308267629
 20
-113.9382649454738
 30
0.0
 10
390.8650308267629
 20
-110.880398192766
 30
0.0
 10
390.8650308267629
 20
-110.880398192766
 30
0.0
 10
390.8650308267629
 20
-110.880398192766
 30
0.0
 10
390.8732990559275
 20
-109.349397759121
 30
0.0
 10
389.1931259877712
 20
-109.8027723249799
 30
0.0
 10
389.1931259877712
 20
-109.8027723249799
 30
0.0
 10
388.1130885531454
 20
-110.0949164221291
 30
0.0
 10
388.1130885531454
 20
-110.0949164221291
 30
0.0
 10
388.1130885531454
 20
-110.0949164221291
 30
0.0
 10
385.4562309149207
 20
-110.8121853021581
 30
0.0
 10
385.4562309149207
 20
-110.8121853021581
 30
0.0
 10
385.4562309149207
 20
-110.8121853021581
 30
0.0
 10
384.4788573257553
 20
-111.1132866475689
 30
0.0
 10
384.4788573257553
 20
-111.1132866475689
 30
0.0
 10
384.4788573257553
 20
-111.1132866475689
 30
0.0
 10
387.3579236227786
 20
-120.794693980218
 30
0.0
 10
387.3579236227786
 20
-120.794693980218
 30
0.0
 10
387.3579236227786
 20
-120.794693980218
 30
0.0
 10
384.4823024212405
 20
-121.649766679657
 30
0.0
 10
384.4823024212405
 20
-121.649766679657
 30
0.0
 10
384.4823024212405
 20
-121.649766679657
 30
0.0
 10
381.6769611676016
 20
-111.831933565792
 30
0.0
 10
381.6769611676016
 20
-111.831933565792
 30
0.0
 10
381.6769611676016
 20
-111.831933565792
 30
0.0
 10
380.9924206946825
 20
-112.0172797028985
 30
0.0
 10
380.9924206946825
 20
-112.0172797028985
 30
0.0
 10
380.9924206946825
 20
-112.0172797028985
 30
0.0
 10
371.2872422031851
 20
-114.6369303098824
 30
0.0
 10
371.2872422031851
 20
-114.6369303098824
 30
0.0
 10
371.2872422031851
 20
-114.6369303098824
 30
0.0
 10
370.4507730193665
 20
-114.8629285737148
 30
0.0
 10
370.4507730193665
 20
-114.8629285737148
 30
0.0
 10
370.4507730193665
 20
-114.8629285737148
 30
0.0
 10
373.2261419422837
 20
-124.1950032241596
 30
0.0
 10
373.2261419422837
 20
-124.1950032241596
 30
0.0
 10
373.2261419422837
 20
-124.1950032241596
 30
0.0
 10
370.3505207407457
 20
-125.0500759235986
 30
0.0
 10
370.3505207407457
 20
-125.0500759235986
 30
0.0
 10
370.3505207407457
 20
-125.0500759235986
 30
0.0
 10
367.5451794871068
 20
-115.6160264467904
 30
0.0
 10
367.5451794871068
 20
-115.6160264467904
 30
0.0
 10
367.5451794871068
 20
-115.6160264467904
 30
0.0
 10
366.990174604433
 20
-115.7965494502175
 30
0.0
 10
366.990174604433
 20
-115.7965494502175
 30
0.0
 10
366.990174604433
 20
-115.7965494502175
 30
0.0
 10
363.8100069619989
 20
-116.6557562642388
 30
0.0
 10
363.8100069619989
 20
-116.6557562642388
 30
0.0
 10
363.8100069619989
 20
-116.6557562642388
 30
0.0
 10
362.2886527957126
 20
-117.0664116460806
 30
0.0
 10
362.2886527957126
 20
-117.0664116460806
 30
0.0
 10
362.2886527957126
 20
-117.0664116460806
 30
0.0
 10
364.9641139495576
 20
-126.062933996262
 30
0.0
 10
364.9641139495576
 20
-126.062933996262
 30
0.0
 10
364.9641139495576
 20
-126.062933996262
 30
0.0
 10
362.0884927480196
 20
-126.9180066957011
 30
0.0
 10
362.0884927480196
 20
-126.9180066957011
 30
0.0
 10
362.0884927480196
 20
-126.9180066957011
 30
0.0
 10
359.391672002166
 20
-117.8484483212323
 30
0.0
 10
359.391672002166
 20
-117.8484483212323
 30
0.0
 10
359.391672002166
 20
-117.8484483212323
 30
0.0
 10
358.488023456385
 20
-118.092361081588
 30
0.0
 10
358.488023456385
 20
-118.092361081588
 30
0.0
  0
ENDBLK
  5
2B3
330
2B0
100
AcDbEntity
  8
0
100
AcDbBlockEnd
  0
BLOCK
  5
2B7
330
2B5
100
AcDbEntity
  8
0
100
AcDbBlockBegin
  2
block 62
 70
     0
 71
     0
 10
0.0
 20
0.0
 30
0.0
  3
block 62
  1

  0
SPLINE
  5
2B9
330
2B5
100
AcDbEntity
  8
Calque 1
370
     0
100
AcDbSpline
210
0.0
220
0.0
230
1.0
 70
    11
 71
     3
 72
   107
 73
   103
 74
     0
 42
0.0000000001
 43
0.0000000001
 40
0.0
 40
0.0
 40
0.0
 40
0.0
 40
1.0
 40
1.0
 40
1.0
 40
2.0
 40
2.0
 40
2.0
 40
3.0
 40
3.0
 40
3.0
 40
4.0
 40
4.0
 40
4.0
 40
5.0
 40
5.0
 40
5.0
 40
6.0
 40
6.0
 40
6.0
 40
7.0
 40
7.0
 40
7.0
 40
8.0
 40
8.0
 40
8.0
 40
9.0
 40
9.0
 40
9.0
 40
10.0
 40
10.0
 40
10.0
 40
11.0
 40
11.0
 40
11.0
 40
12.0
 40
12.0
 40
12.0
 40
13.0
 40
13.0
 40
13.0
 40
14.0
 40
14.0
 40
14.0
 40
15.0
 40
15.0
 40
15.0
 40
16.0
 40
16.0
 40
16.0
 40
17.0
 40
17.0
 40
17.0
 40
18.0
 40
18.0
 40
18.0
 40
19.0
 40
19.0
 40
19.0
 40
20.0
 40
20.0
 40
20.0
 40
21.0
 40
21.0
 40
21.0
 40
22.0
 40
22.0
 40
22.0
 40
23.0
 40
23.0
 40
23.0
 40
24.0
 40
24.0
 40
24.0
 40
25.0
 40
25.0
 40
25.0
 40
26.0
 40
26.0
 40
26.0
 40
27.0
 40
27.0
 40
27.0
 40
28.0
 40
28.0
 40
28.0
 40
29.0
 40
29.0
 40
29.0
 40
30.0
 40
30.0
 40
30.0
 40
31.0
 40
31.0
 40
31.0
 40
32.0
 40
32.0
 40
32.0
 40
33.0
 40
33.0
 40
33.0
 40
34.0
 40
34.0
 40
34.0
 40
34.0
 10
358.488023456385
 20
-84.9257378259908
 30
0.0
 10
358.488023456385
 20
-84.9257378259908
 30
0.0
 10
357.171652471471
 20
-85.28127168006857
 30
0.0
 10
357.171652471471
 20
-85.28127168006857
 30
0.0
 10
357.171652471471
 20
-85.28127168006857
 30
0.0
 10
355.5872530578046
 20
-85.6223361331083
 30
0.0
 10
355.5872530578046
 20
-87.67974715689951
 30
0.0
 10
355.5872530578046
 20
-87.67974715689951
 30
0.0
 10
355.5872530578046
 20
-89.88460826745941
 30
0.0
 10
355.5872530578046
 20
-89.88460826745941
 30
0.0
 10
355.5872530578046
 20
-89.88460826745941
 30
0.0
 10
355.5872530578046
 20
-101.0281141240485
 30
0.0
 10
355.5872530578046
 20
-101.0281141240485
 30
0.0
 10
355.5872530578046
 20
-101.0281141240485
 30
0.0
 10
355.5872530578046
 20
-102.3510307903845
 30
0.0
 10
355.5872530578046
 20
-102.3510307903845
 30
0.0
 10
355.5872530578046
 20
-104.8797308765578
 30
0.0
 10
357.5953992161567
 20
-104.9996201994445
 30
0.0
 10
357.5953992161567
 20
-104.9996201994445
 30
0.0
 10
357.5953992161567
 20
-104.9996201994445
 30
0.0
 10
359.3003769718069
 20
-104.9996201994445
 30
0.0
 10
359.3003769718069
 20
-104.9996201994445
 30
0.0
 10
359.3003769718069
 20
-104.9996201994445
 30
0.0
 10
368.0598767526031
 20
-104.9996201994445
 30
0.0
 10
368.0598767526031
 20
-104.9996201994445
 30
0.0
 10
368.0598767526031
 20
-104.9996201994445
 30
0.0
 10
368.0598767526031
 20
-99.83817814344324
 30
0.0
 10
368.0598767526031
 20
-99.83817814344324
 30
0.0
 10
368.0598767526031
 20
-99.83817814344324
 30
0.0
 10
370.9568575461497
 20
-99.83817814344324
 30
0.0
 10
370.9568575461497
 20
-99.83817814344324
 30
0.0
 10
370.9568575461497
 20
-99.83817814344324
 30
0.0
 10
371.0012992779094
 20
-104.9996201994445
 30
0.0
 10
371.0012992779094
 20
-104.9996201994445
 30
0.0
 10
371.0012992779094
 20
-104.9996201994445
 30
0.0
 10
390.8650308267629
 20
-104.9996201994445
 30
0.0
 10
390.8650308267629
 20
-104.9996201994445
 30
0.0
 10
390.8650308267629
 20
-104.9996201994445
 30
0.0
 10
390.8650308267629
 20
-80.7709526707795
 30
0.0
 10
390.8650308267629
 20
-80.7709526707795
 30
0.0
 10
390.8650308267629
 20
-80.7709526707795
 30
0.0
 10
390.8650308267629
 20
-77.71377493716878
 30
0.0
 10
390.8650308267629
 20
-77.71377493716878
 30
0.0
 10
390.8650308267629
 20
-77.71377493716878
 30
0.0
 10
390.8732990559275
 20
-76.18208548442671
 30
0.0
 10
389.1931259877712
 20
-76.63614906938264
 30
0.0
 10
389.1931259877712
 20
-76.63614906938264
 30
0.0
 10
388.1130885531454
 20
-76.92760414743476
 30
0.0
 10
388.1130885531454
 20
-76.92760414743476
 30
0.0
 10
388.1130885531454
 20
-76.92760414743476
 30
0.0
 10
385.4562309149207
 20
-77.64487302746379
 30
0.0
 10
385.4562309149207
 20
-77.64487302746379
 30
0.0
 10
385.4562309149207
 20
-77.64487302746379
 30
0.0
 10
384.4788573257553
 20
-77.94597437287462
 30
0.0
 10
384.4788573257553
 20
-77.94597437287462
 30
0.0
 10
384.4788573257553
 20
-77.94597437287462
 30
0.0
 10
387.3579236227786
 20
-87.62738170552372
 30
0.0
 10
387.3579236227786
 20
-87.62738170552372
 30
0.0
 10
387.3579236227786
 20
-87.62738170552372
 30
0.0
 10
384.4823024212405
 20
-88.48245440496272
 30
0.0
 10
384.4823024212405
 20
-88.48245440496272
 30
0.0
 10
384.4823024212405
 20
-88.48245440496272
 30
0.0
 10
381.6769611676016
 20
-78.66531031019478
 30
0.0
 10
381.6769611676016
 20
-78.66531031019478
 30
0.0
 10
381.6769611676016
 20
-78.66531031019478
 30
0.0
 10
380.9924206946825
 20
-78.84996742820418
 30
0.0
 10
380.9924206946825
 20
-78.84996742820418
 30
0.0
 10
380.9924206946825
 20
-78.84996742820418
 30
0.0
 10
371.2872422031851
 20
-81.4703070542852
 30
0.0
 10
371.2872422031851
 20
-81.4703070542852
 30
0.0
 10
371.2872422031851
 20
-81.4703070542852
 30
0.0
 10
370.4507730193665
 20
-81.69561629902054
 30
0.0
 10
370.4507730193665
 20
-81.69561629902054
 30
0.0
 10
370.4507730193665
 20
-81.69561629902054
 30
0.0
 10
373.2261419422837
 20
-91.02837996856235
 30
0.0
 10
373.2261419422837
 20
-91.02837996856235
 30
0.0
 10
373.2261419422837
 20
-91.02837996856235
 30
0.0
 10
370.3505207407457
 20
-91.88345266800137
 30
0.0
 10
370.3505207407457
 20
-91.88345266800137
 30
0.0
 10
370.3505207407457
 20
-91.88345266800137
 30
0.0
 10
367.5451794871068
 20
-82.44871417209616
 30
0.0
 10
367.5451794871068
 20
-82.44871417209616
 30
0.0
 10
367.5451794871068
 20
-82.44871417209616
 30
0.0
 10
366.990174604433
 20
-82.6299261946203
 30
0.0
 10
366.990174604433
 20
-82.6299261946203
 30
0.0
 10
366.990174604433
 20
-82.6299261946203
 30
0.0
 10
363.8100069619989
 20
-83.48844398954456
 30
0.0
 10
363.8100069619989
 20
-83.48844398954456
 30
0.0
 10
363.8100069619989
 20
-83.48844398954456
 30
0.0
 10
362.2886527957126
 20
-83.89909937138634
 30
0.0
 10
362.2886527957126
 20
-83.89909937138634
 30
0.0
 10
362.2886527957126
 20
-83.89909937138634
 30
0.0
 10
364.9641139495576
 20
-92.89562172156776
 30
0.0
 10
364.9641139495576
 20
-92.89562172156776
 30
0.0
 10
364.9641139495576
 20
-92.89562172156776
 30
0.0
 10
362.0884927480196
 20
-93.75069442100677
 30
0.0
 10
362.0884927480196
 20
-93.75069442100677
 30
0.0
 10
362.0884927480196
 20
-93.75069442100677
 30
0.0
 10
359.391672002166
 20
-84.68182506563511
 30
0.0
 10
359.391672002166
 20
-84.68182506563511
 30
0.0
 10
359.391672002166
 20
-84.68182506563511
 30
0.0
 10
358.488023456385
 20
-84.9257378259908
 30
0.0
 10
358.488023456385
 20
-84.9257378259908
 30
0.0
  0
ENDBLK
  5
2B8
330
2B5
100
AcDbEntity
  8
0
100
AcDbBlockEnd
  0
BLOCK
  5
2BC
330
2BA
100
AcDbEntity
  8
0
100
AcDbBlockBegin
  2
block 63
 70
     0
 71
     0
 10
0.0
 20
0.0
 30
0.0
  3
block 63
  1

  0
SPLINE
  5
2BE
330
2BA
100
AcDbEntity
  8
Calque 1
370
     0
100
AcDbSpline
210
0.0
220
0.0
230
1.0
 70
    11
 71
     3
 72
   107
 73
   103
 74
     0
 42
0.0000000001
 43
0.0000000001
 40
0.0
 40
0.0
 40
0.0
 40
0.0
 40
1.0
 40
1.0
 40
1.0
 40
2.0
 40
2.0
 40
2.0
 40
3.0
 40
3.0
 40
3.0
 40
4.0
 40
4.0
 40
4.0
 40
5.0
 40
5.0
 40
5.0
 40
6.0
 40
6.0
 40
6.0
 40
7.0
 40
7.0
 40
7.0
 40
8.0
 40
8.0
 40
8.0
 40
9.0
 40
9.0
 40
9.0
 40
10.0
 40
10.0
 40
10.0
 40
11.0
 40
11.0
 40
11.0
 40
12.0
 40
12.0
 40
12.0
 40
13.0
 40
13.0
 40
13.0
 40
14.0
 40
14.0
 40
14.0
 40
15.0
 40
15.0
 40
15.0
 40
16.0
 40
16.0
 40
16.0
 40
17.0
 40
17.0
 40
17.0
 40
18.0
 40
18.0
 40
18.0
 40
19.0
 40
19.0
 40
19.0
 40
20.0
 40
20.0
 40
20.0
 40
21.0
 40
21.0
 40
21.0
 40
22.0
 40
22.0
 40
22.0
 40
23.0
 40
23.0
 40
23.0
 40
24.0
 40
24.0
 40
24.0
 40
25.0
 40
25.0
 40
25.0
 40
26.0
 40
26.0
 40
26.0
 40
27.0
 40
27.0
 40
27.0
 40
28.0
 40
28.0
 40
28.0
 40
29.0
 40
29.0
 40
29.0
 40
30.0
 40
30.0
 40
30.0
 40
31.0
 40
31.0
 40
31.0
 40
32.0
 40
32.0
 40
32.0
 40
33.0
 40
33.0
 40
33.0
 40
34.0
 40
34.0
 40
34.0
 40
34.0
 10
358.488023456385
 20
-51.47179360692372
 30
0.0
 10
358.488023456385
 20
-51.47179360692372
 30
0.0
 10
357.171652471471
 20
-51.8273274610015
 30
0.0
 10
357.171652471471
 20
-51.8273274610015
 30
0.0
 10
357.171652471471
 20
-51.8273274610015
 30
0.0
 10
355.5872530578046
 20
-52.16839191404124
 30
0.0
 10
355.5872530578046
 20
-54.22580293783244
 30
0.0
 10
355.5872530578046
 20
-54.22580293783244
 30
0.0
 10
355.5872530578046
 20
-56.43066404839234
 30
0.0
 10
355.5872530578046
 20
-56.43066404839234
 30
0.0
 10
355.5872530578046
 20
-56.43066404839234
 30
0.0
 10
355.5872530578046
 20
-67.57416990498146
 30
0.0
 10
355.5872530578046
 20
-67.57416990498146
 30
0.0
 10
355.5872530578046
 20
-67.57416990498146
 30
0.0
 10
355.5872530578046
 20
-68.8970865713174
 30
0.0
 10
355.5872530578046
 20
-68.8970865713174
 30
0.0
 10
355.5872530578046
 20
-71.42578665749078
 30
0.0
 10
357.5953992161567
 20
-71.54567598037747
 30
0.0
 10
357.5953992161567
 20
-71.54567598037747
 30
0.0
 10
357.5953992161567
 20
-71.54567598037747
 30
0.0
 10
359.3003769718069
 20
-71.54567598037747
 30
0.0
 10
359.3003769718069
 20
-71.54567598037747
 30
0.0
 10
359.3003769718069
 20
-71.54567598037747
 30
0.0
 10
368.0598767526031
 20
-71.54567598037747
 30
0.0
 10
368.0598767526031
 20
-71.54567598037747
 30
0.0
 10
368.0598767526031
 20
-71.54567598037747
 30
0.0
 10
368.0598767526031
 20
-66.38423392437616
 30
0.0
 10
368.0598767526031
 20
-66.38423392437616
 30
0.0
 10
368.0598767526031
 20
-66.38423392437616
 30
0.0
 10
370.9568575461497
 20
-66.38423392437616
 30
0.0
 10
370.9568575461497
 20
-66.38423392437616
 30
0.0
 10
370.9568575461497
 20
-66.38423392437616
 30
0.0
 10
371.0012992779094
 20
-71.54567598037747
 30
0.0
 10
371.0012992779094
 20
-71.54567598037747
 30
0.0
 10
371.0012992779094
 20
-71.54567598037747
 30
0.0
 10
390.8650308267629
 20
-71.54567598037747
 30
0.0
 10
390.8650308267629
 20
-71.54567598037747
 30
0.0
 10
390.8650308267629
 20
-71.54567598037747
 30
0.0
 10
390.8650308267629
 20
-47.31700845171242
 30
0.0
 10
390.8650308267629
 20
-47.31700845171242
 30
0.0
 10
390.8650308267629
 20
-47.31700845171242
 30
0.0
 10
390.8650308267629
 20
-44.25983071810171
 30
0.0
 10
390.8650308267629
 20
-44.25983071810171
 30
0.0
 10
390.8650308267629
 20
-44.25983071810171
 30
0.0
 10
390.8732990559275
 20
-42.72814126535963
 30
0.0
 10
389.1931259877712
 20
-43.18220485031556
 30
0.0
 10
389.1931259877712
 20
-43.18220485031556
 30
0.0
 10
388.1130885531454
 20
-43.4736599283677
 30
0.0
 10
388.1130885531454
 20
-43.4736599283677
 30
0.0
 10
388.1130885531454
 20
-43.4736599283677
 30
0.0
 10
385.4562309149207
 20
-44.19092880839671
 30
0.0
 10
385.4562309149207
 20
-44.19092880839671
 30
0.0
 10
385.4562309149207
 20
-44.19092880839671
 30
0.0
 10
384.4788573257553
 20
-44.49203015380755
 30
0.0
 10
384.4788573257553
 20
-44.49203015380755
 30
0.0
 10
384.4788573257553
 20
-44.49203015380755
 30
0.0
 10
387.3579236227786
 20
-54.17343748645664
 30
0.0
 10
387.3579236227786
 20
-54.17343748645664
 30
0.0
 10
387.3579236227786
 20
-54.17343748645664
 30
0.0
 10
384.4823024212405
 20
-55.02851018589566
 30
0.0
 10
384.4823024212405
 20
-55.02851018589566
 30
0.0
 10
384.4823024212405
 20
-55.02851018589566
 30
0.0
 10
381.6769611676016
 20
-45.21136609112772
 30
0.0
 10
381.6769611676016
 20
-45.21136609112772
 30
0.0
 10
381.6769611676016
 20
-45.21136609112772
 30
0.0
 10
380.9924206946825
 20
-45.39602320913711
 30
0.0
 10
380.9924206946825
 20
-45.39602320913711
 30
0.0
 10
380.9924206946825
 20
-45.39602320913711
 30
0.0
 10
371.2872422031851
 20
-48.01636283521813
 30
0.0
 10
371.2872422031851
 20
-48.01636283521813
 30
0.0
 10
371.2872422031851
 20
-48.01636283521813
 30
0.0
 10
370.4507730193665
 20
-48.24167207995347
 30
0.0
 10
370.4507730193665
 20
-48.24167207995347
 30
0.0
 10
370.4507730193665
 20
-48.24167207995347
 30
0.0
 10
373.2261419422837
 20
-57.57443574949528
 30
0.0
 10
373.2261419422837
 20
-57.57443574949528
 30
0.0
 10
373.2261419422837
 20
-57.57443574949528
 30
0.0
 10
370.3505207407457
 20
-58.42950844893429
 30
0.0
 10
370.3505207407457
 20
-58.42950844893429
 30
0.0
 10
370.3505207407457
 20
-58.42950844893429
 30
0.0
 10
367.5451794871068
 20
-48.99476995302908
 30
0.0
 10
367.5451794871068
 20
-48.99476995302908
 30
0.0
 10
367.5451794871068
 20
-48.99476995302908
 30
0.0
 10
366.990174604433
 20
-49.17598197555323
 30
0.0
 10
366.990174604433
 20
-49.17598197555323
 30
0.0
 10
366.990174604433
 20
-49.17598197555323
 30
0.0
 10
363.8100069619989
 20
-50.03449977047749
 30
0.0
 10
363.8100069619989
 20
-50.03449977047749
 30
0.0
 10
363.8100069619989
 20
-50.03449977047749
 30
0.0
 10
362.2886527957126
 20
-50.44515515231927
 30
0.0
 10
362.2886527957126
 20
-50.44515515231927
 30
0.0
 10
362.2886527957126
 20
-50.44515515231927
 30
0.0
 10
364.9641139495576
 20
-59.4416775025007
 30
0.0
 10
364.9641139495576
 20
-59.4416775025007
 30
0.0
 10
364.9641139495576
 20
-59.4416775025007
 30
0.0
 10
362.0884927480196
 20
-60.2967502019397
 30
0.0
 10
362.0884927480196
 20
-60.2967502019397
 30
0.0
 10
362.0884927480196
 20
-60.2967502019397
 30
0.0
 10
359.391672002166
 20
-51.22788084656803
 30
0.0
 10
359.391672002166
 20
-51.22788084656803
 30
0.0
 10
359.391672002166
 20
-51.22788084656803
 30
0.0
 10
358.488023456385
 20
-51.47179360692372
 30
0.0
 10
358.488023456385
 20
-51.47179360692372
 30
0.0
  0
ENDBLK
  5
2BD
330
2BA
100
AcDbEntity
  8
0
100
AcDbBlockEnd
  0
BLOCK
  5
2C1
330
2BF
100
AcDbEntity
  8
0
100
AcDbBlockBegin
  2
block 64
 70
     0
 71
     0
 10
0.0
 20
0.0
 30
0.0
  3
block 64
  1

  0
SPLINE
  5
2C3
330
2BF
100
AcDbEntity
  8
Calque 1
370
     0
100
AcDbSpline
210
0.0
220
0.0
230
1.0
 70
    11
 71
     3
 72
   107
 73
   103
 74
     0
 42
0.0000000001
 43
0.0000000001
 40
0.0
 40
0.0
 40
0.0
 40
0.0
 40
1.0
 40
1.0
 40
1.0
 40
2.0
 40
2.0
 40
2.0
 40
3.0
 40
3.0
 40
3.0
 40
4.0
 40
4.0
 40
4.0
 40
5.0
 40
5.0
 40
5.0
 40
6.0
 40
6.0
 40
6.0
 40
7.0
 40
7.0
 40
7.0
 40
8.0
 40
8.0
 40
8.0
 40
9.0
 40
9.0
 40
9.0
 40
10.0
 40
10.0
 40
10.0
 40
11.0
 40
11.0
 40
11.0
 40
12.0
 40
12.0
 40
12.0
 40
13.0
 40
13.0
 40
13.0
 40
14.0
 40
14.0
 40
14.0
 40
15.0
 40
15.0
 40
15.0
 40
16.0
 40
16.0
 40
16.0
 40
17.0
 40
17.0
 40
17.0
 40
18.0
 40
18.0
 40
18.0
 40
19.0
 40
19.0
 40
19.0
 40
20.0
 40
20.0
 40
20.0
 40
21.0
 40
21.0
 40
21.0
 40
22.0
 40
22.0
 40
22.0
 40
23.0
 40
23.0
 40
23.0
 40
24.0
 40
24.0
 40
24.0
 40
25.0
 40
25.0
 40
25.0
 40
26.0
 40
26.0
 40
26.0
 40
27.0
 40
27.0
 40
27.0
 40
28.0
 40
28.0
 40
28.0
 40
29.0
 40
29.0
 40
29.0
 40
30.0
 40
30.0
 40
30.0
 40
31.0
 40
31.0
 40
31.0
 40
32.0
 40
32.0
 40
32.0
 40
33.0
 40
33.0
 40
33.0
 40
34.0
 40
34.0
 40
34.0
 40
34.0
 10
358.488023456385
 20
-18.30448133222944
 30
0.0
 10
358.488023456385
 20
-18.30448133222944
 30
0.0
 10
357.171652471471
 20
-18.66001518630722
 30
0.0
 10
357.171652471471
 20
-18.66001518630722
 30
0.0
 10
357.171652471471
 20
-18.66001518630722
 30
0.0
 10
355.5872530578046
 20
-19.00107963934695
 30
0.0
 10
355.5872530578046
 20
-21.05917968223521
 30
0.0
 10
355.5872530578046
 20
-21.05917968223521
 30
0.0
 10
355.5872530578046
 20
-23.2640407927951
 30
0.0
 10
355.5872530578046
 20
-23.2640407927951
 30
0.0
 10
355.5872530578046
 20
-23.2640407927951
 30
0.0
 10
355.5872530578046
 20
-34.40754664938422
 30
0.0
 10
355.5872530578046
 20
-34.40754664938422
 30
0.0
 10
355.5872530578046
 20
-34.40754664938422
 30
0.0
 10
355.5872530578046
 20
-35.73046331572016
 30
0.0
 10
355.5872530578046
 20
-35.73046331572016
 30
0.0
 10
355.5872530578046
 20
-38.25847438279649
 30
0.0
 10
357.5953992161567
 20
-38.37836370568319
 30
0.0
 10
357.5953992161567
 20
-38.37836370568319
 30
0.0
 10
357.5953992161567
 20
-38.37836370568319
 30
0.0
 10
359.3003769718069
 20
-38.37836370568319
 30
0.0
 10
359.3003769718069
 20
-38.37836370568319
 30
0.0
 10
359.3003769718069
 20
-38.37836370568319
 30
0.0
 10
368.0598767526031
 20
-38.37836370568319
 30
0.0
 10
368.0598767526031
 20
-38.37836370568319
 30
0.0
 10
368.0598767526031
 20
-38.37836370568319
 30
0.0
 10
368.0598767526031
 20
-33.21692164968188
 30
0.0
 10
368.0598767526031
 20
-33.21692164968188
 30
0.0
 10
368.0598767526031
 20
-33.21692164968188
 30
0.0
 10
370.9568575461497
 20
-33.21692164968188
 30
0.0
 10
370.9568575461497
 20
-33.21692164968188
 30
0.0
 10
370.9568575461497
 20
-33.21692164968188
 30
0.0
 10
371.0012992779094
 20
-38.37836370568319
 30
0.0
 10
371.0012992779094
 20
-38.37836370568319
 30
0.0
 10
371.0012992779094
 20
-38.37836370568319
 30
0.0
 10
390.8650308267629
 20
-38.37836370568319
 30
0.0
 10
390.8650308267629
 20
-38.37836370568319
 30
0.0
 10
390.8650308267629
 20
-38.37836370568319
 30
0.0
 10
390.8650308267629
 20
-14.15038519611518
 30
0.0
 10
390.8650308267629
 20
-14.15038519611518
 30
0.0
 10
390.8650308267629
 20
-14.15038519611518
 30
0.0
 10
390.8650308267629
 20
-11.09251844340743
 30
0.0
 10
390.8650308267629
 20
-11.09251844340743
 30
0.0
 10
390.8650308267629
 20
-11.09251844340743
 30
0.0
 10
390.8732990559275
 20
-9.561518009762398
 30
0.0
 10
389.1931259877712
 20
-10.01489257562128
 30
0.0
 10
389.1931259877712
 20
-10.01489257562128
 30
0.0
 10
388.1130885531454
 20
-10.30703667277046
 30
0.0
 10
388.1130885531454
 20
-10.30703667277046
 30
0.0
 10
388.1130885531454
 20
-10.30703667277046
 30
0.0
 10
385.4562309149207
 20
-11.02430555279948
 30
0.0
 10
385.4562309149207
 20
-11.02430555279948
 30
0.0
 10
385.4562309149207
 20
-11.02430555279948
 30
0.0
 10
384.4788573257553
 20
-11.32540689821032
 30
0.0
 10
384.4788573257553
 20
-11.32540689821032
 30
0.0
 10
384.4788573257553
 20
-11.32540689821032
 30
0.0
 10
387.3579236227786
 20
-21.00681423085941
 30
0.0
 10
387.3579236227786
 20
-21.00681423085941
 30
0.0
 10
387.3579236227786
 20
-21.00681423085941
 30
0.0
 10
384.4823024212405
 20
-21.86188693029842
 30
0.0
 10
384.4823024212405
 20
-21.86188693029842
 30
0.0
 10
384.4823024212405
 20
-21.86188693029842
 30
0.0
 10
381.6769611676016
 20
-12.04405381643343
 30
0.0
 10
381.6769611676016
 20
-12.04405381643343
 30
0.0
 10
381.6769611676016
 20
-12.04405381643343
 30
0.0
 10
380.9924206946825
 20
-12.22939995353987
 30
0.0
 10
380.9924206946825
 20
-12.22939995353987
 30
0.0
 10
380.9924206946825
 20
-12.22939995353987
 30
0.0
 10
371.2872422031851
 20
-14.84905056052385
 30
0.0
 10
371.2872422031851
 20
-14.84905056052385
 30
0.0
 10
371.2872422031851
 20
-14.84905056052385
 30
0.0
 10
370.4507730193665
 20
-15.07504882435624
 30
0.0
 10
370.4507730193665
 20
-15.07504882435624
 30
0.0
 10
370.4507730193665
 20
-15.07504882435624
 30
0.0
 10
373.2261419422837
 20
-24.407123474801
 30
0.0
 10
373.2261419422837
 20
-24.407123474801
 30
0.0
 10
373.2261419422837
 20
-24.407123474801
 30
0.0
 10
370.3505207407457
 20
-25.26219617424001
 30
0.0
 10
370.3505207407457
 20
-25.26219617424001
 30
0.0
 10
370.3505207407457
 20
-25.26219617424001
 30
0.0
 10
367.5451794871068
 20
-15.82814669743185
 30
0.0
 10
367.5451794871068
 20
-15.82814669743185
 30
0.0
 10
367.5451794871068
 20
-15.82814669743185
 30
0.0
 10
366.990174604433
 20
-16.00866970085895
 30
0.0
 10
366.990174604433
 20
-16.00866970085895
 30
0.0
 10
366.990174604433
 20
-16.00866970085895
 30
0.0
 10
363.8100069619989
 20
-16.86787651488025
 30
0.0
 10
363.8100069619989
 20
-16.86787651488025
 30
0.0
 10
363.8100069619989
 20
-16.86787651488025
 30
0.0
 10
362.2886527957126
 20
-17.27853189672203
 30
0.0
 10
362.2886527957126
 20
-17.27853189672203
 30
0.0
 10
362.2886527957126
 20
-17.27853189672203
 30
0.0
 10
364.9641139495576
 20
-26.27505424690346
 30
0.0
 10
364.9641139495576
 20
-26.27505424690346
 30
0.0
 10
364.9641139495576
 20
-26.27505424690346
 30
0.0
 10
362.0884927480196
 20
-27.13012694634247
 30
0.0
 10
362.0884927480196
 20
-27.13012694634247
 30
0.0
 10
362.0884927480196
 20
-27.13012694634247
 30
0.0
 10
359.391672002166
 20
-18.06056857187375
 30
0.0
 10
359.391672002166
 20
-18.06056857187375
 30
0.0
 10
359.391672002166
 20
-18.06056857187375
 30
0.0
 10
358.488023456385
 20
-18.30448133222944
 30
0.0
 10
358.488023456385
 20
-18.30448133222944
 30
0.0
  0
ENDBLK
  5
2C2
330
2BF
100
AcDbEntity
  8
0
100
AcDbBlockEnd
  0
BLOCK
  5
2C6
330
2C4
100
AcDbEntity
  8
0
100
AcDbBlockBegin
  2
block 65
 70
     0
 71
     0
 10
0.0
 20
0.0
 30
0.0
  3
block 65
  1

  0
SPLINE
  5
2C8
330
2C4
100
AcDbEntity
  8
Calque 1
370
     0
100
AcDbSpline
210
0.0
220
0.0
230
1.0
 70
    11
 71
     3
 72
    17
 73
    13
 74
     0
 42
0.0000000001
 43
0.0000000001
 40
0.0
 40
0.0
 40
0.0
 40
0.0
 40
1.0
 40
1.0
 40
1.0
 40
2.0
 40
2.0
 40
2.0
 40
3.0
 40
3.0
 40
3.0
 40
4.0
 40
4.0
 40
4.0
 40
4.0
 10
491.920361205145
 20
-57.32208250520073
 30
0.0
 10
491.920361205145
 20
-82.17465682624453
 30
0.0
 10
471.7734428074039
 20
-102.3215752239856
 30
0.0
 10
446.9205239768116
 20
-102.3215752239856
 30
0.0
 10
422.0676051462193
 20
-102.3215752239856
 30
0.0
 10
401.9206867484782
 20
-82.17465682624453
 30
0.0
 10
401.9206867484782
 20
-57.32208250520073
 30
0.0
 10
401.9206867484782
 20
-32.4691636746084
 30
0.0
 10
422.0676051462193
 20
-12.32224527686736
 30
0.0
 10
446.9205239768116
 20
-12.32224527686736
 30
0.0
 10
471.7734428074039
 20
-12.32224527686736
 30
0.0
 10
491.920361205145
 20
-32.4691636746084
 30
0.0
 10
491.920361205145
 20
-57.32208250520073
 30
0.0
  0
SPLINE
  5
2C9
330
2C4
100
AcDbEntity
  8
Calque 1
370
     0
100
AcDbSpline
210
0.0
220
0.0
230
1.0
 70
    11
 71
     3
 72
    17
 73
    13
 74
     0
 42
0.0000000001
 43
0.0000000001
 40
0.0
 40
0.0
 40
0.0
 40
0.0
 40
1.0
 40
1.0
 40
1.0
 40
2.0
 40
2.0
 40
2.0
 40
3.0
 40
3.0
 40
3.0
 40
4.0
 40
4.0
 40
4.0
 40
4.0
 10
453.9206134932907
 20
-57.32208250520073
 30
0.0
 10
453.9206134932907
 20
-61.18782414919958
 30
0.0
 10
450.7862656208104
 20
-64.32148300258282
 30
0.0
 10
446.9205239768116
 20
-64.32148300258282
 30
0.0
 10
443.0544378232642
 20
-64.32148300258282
 30
0.0
 10
439.9204344603324
 20
-61.18782414919958
 30
0.0
 10
439.9204344603324
 20
-57.32208250520073
 30
0.0
 10
439.9204344603324
 20
-53.45599635165336
 30
0.0
 10
443.0544378232642
 20
-50.32199298872159
 30
0.0
 10
446.9205239768116
 20
-50.32199298872159
 30
0.0
 10
450.7862656208104
 20
-50.32199298872159
 30
0.0
 10
453.9206134932907
 20
-53.45599635165336
 30
0.0
 10
453.9206134932907
 20
-57.32208250520073
 30
0.0
  0
POLYLINE
  5
2CA
330
2C4
100
AcDbEntity
  8
Calque 1
370
     0
100
AcDb2dPolyline
 66
     1
 10
0.0
 20
0.0
 30
0.0
  0
VERTEX
  5
2CB
330
2CA
100
AcDbEntity
  8
Calque 1
370
     0
100
AcDbVertex
100
AcDb2dVertex
 10
452.9205022739227
 20
-78.43121607197206
 30
0.0
  0
VERTEX
  5
2CC
330
2CA
100
AcDbEntity
  8
Calque 1
370
     0
100
AcDbVertex
100
AcDb2dVertex
 10
440.9205456797005
 20
-78.43121607197206
 30
0.0
  0
VERTEX
  5
2CD
330
2CA
100
AcDbEntity
  8
Calque 1
370
     0
100
AcDbVertex
100
AcDb2dVertex
 10
440.9205456797005
 20
-69.43124862630539
 30
0.0
  0
VERTEX
  5
2CE
330
2CA
100
AcDbEntity
  8
Calque 1
370
     0
100
AcDbVertex
100
AcDb2dVertex
 10
452.9205022739227
 20
-69.43124862630539
 30
0.0
  0
VERTEX
  5
2CF
330
2CA
100
AcDbEntity
  8
Calque 1
370
     0
100
AcDbVertex
100
AcDb2dVertex
 10
452.9205022739227
 20
-78.43121607197206
 30
0.0
  0
SEQEND
  5
2D0
330
2CA
100
AcDbEntity
  8
Calque 1
370
     0
  0
ENDBLK
  5
2C7
330
2C4
100
AcDbEntity
  8
0
100
AcDbBlockEnd
  0
ENDSEC
  0
SECTION
  2
ENTITIES
  0
INSERT
  5
3D
330
1F
100
AcDbEntity
  8
Calque 1
100
AcDbBlockReference
  2
block 2
 10
0.0
 20
0.0
 30
0.0
  0
INSERT
  5
161
330
1F
100
AcDbEntity
  8
Calque 1
100
AcDbBlockReference
  2
block 27
 10
0.0
 20
0.0
 30
0.0
  0
INSERT
  5
285
330
1F
100
AcDbEntity
  8
Calque 1
100
AcDbBlockReference
  2
block 52
 10
0.0
 20
0.0
 30
0.0
  0
INSERT
  5
2B1
330
1F
100
AcDbEntity
  8
Calque 1
100
AcDbBlockReference
  2
block 61
 10
0.0
 20
0.0
 30
0.0
  0
INSERT
  5
2B6
330
1F
100
AcDbEntity
  8
Calque 1
100
AcDbBlockReference
  2
block 62
 10
0.0
 20
0.0
 30
0.0
  0
INSERT
  5
2BB
330
1F
100
AcDbEntity
  8
Calque 1
100
AcDbBlockReference
  2
block 63
 10
0.0
 20
0.0
 30
0.0
  0
INSERT
  5
2C0
330
1F
100
AcDbEntity
  8
Calque 1
100
AcDbBlockReference
  2
block 64
 10
0.0
 20
0.0
 30
0.0
  0
INSERT
  5
2C5
330
1F
100
AcDbEntity
  8
Calque 1
100
AcDbBlockReference
  2
block 65
 10
0.0
 20
0.0
 30
0.0
  0
ENDSEC
  0
SECTION
  2
OBJECTS
  0
DICTIONARY
  5
C
330
0
100
AcDbDictionary
281
     1
  3
ACAD_GROUP
350
D
  3
ACAD_LAYOUT
350
1A
  3
ACAD_MLINESTYLE
350
17
  3
ACAD_PLOTSETTINGS
350
19
  3
ACAD_PLOTSTYLENAME
350
E
  3
ACAD_TABLESTYLE
350
331
  3
ACAD_VISUALSTYLE
350
2A
  0
DICTIONARY
  5
D
102
{ACAD_REACTORS
330
C
102
}
330
C
100
AcDbDictionary
281
     1
  0
DICTIONARY
  5
1A
102
{ACAD_REACTORS
330
C
102
}
330
C
100
AcDbDictionary
281
     1
  3
Layout1
350
1E
  3
Layout2
350
26
  3
Model
350
22
  0
DICTIONARY
  5
17
102
{ACAD_REACTORS
330
C
102
}
330
C
100
AcDbDictionary
281
     1
  3
Standard
350
18
  0
DICTIONARY
  5
19
102
{ACAD_REACTORS
330
C
102
}
330
C
100
AcDbDictionary
281
     1
  0
ACDBDICTIONARYWDFLT
  5
E
102
{ACAD_REACTORS
330
C
102
}
330
C
100
AcDbDictionary
281
     1
  3
Normal
350
F
100
AcDbDictionaryWithDefault
340
F
  0
DICTIONARY
  5
331
102
{ACAD_REACTORS
330
C
102
}
330
C
100
AcDbDictionary
281
     1
  0
DICTIONARY
  5
2A
102
{ACAD_REACTORS
330
C
102
}
330
C
100
AcDbDictionary
281
     1
  3
2dWireframe
350
2F
  3
3D Hidden
350
31
  3
3dWireframe
350
30
  3
Basic
350
32
  3
Brighten
350
36
  3
ColorChange
350
3A
  3
Conceptual
350
34
  3
Dim
350
35
  3
Facepattern
350
39
  3
Flat
350
2B
  3
FlatWithEdges
350
2C
  3
Gouraud
350
2D
  3
GouraudWithEdges
350
2E
  3
Linepattern
350
38
  3
Realistic
350
33
  3
Thicken
350
37
  0
LAYOUT
  5
1E
102
{ACAD_REACTORS
330
1A
102
}
330
1A
100
AcDbPlotSettings
  1

  2
none_device
  4

  6

 40
0.0
 41
0.0
 42
0.0
 43
0.0
 44
0.0
 45
0.0
 46
0.0
 47
0.0
 48
0.0
 49
0.0
140
0.0
141
0.0
142
1.0
143
1.0
 70
   688
 72
     0
 73
     0
 74
     5
  7

 75
    16
147
1.0
148
0.0
149
0.0
100
AcDbLayout
  1
Layout1
 70
     1
 71
     1
 10
0.0
 20
0.0
 11
12.0
 21
9.0
 12
0.0
 22
0.0
 32
0.0
 14
1.000000000000000E+20
 24
1.000000000000000E+20
 34
1.000000000000000E+20
 15
-1.000000000000000E+20
 25
-1.000000000000000E+20
 35
-1.000000000000000E+20
146
0.0
 13
0.0
 23
0.0
 33
0.0
 16
1.0
 26
0.0
 36
0.0
 17
0.0
 27
1.0
 37
0.0
 76
     0
330
1B
  0
LAYOUT
  5
26
102
{ACAD_REACTORS
330
1A
102
}
330
1A
100
AcDbPlotSettings
  1

  2
none_device
  4

  6

 40
0.0
 41
0.0
 42
0.0
 43
0.0
 44
0.0
 45
0.0
 46
0.0
 47
0.0
 48
0.0
 49
0.0
140
0.0
141
0.0
142
1.0
143
1.0
 70
   688
 72
     0
 73
     0
 74
     5
  7

 75
    16
147
1.0
148
0.0
149
0.0
100
AcDbLayout
  1
Layout2
 70
     1
 71
     2
 10
0.0
 20
0.0
 11
0.0
 21
0.0
 12
0.0
 22
0.0
 32
0.0
 14
0.0
 24
0.0
 34
0.0
 15
0.0
 25
0.0
 35
0.0
146
0.0
 13
0.0
 23
0.0
 33
0.0
 16
1.0
 26
0.0
 36
0.0
 17
0.0
 27
1.0
 37
0.0
 76
     0
330
23
  0
LAYOUT
  5
22
102
{ACAD_REACTORS
330
1A
102
}
330
1A
100
AcDbPlotSettings
  1

  2
none_device
  4

  6

 40
0.0
 41
0.0
 42
0.0
 43
0.0
 44
0.0
 45
0.0
 46
0.0
 47
0.0
 48
0.0
 49
0.0
140
0.0
141
0.0
142
1.0
143
1.0
 70
  1712
 72
     0
 73
     0
 74
     0
  7

 75
     0
147
1.0
148
0.0
149
0.0
100
AcDbLayout
  1
Model
 70
     1
 71
     0
 10
0.0
 20
0.0
 11
12.0
 21
9.0
 12
0.0
 22
0.0
 32
0.0
 14
1.000000000000000E+20
 24
1.000000000000000E+20
 34
1.000000000000000E+20
 15
-1.000000000000000E+20
 25
-1.000000000000000E+20
 35
-1.000000000000000E+20
146
0.0
 13
0.0
 23
0.0
 33
0.0
 16
1.0
 26
0.0
 36
0.0
 17
0.0
 27
1.0
 37
0.0
 76
     0
330
1F
331
29
  0
MLINESTYLE
  5
18
102
{ACAD_REACTORS
330
17
102
}
330
17
100
AcDbMlineStyle
  2
Standard
 70
     0
  3

 62
   256
 51
90.0
 52
90.0
 71
     2
 49
0.5
 62
   256
  6
BYLAYER
 49
-0.5
 62
   256
  6
BYLAYER
  0
ACDBPLACEHOLDER
  5
F
102
{ACAD_REACTORS
330
E
102
}
330
E
  0
VISUALSTYLE
  5
2F
102
{ACAD_REACTORS
330
2A
102
}
330
2A
100
AcDbVisualStyle
  2
2dWireframe
 70
     4
 71
     0
 72
     2
 73
     0
 90
        0
 40
-0.6
 41
-30.0
 62
     5
 63
     7
 74
     1
 91
        4
 64
     7
 65
   257
 75
     1
175
     1
 42
1.0
 92
        0
 66
   257
 43
1.0
 76
     1
 77
     6
 78
     2
 67
     7
 79
     5
170
     0
171
     0
290
     0
174
     0
 93
        1
 44
0.0
173
     0
291
     0
 45
0.0
1001
ACAD
1000
AcDbSavedByObjectVersion
1070
     0
  0
VISUALSTYLE
  5
31
102
{ACAD_REACTORS
330
2A
102
}
330
2A
100
AcDbVisualStyle
  2
3D Hidden
 70
     6
 71
     1
 72
     2
 73
     2
 90
        0
 40
-0.6
 41
-30.0
 62
     5
 63
     7
 74
     2
 91
        2
 64
     7
 65
   257
 75
     2
175
     1
 42
40.0
 92
        0
 66
   257
 43
1.0
 76
     1
 77
     6
 78
     2
 67
     7
 79
     3
170
     0
171
     0
290
     0
174
     0
 93
        1
 44
0.0
173
     0
291
     0
 45
0.0
1001
ACAD
1000
AcDbSavedByObjectVersion
1070
     0
  0
VISUALSTYLE
  5
30
102
{ACAD_REACTORS
330
2A
102
}
330
2A
100
AcDbVisualStyle
  2
3dWireframe
 70
     5
 71
     0
 72
     2
 73
     0
 90
        0
 40
-0.6
 41
-30.0
 62
     5
 63
     7
 74
     1
 91
        4
 64
     7
 65
   257
 75
     1
175
     1
 42
1.0
 92
        0
 66
   257
 43
1.0
 76
     1
 77
     6
 78
     2
 67
     7
 79
     5
170
     0
171
     0
290
     0
174
     0
 93
        1
 44
0.0
173
     0
291
     0
 45
0.0
1001
ACAD
1000
AcDbSavedByObjectVersion
1070
     0
  0
VISUALSTYLE
  5
32
102
{ACAD_REACTORS
330
2A
102
}
330
2A
100
AcDbVisualStyle
  2
Basic
 70
     7
 71
     1
 72
     0
 73
     1
 90
        0
 40
-0.6
 41
-30.0
 62
     5
 63
     7
 74
     0
 91
        4
 64
     7
 65
   257
 75
     1
175
     1
 42
1.0
 92
        8
 66
     7
 43
1.0
 76
     1
 77
     6
 78
     2
 67
     7
 79
     5
170
     0
171
     0
290
     0
174
     0
 93
        1
 44
0.0
173
     0
291
     1
 45
0.0
1001
ACAD
1000
AcDbSavedByObjectVersion
1070
     0
  0
VISUALSTYLE
  5
36
102
{ACAD_REACTORS
330
2A
102
}
330
2A
100
AcDbVisualStyle
  2
Brighten
 70
    12
 71
     2
 72
     2
 73
     0
 90
        0
 40
-0.6
 41
-30.0
 62
     5
 63
     7
 74
     1
 91
        4
 64
     7
 65
   257
 75
     1
175
     1
 42
1.0
 92
        8
 66
     7
 43
1.0
 76
     1
 77
     6
 78
     2
 67
     7
 79
     5
170
     0
171
     0
290
     0
174
     0
 93
        1
 44
50.0
173
     0
291
     1
 45
0.0
1001
ACAD
1000
AcDbSavedByObjectVersion
1070
     0
  0
VISUALSTYLE
  5
3A
102
{ACAD_REACTORS
330
2A
102
}
330
2A
100
AcDbVisualStyle
  2
ColorChange
 70
    16
 71
     2
 72
     2
 73
     3
 90
        0
 40
-0.6
 41
-30.0
 62
     5
 63
     8
 74
     1
 91
        4
 64
     7
 65
   257
 75
     1
175
     1
 42
1.0
 92
        8
 66
     8
 43
1.0
 76
     1
 77
     6
 78
     2
 67
     7
 79
     5
170
     0
171
     0
290
     0
174
     0
 93
        1
 44
0.0
173
     0
291
     1
 45
0.0
1001
ACAD
1000
AcDbSavedByObjectVersion
1070
     0
  0
VISUALSTYLE
  5
34
102
{ACAD_REACTORS
330
2A
102
}
330
2A
100
AcDbVisualStyle
  2
Conceptual
 70
     9
 71
     3
 72
     2
 73
     0
 90
        0
 40
-0.6
 41
-30.0
 62
     5
 63
     7
 74
     2
 91
        2
 64
     7
 65
   257
 75
     1
175
     1
 42
40.0
 92
        8
 66
     7
 43
1.0
 76
     1
 77
     6
 78
     2
 67
     7
 79
     3
170
     0
171
     0
290
     0
174
     0
 93
        1
 44
0.0
173
     0
291
     0
 45
0.0
1001
ACAD
1000
AcDbSavedByObjectVersion
1070
     0
  0
VISUALSTYLE
  5
35
102
{ACAD_REACTORS
330
2A
102
}
330
2A
100
AcDbVisualStyle
  2
Dim
 70
    11
 71
     2
 72
     2
 73
     0
 90
        0
 40
-0.6
 41
-30.0
 62
     5
 63
     7
 74
     1
 91
        4
 64
     7
 65
   257
 75
     1
175
     1
 42
1.0
 92
        8
 66
     7
 43
1.0
 76
     1
 77
     6
 78
     2
 67
     7
 79
     5
170
     0
171
     0
290
     0
174
     0
 93
        1
 44
-50.0
173
     0
291
     1
 45
0.0
1001
ACAD
1000
AcDbSavedByObjectVersion
1070
     0
  0
VISUALSTYLE
  5
39
102
{ACAD_REACTORS
330
2A
102
}
330
2A
100
AcDbVisualStyle
  2
Facepattern
 70
    15
 71
     2
 72
     2
 73
     0
 90
        0
 40
-0.6
 41
-30.0
 62
     5
 63
     7
 74
     1
 91
        4
 64
     7
 65
   257
 75
     1
175
     1
 42
1.0
 92
        8
 66
     7
 43
1.0
 76
     1
 77
     6
 78
     2
 67
     7
 79
     5
170
     0
171
     0
290
     0
174
     0
 93
        1
 44
0.0
173
     0
291
     1
 45
0.0
1001
ACAD
1000
AcDbSavedByObjectVersion
1070
     0
  0
VISUALSTYLE
  5
2B
102
{ACAD_REACTORS
330
2A
102
}
330
2A
100
AcDbVisualStyle
  2
Flat
 70
     0
 71
     2
 72
     1
 73
     1
 90
        2
 40
-0.6
 41
30.0
 62
     5
 63
     7
 74
     0
 91
        4
 64
     7
 65
   257
 75
     1
175
     1
 42
1.0
 92
        8
 66
     7
 43
1.0
 76
     1
 77
     6
 78
     2
 67
     7
 79
     5
170
     0
171
     0
290
     0
174
     0
 93
       13
 44
0.0
173
     0
291
     1
 45
0.0
1001
ACAD
1000
AcDbSavedByObjectVersion
1070
     0
  0
VISUALSTYLE
  5
2C
102
{ACAD_REACTORS
330
2A
102
}
330
2A
100
AcDbVisualStyle
  2
FlatWithEdges
 70
     1
 71
     2
 72
     1
 73
     1
 90
        2
 40
-0.6
 41
30.0
 62
     5
 63
     7
 74
     1
 91
        4
 64
     7
 65
   257
 75
     1
175
     1
 42
1.0
 92
        0
 66
   257
 43
1.0
 76
     1
 77
     6
 78
     2
 67
     7
 79
     5
170
     0
171
     0
290
     0
174
     0
 93
       13
 44
0.0
173
     0
291
     1
 45
0.0
1001
ACAD
1000
AcDbSavedByObjectVersion
1070
     0
  0
VISUALSTYLE
  5
2D
102
{ACAD_REACTORS
330
2A
102
}
330
2A
100
AcDbVisualStyle
  2
Gouraud
 70
     2
 71
     2
 72
     2
 73
     1
 90
        2
 40
-0.6
 41
30.0
 62
     5
 63
     7
 74
     0
 91
        4
 64
     7
 65
   257
 75
     1
175
     1
 42
1.0
 92
        0
 66
     7
 43
1.0
 76
     1
 77
     6
 78
     2
 67
     7
 79
     5
170
     0
171
     0
290
     0
174
     0
 93
       13
 44
0.0
173
     0
291
     1
 45
0.0
1001
ACAD
1000
AcDbSavedByObjectVersion
1070
     0
  0
VISUALSTYLE
  5
2E
102
{ACAD_REACTORS
330
2A
102
}
330
2A
100
AcDbVisualStyle
  2
GouraudWithEdges
 70
     3
 71
     2
 72
     2
 73
     1
 90
        2
 40
-0.6
 41
30.0
 62
     5
 63
     7
 74
     1
 91
        4
 64
     7
 65
   257
 75
     1
175
     1
 42
1.0
 92
        0
 66
   257
 43
1.0
 76
     1
 77
     6
 78
     2
 67
     7
 79
     5
170
     0
171
     0
290
     0
174
     0
 93
       13
 44
0.0
173
     0
291
     1
 45
0.0
1001
ACAD
1000
AcDbSavedByObjectVersion
1070
     0
  0
VISUALSTYLE
  5
38
102
{ACAD_REACTORS
330
2A
102
}
330
2A
100
AcDbVisualStyle
  2
Linepattern
 70
    14
 71
     2
 72
     2
 73
     0
 90
        0
 40
-0.6
 41
-30.0
 62
     5
 63
     7
 74
     1
 91
        4
 64
     7
 65
   257
 75
     7
175
     7
 42
1.0
 92
        8
 66
     7
 43
1.0
 76
     1
 77
     6
 78
     2
 67
     7
 79
     5
170
     0
171
     0
290
     0
174
     0
 93
        1
 44
0.0
173
     0
291
     1
 45
0.0
1001
ACAD
1000
AcDbSavedByObjectVersion
1070
     0
  0
VISUALSTYLE
  5
33
102
{ACAD_REACTORS
330
2A
102
}
330
2A
100
AcDbVisualStyle
  2
Realistic
 70
     8
 71
     2
 72
     2
 73
     0
 90
        0
 40
-0.6
 41
-30.0
 62
     5
 63
     7
 74
     1
 91
        0
 64
     7
 65
   257
 75
     1
175
     1
 42
1.0
 92
        8
 66
     8
 43
1.0
 76
     1
 77
     6
 78
     2
 67
     7
 79
     5
170
     0
171
     0
290
     0
174
     0
 93
       13
 44
0.0
173
     0
291
     0
 45
0.0
1001
ACAD
1000
AcDbSavedByObjectVersion
1070
     0
  0
VISUALSTYLE
  5
37
102
{ACAD_REACTORS
330
2A
102
}
330
2A
100
AcDbVisualStyle
  2
Thicken
 70
    13
 71
     2
 72
     2
 73
     0
 90
        0
 40
-0.6
 41
-30.0
 62
     5
 63
     7
 74
     1
 91
        4
 64
     7
 65
   257
 75
     1
175
     1
 42
1.0
 92
       12
 66
     7
 43
1.0
 76
     1
 77
     6
 78
     2
 67
     7
 79
     5
170
     0
171
     0
290
     0
174
     0
 93
        1
 44
0.0
173
     0
291
     1
 45
0.0
1001
ACAD
1000
AcDbSavedByObjectVersion
1070
     0
  0
ENDSEC
  0
EOF
