  0
SECTION
  2
HEADER
  9
$ACADVER
  1
AC1015
  9
$ACADMAINTVER
 70
     6
  9
$DWGCODEPAGE
  3
ANSI_1252
  9
$INSBASE
 10
0.0
 20
0.0
 30
0.0
  9
$EXTMIN
 10
-95.4770023536
 20
-56.0
 30
0.0
  9
$EXTMAX
 10
55.0
 20
55.0
 30
0.0
  9
$LIMMIN
 10
0.0
 20
0.0
  9
$LIMMAX
 10
420.0
 20
297.0
  9
$ORTHOMODE
 70
     0
  9
$REGENMODE
 70
     1
  9
$FILLMODE
 70
     1
  9
$QTEXTMODE
 70
     0
  9
$MIRRTEXT
 70
     1
  9
$LTSCALE
 40
1.0
  9
$ATTMODE
 70
     1
  9
$TEXTSIZE
 40
3.5
  9
$TRACEWID
 40
1.0
  9
$TEXTSTYLE
  7
Standard
  9
$CLAYER
  8
0
  9
$CELTYPE
  6
ByLayer
  9
$CECOLOR
 62
   256
  9
$CELTSCALE
 40
1.0
  9
$DISPSILH
 70
     0
  9
$DIMSCALE
 40
1.0
  9
$DIMASZ
 40
3.302
  9
$DIMEXO
 40
1.0
  9
$DIMDLI
 40
3.75
  9
$DIMRND
 40
0.0
  9
$DIMDLE
 40
0.0
  9
$DIMEXE
 40
1.0
  9
$DIMTP
 40
0.0
  9
$DIMTM
 40
0.0
  9
$DIMTXT
 40
3.5
  9
$DIMCEN
 40
2.5
  9
$DIMTSZ
 40
0.0
  9
$DIMTOL
 70
     0
  9
$DIMLIM
 70
     0
  9
$DIMTIH
 70
     1
  9
$DIMTOH
 70
     1
  9
$DIMSE1
 70
     0
  9
$DIMSE2
 70
     0
  9
$DIMTAD
 70
     1
  9
$DIMZIN
 70
     0
  9
$DIMBLK
  1

  9
$DIMASO
 70
     1
  9
$DIMSHO
 70
     1
  9
$DIMPOST
  1

  9
$DIMAPOST
  1

  9
$DIMALT
 70
     0
  9
$DIMALTD
 70
     3
  9
$DIMALTF
 40
0.0393700787
  9
$DIMLFAC
 40
1.0
  9
$DIMTOFL
 70
     1
  9
$DIMTVP
 40
0.0
  9
$DIMTIX
 70
     0
  9
$DIMSOXD
 70
     0
  9
$DIMSAH
 70
     0
  9
$DIMBLK1
  1

  9
$DIMBLK2
  1

  9
$DIMSTYLE
  2
ISO-25
  9
$DIMCLRD
 70
     0
  9
$DIMCLRE
 70
     0
  9
$DIMCLRT
 70
     0
  9
$DIMTFAC
 40
1.0
  9
$DIMGAP
 40
1.524
  9
$DIMJUST
 70
     0
  9
$DIMSD1
 70
     0
  9
$DIMSD2
 70
     0
  9
$DIMTOLJ
 70
     0
  9
$DIMTZIN
 70
     0
  9
$DIMALTZ
 70
     0
  9
$DIMALTTZ
 70
     0
  9
$DIMUPT
 70
     0
  9
$DIMDEC
 70
     2
  9
$DIMTDEC
 70
     2
  9
$DIMALTU
 70
     2
  9
$DIMALTTD
 70
     3
  9
$DIMTXSTY
  7
Standard
  9
$DIMAUNIT
 70
     0
  9
$DIMADEC
 70
     2
  9
$DIMALTRND
 40
0.0
  9
$DIMAZIN
 70
     0
  9
$DIMDSEP
 70
    44
  9
$DIMATFIT
 70
     3
  9
$DIMFRAC
 70
     0
  9
$DIMLDRBLK
  1

  9
$DIMLUNIT
 70
     2
  9
$DIMLWD
 70
    -2
  9
$DIMLWE
 70
    -2
  9
$DIMTMOVE
 70
     0
  9
$LUNITS
 70
     2
  9
$LUPREC
 70
     2
  9
$SKETCHINC
 40
1.0
  9
$FILLETRAD
 40
10.0
  9
$AUNITS
 70
     0
  9
$AUPREC
 70
     2
  9
$MENU
  1
.
  9
$ELEVATION
 40
0.0
  9
$PELEVATION
 40
0.0
  9
$THICKNESS
 40
0.0
  9
$LIMCHECK
 70
     0
  9
$CHAMFERA
 40
0.0
  9
$CHAMFERB
 40
0.0
  9
$CHAMFERC
 40
0.0
  9
$CHAMFERD
 40
0.0
  9
$SKPOLY
 70
     0
  9
$TDCREATE
 40
2458258.67963294
  9
$TDUCREATE
 40
2458258.596299606
  9
$TDUPDATE
 40
2458258.679687431
  9
$TDUUPDATE
 40
2458258.596354097
  9
$TDINDWG
 40
0.0000000116
  9
$TDUSRTIMER
 40
0.0000000116
  9
$USRTIMER
 70
     1
  9
$ANGBASE
 50
0.0
  9
$ANGDIR
 70
     0
  9
$PDMODE
 70
     0
  9
$PDSIZE
 40
-1.0
  9
$PLINEWID
 40
0.0
  9
$SPLFRAME
 70
     0
  9
$SPLINETYPE
 70
     6
  9
$SPLINESEGS
 70
     8
  9
$HANDSEED
  5
17E
  9
$SURFTAB1
 70
     6
  9
$SURFTAB2
 70
     6
  9
$SURFTYPE
 70
     6
  9
$SURFU
 70
     6
  9
$SURFV
 70
     6
  9
$UCSBASE
  2

  9
$UCSNAME
  2

  9
$UCSORG
 10
0.0
 20
0.0
 30
0.0
  9
$UCSXDIR
 10
1.0
 20
0.0
 30
0.0
  9
$UCSYDIR
 10
0.0
 20
1.0
 30
0.0
  9
$UCSORTHOREF
  2

  9
$UCSORTHOVIEW
 70
     0
  9
$UCSORGTOP
 10
0.0
 20
0.0
 30
0.0
  9
$UCSORGBOTTOM
 10
0.0
 20
0.0
 30
0.0
  9
$UCSORGLEFT
 10
0.0
 20
0.0
 30
0.0
  9
$UCSORGRIGHT
 10
0.0
 20
0.0
 30
0.0
  9
$UCSORGFRONT
 10
0.0
 20
0.0
 30
0.0
  9
$UCSORGBACK
 10
0.0
 20
0.0
 30
0.0
  9
$PUCSBASE
  2

  9
$PUCSNAME
  2

  9
$PUCSORG
 10
0.0
 20
0.0
 30
0.0
  9
$PUCSXDIR
 10
1.0
 20
0.0
 30
0.0
  9
$PUCSYDIR
 10
0.0
 20
1.0
 30
0.0
  9
$PUCSORTHOREF
  2

  9
$PUCSORTHOVIEW
 70
     0
  9
$PUCSORGTOP
 10
0.0
 20
0.0
 30
0.0
  9
$PUCSORGBOTTOM
 10
0.0
 20
0.0
 30
0.0
  9
$PUCSORGLEFT
 10
0.0
 20
0.0
 30
0.0
  9
$PUCSORGRIGHT
 10
0.0
 20
0.0
 30
0.0
  9
$PUCSORGFRONT
 10
0.0
 20
0.0
 30
0.0
  9
$PUCSORGBACK
 10
0.0
 20
0.0
 30
0.0
  9
$USERI1
 70
     0
  9
$USERI2
 70
     0
  9
$USERI3
 70
     0
  9
$USERI4
 70
     0
  9
$USERI5
 70
     0
  9
$USERR1
 40
0.0
  9
$USERR2
 40
0.0
  9
$USERR3
 40
0.0
  9
$USERR4
 40
0.0
  9
$USERR5
 40
0.0
  9
$WORLDVIEW
 70
     1
  9
$SHADEDGE
 70
     3
  9
$SHADEDIF
 70
    70
  9
$TILEMODE
 70
     1
  9
$MAXACTVP
 70
    64
  9
$PINSBASE
 10
0.0
 20
0.0
 30
0.0
  9
$PLIMCHECK
 70
     0
  9
$PEXTMIN
 10
1.0000000000E+20
 20
1.0000000000E+20
 30
1.0000000000E+20
  9
$PEXTMAX
 10
-1.0000000000E+20
 20
-1.0000000000E+20
 30
-1.0000000000E+20
  9
$PLIMMIN
 10
0.0
 20
0.0
  9
$PLIMMAX
 10
420.0
 20
297.0
  9
$UNITMODE
 70
     0
  9
$VISRETAIN
 70
     1
  9
$PLINEGEN
 70
     0
  9
$PSLTSCALE
 70
     1
  9
$TREEDEPTH
 70
  3020
  9
$CMLSTYLE
  2
Standard
  9
$CMLJUST
 70
     0
  9
$CMLSCALE
 40
20.0
  9
$PROXYGRAPHICS
 70
     1
  9
$MEASUREMENT
 70
     1
  9
$CELWEIGHT
370
    -1
  9
$ENDCAPS
280
     0
  9
$JOINSTYLE
280
     0
  9
$LWDISPLAY
290
     1
  9
$INSUNITS
 70
     4
  9
$HYPERLINKBASE
  1

  9
$STYLESHEET
  1

  9
$XEDIT
290
     1
  9
$CEPSNTYPE
380
     0
  9
$PSTYLEMODE
290
     1
  9
$FINGERPRINTGUID
  2
{F8E49D9C-FC01-46FD-854D-FAA8928635AF}
  9
$VERSIONGUID
  2
{FAEB1C32-E019-11D5-929B-00C0DF256EC4}
  9
$EXTNAMES
290
     1
  9
$PSVPSCALE
 40
0.0
  9
$OLESTARTUP
290
     0
  0
ENDSEC
  0
SECTION
  2
CLASSES
  0
CLASS
  1
ACDBDICTIONARYWDFLT
  2
AcDbDictionaryWithDefault
  3
ObjectDBX Classes
 90
        0
280
     0
281
     0
  0
CLASS
  1
VISUALSTYLE
  2
AcDbVisualStyle
  3
ObjectDBX Classes
 90
     4095
280
     0
281
     0
  0
CLASS
  1
MATERIAL
  2
AcDbMaterial
  3
ObjectDBX Classes
 90
     1153
280
     0
281
     0
  0
CLASS
  1
SCALE
  2
AcDbScale
  3
ObjectDBX Classes
 90
     1153
280
     0
281
     0
  0
CLASS
  1
TABLESTYLE
  2
AcDbTableStyle
  3
ObjectDBX Classes
 90
     4095
280
     0
281
     0
  0
CLASS
  1
MLEADERSTYLE
  2
AcDbMLeaderStyle
  3
ACDB_MLEADERSTYLE_CLASS
 90
     4095
280
     0
281
     0
  0
CLASS
  1
SUN
  2
AcDbSun
  3
SCENEOE
 90
     1153
280
     0
281
     0
  0
CLASS
  1
ACDBPLACEHOLDER
  2
AcDbPlaceHolder
  3
ObjectDBX Classes
 90
        0
280
     0
281
     0
  0
CLASS
  1
LAYOUT
  2
AcDbLayout
  3
ObjectDBX Classes
 90
        0
280
     0
281
     0
  0
ENDSEC
  0
SECTION
  2
TABLES
  0
TABLE
  2
VPORT
  5
8
330
0
100
AcDbSymbolTable
 70
     1
  0
VPORT
  5
29
330
8
100
AcDbSymbolTableRecord
100
AcDbViewportTableRecord
  2
*Active
 70
     0
 10
0.0
 20
0.0
 11
1.0
 21
1.0
 12
-20.2385011768
 22
-0.5
 13
0.0
 23
0.0
 14
10.0
 24
10.0
 15
10.0
 25
10.0
 16
0.0
 26
0.0
 36
1.0
 17
0.0
 27
0.0
 37
0.0
 40
113.22
 41
1.3556486699
 42
50.0
 43
0.0
 44
0.0
 50
0.0
 51
0.0
 71
     0
 72
   100
 73
     1
 74
     3
 75
     0
 76
     0
 77
     0
 78
     0
281
     0
 65
     1
110
0.0
120
0.0
130
0.0
111
1.0
121
0.0
131
0.0
112
0.0
122
1.0
132
0.0
 79
     0
146
0.0
  0
ENDTAB
  0
TABLE
  2
LTYPE
  5
5
330
0
100
AcDbSymbolTable
 70
     6
  0
LTYPE
  5
14
330
5
100
AcDbSymbolTableRecord
100
AcDbLinetypeTableRecord
  2
ByBlock
 70
     0
  3

 72
    65
 73
     0
 40
0.0
  0
LTYPE
  5
15
330
5
100
AcDbSymbolTableRecord
100
AcDbLinetypeTableRecord
  2
ByLayer
 70
     0
  3

 72
    65
 73
     0
 40
0.0
  0
LTYPE
  5
16
330
5
100
AcDbSymbolTableRecord
100
AcDbLinetypeTableRecord
  2
Continuous
 70
     0
  3
Solid line
 72
    65
 73
     0
 40
0.0
  0
LTYPE
  5
6E
330
5
100
AcDbSymbolTableRecord
100
AcDbLinetypeTableRecord
  2
HIDDEN
 70
     0
  3
Hidden __ __ __ __ __ __ __ __ __ __ __ __ __ __
 72
    65
 73
     2
 40
1.905
 49
1.27
 74
     0
 49
-0.635
 74
     0
  0
LTYPE
  5
6F
330
5
100
AcDbSymbolTableRecord
100
AcDbLinetypeTableRecord
  2
PHANTOM
 70
     0
  3
Phantom ______  __  __  ______  __  __  ______
 72
    65
 73
     6
 40
12.7
 49
6.35
 74
     0
 49
-1.27
 74
     0
 49
1.27
 74
     0
 49
-1.27
 74
     0
 49
1.27
 74
     0
 49
-1.27
 74
     0
  0
LTYPE
  5
70
330
5
100
AcDbSymbolTableRecord
100
AcDbLinetypeTableRecord
  2
CENTER
 70
     0
  3
Center ____ _ ____ _ ____ _ ____ _ ____ _ ____
 72
    65
 73
     4
 40
10.16
 49
6.35
 74
     0
 49
-1.27
 74
     0
 49
1.27
 74
     0
 49
-1.27
 74
     0
  0
LTYPE
  5
71
330
5
100
AcDbSymbolTableRecord
100
AcDbLinetypeTableRecord
  2
CENTERX2
 70
     0
  3
Center (2x) ________  __  ________  __  _____
 72
    65
 73
     4
 40
20.32
 49
12.7
 74
     0
 49
-2.54
 74
     0
 49
2.54
 74
     0
 49
-2.54
 74
     0
  0
LTYPE
  5
72
330
5
100
AcDbSymbolTableRecord
100
AcDbLinetypeTableRecord
  2
DOT2
 70
     0
  3
Dot (.5x) ........................................
 72
    65
 73
     2
 40
0.635
 49
0.0
 74
     0
 49
-0.635
 74
     0
  0
ENDTAB
  0
TABLE
  2
LAYER
  5
2
330
0
100
AcDbSymbolTable
 70
     1
  0
LAYER
  5
10
330
2
100
AcDbSymbolTableRecord
100
AcDbLayerTableRecord
  2
0
 70
     0
 62
     7
  6
Continuous
370
    -3
390
F
  0
ENDTAB
  0
TABLE
  2
STYLE
  5
3
330
0
100
AcDbSymbolTable
 70
     1
  0
STYLE
  5
11
330
3
100
AcDbSymbolTableRecord
100
AcDbTextStyleTableRecord
  2
Standard
 70
     0
 40
0.0
 41
1.0
 50
0.0
 71
     0
 42
3.5
  3
txt
  4

  0
ENDTAB
  0
TABLE
  2
VIEW
  5
6
330
0
100
AcDbSymbolTable
 70
     0
  0
ENDTAB
  0
TABLE
  2
UCS
  5
7
330
0
100
AcDbSymbolTable
 70
     0
  0
ENDTAB
  0
TABLE
  2
APPID
  5
9
330
0
100
AcDbSymbolTable
 70
     1
  0
APPID
  5
12
330
9
100
AcDbSymbolTableRecord
100
AcDbRegAppTableRecord
  2
ACAD
 70
     0
  0
ENDTAB
  0
TABLE
  2
DIMSTYLE
  5
A
330
0
100
AcDbSymbolTable
 70
     1
100
AcDbDimStyleTable
  0
DIMSTYLE
105
27
330
A
100
AcDbSymbolTableRecord
100
AcDbDimStyleTableRecord
  2
ISO-25
 70
     0
 41
2.5
 42
0.625
 43
3.75
 44
1.25
 73
     0
 74
     0
 77
     1
 78
     8
140
2.5
141
2.5
143
0.0393700787
147
0.625
171
     3
172
     1
178
     0
271
     2
272
     2
274
     3
278
    44
283
     0
284
     8
340
11
  0
ENDTAB
  0
TABLE
  2
BLOCK_RECORD
  5
1
330
0
100
AcDbSymbolTable
 70
     1
  0
BLOCK_RECORD
  5
1F
330
1
100
AcDbSymbolTableRecord
100
AcDbBlockTableRecord
  2
*Model_Space
340
22
  0
BLOCK_RECORD
  5
1B
330
1
100
AcDbSymbolTableRecord
100
AcDbBlockTableRecord
  2
*Paper_Space
340
1E
  0
BLOCK_RECORD
  5
23
330
1
100
AcDbSymbolTableRecord
100
AcDbBlockTableRecord
  2
*Paper_Space0
340
26
  0
ENDTAB
  0
ENDSEC
  0
SECTION
  2
BLOCKS
  0
BLOCK
  5
20
330
1F
100
AcDbEntity
  8
0
100
AcDbBlockBegin
  2
*Model_Space
 70
     0
 10
0.0
 20
0.0
 30
0.0
  3
*Model_Space
  1

  0
ENDBLK
  5
21
330
1F
100
AcDbEntity
  8
0
100
AcDbBlockEnd
  0
BLOCK
  5
1C
330
1B
100
AcDbEntity
 67
     1
  8
0
100
AcDbBlockBegin
  2
*Paper_Space
 70
     0
 10
0.0
 20
0.0
 30
0.0
  3
*Paper_Space
  1

  0
ENDBLK
  5
1D
330
1B
100
AcDbEntity
 67
     1
  8
0
100
AcDbBlockEnd
  0
BLOCK
  5
24
330
23
100
AcDbEntity
  8
0
100
AcDbBlockBegin
  2
*Paper_Space0
 70
     0
 10
0.0
 20
0.0
 30
0.0
  3
*Paper_Space0
  1

  0
ENDBLK
  5
25
330
23
100
AcDbEntity
  8
0
100
AcDbBlockEnd
  0
ENDSEC
  0
SECTION
  2
ENTITIES
  0
SPLINE
  5
7E
330
1F
100
AcDbEntity
  8
0
  6
Continuous
 62
     7
370
    25
100
AcDbSpline
210
0.0
220
0.0
230
1.0
 70
     8
 71
     3
 72
    15
 73
    11
 74
     0
 42
0.000000001
 43
0.00000001
 40
0.0
 40
0.0
 40
0.0
 40
0.0
 40
0.0957069518316223
 40
0.2035369939740553
 40
0.3225083542073345
 40
0.4543455354342246
 40
0.5913605306757459
 40
0.7272775486573124
 40
0.8638668315076895
 40
1.0
 40
1.0
 40
1.0
 40
1.0
 10
11.45748390357091
 20
44.98521423767614
 30
0.0
 10
11.43511353684118
 20
45.00844468343144
 30
0.0
 10
11.38753917457044
 20
45.05784814898148
 30
0.0
 10
11.30321110496372
 20
45.12658361465238
 30
0.0
 10
11.20558755151039
 20
45.19772374235269
 30
0.0
 10
11.0949497956709
 20
45.26722047651361
 30
0.0
 10
10.97642148539576
 20
45.33471398601791
 30
0.0
 10
10.85096797379127
 20
45.39222607236984
 30
0.0
 10
10.72235257263342
 20
45.4416666829822
 30
0.0
 10
10.63361461502584
 20
45.465503341309
 30
0.0
 10
10.58931984107091
 20
45.47740173767614
 30
0.0
  0
SPLINE
  5
7F
330
1F
100
AcDbEntity
  8
0
  6
Continuous
 62
     7
370
    25
100
AcDbSpline
210
0.0
220
0.0
230
1.0
 70
     8
 71
     3
 72
    15
 73
    11
 74
     0
 42
0.000000001
 43
0.00000001
 40
0.0
 40
0.0
 40
0.0
 40
0.0
 40
0.148187552728906
 40
0.2883665424568979
 40
0.4204477960191216
 40
0.5452468749765063
 40
0.6648414929003393
 40
0.7798831098838367
 40
0.8909702965959683
 40
0.9999999999999999
 40
0.9999999999999999
 40
0.9999999999999999
 40
0.9999999999999999
 10
11.46811758412646
 20
47.14005364739836
 30
0.0
 10
11.51336265219988
 20
47.12799439202328
 30
0.0
 10
11.60140758987036
 20
47.10452760474539
 30
0.0
 10
11.7268230852867
 20
47.06037595810219
 30
0.0
 10
11.84198426783013
 20
47.01041059268294
 30
0.0
 10
11.94695245376583
 20
46.95415469606426
 30
0.0
 10
12.04146866690556
 20
46.89090523913885
 30
0.0
 10
12.12620221235954
 20
46.82178256426698
 30
0.0
 10
12.200989304964
 20
46.74636672955446
 30
0.0
 10
12.24270305764827
 20
46.69065340115779
 30
0.0
 10
12.26336497995979
 20
46.66305711962058
 30
0.0
  0
CIRCLE
  5
AF
330
1F
100
AcDbEntity
  8
0
  6
Continuous
 62
     7
370
    25
100
AcDbCircle
 10
0.0
 20
29.0
 30
0.0
 40
5.100000000000008
  0
CIRCLE
  5
BC
330
1F
100
AcDbEntity
  8
0
  6
Continuous
 62
     7
370
    25
100
AcDbCircle
 10
-31.0
 20
0.0
 30
0.0
 40
9.999999999999993
  0
SPLINE
  5
BF
330
1F
100
AcDbEntity
  8
0
  6
Continuous
 62
     7
370
    25
100
AcDbSpline
210
0.0
220
0.0
230
1.0
 70
     8
 71
     3
 72
    11
 73
     7
 74
     0
 42
0.000000001
 43
0.00000001
 40
0.0
 40
0.0
 40
0.0
 40
0.0
 40
0.235296184620083
 40
0.4766888575012828
 40
0.7300074326574273
 40
1.0
 40
1.0
 40
1.0
 40
1.0
 10
21.07030846972913
 20
42.69631598639533
 30
0.0
 10
21.05006668950156
 20
42.65702739042017
 30
0.0
 10
21.00905866760759
 20
42.57743223693961
 30
0.0
 10
20.92214585431766
 20
42.47071464705183
 30
0.0
 10
20.81728155637587
 20
42.37236217303884
 30
0.0
 10
20.73617652615022
 20
42.31700096105046
 30
0.0
 10
20.69433190722913
 20
42.28843838222867
 30
0.0
  0
SPLINE
  5
C0
330
1F
100
AcDbEntity
  8
0
  6
Continuous
 62
     7
370
    25
100
AcDbSpline
210
0.0
220
0.0
230
1.0
 70
     8
 71
     3
 72
    15
 73
    11
 74
     0
 42
0.000000001
 43
0.00000001
 40
0.0
 40
0.0
 40
0.0
 40
0.0
 40
0.1209146137235983
 40
0.2401712266186281
 40
0.3592120878889379
 40
0.4796925437804568
 40
0.6024643936091958
 40
0.729323680821774
 40
0.8614812086500127
 40
0.9999999999999999
 40
0.9999999999999999
 40
0.9999999999999999
 40
0.9999999999999999
 10
35.69855056792322
 20
32.28091780763068
 30
0.0
 10
35.69751605514096
 20
32.21928118763712
 30
0.0
 10
35.69546121498379
 20
32.09685311899754
 30
0.0
 10
35.66588159815223
 20
31.91574719944487
 30
0.0
 10
35.618230911407
 20
31.73904446000032
 30
0.0
 10
35.5491588143537
 20
31.5675011871893
 30
0.0
 10
35.46026922593333
 20
31.40090302563155
 30
0.0
 10
35.35139111633834
 20
31.23951837015759
 30
0.0
 10
35.22378780100287
 20
31.08181967338057
 30
0.0
 10
35.12534124865462
 20
30.98520158838765
 30
0.0
 10
35.074961158201
 20
30.93575721735289
 30
0.0
  0
SPLINE
  5
C1
330
1F
100
AcDbEntity
  8
0
  6
Continuous
 62
     7
370
    25
100
AcDbSpline
210
0.0
220
0.0
230
1.0
 70
     8
 71
     3
 72
    15
 73
    11
 74
     0
 42
0.000000001
 43
0.00000001
 40
0.0
 40
0.0
 40
0.0
 40
0.0
 40
0.1471148558506299
 40
0.2859743616456821
 40
0.4174234287975918
 40
0.5429624033142888
 40
0.6631421942590406
 40
0.7784543081299485
 40
0.8903970992865813
 40
1.0
 40
1.0
 40
1.0
 40
1.0
 10
-29.38570998021437
 20
33.95234264450163
 30
0.0
 10
-29.42823263179217
 20
33.91648441914064
 30
0.0
 10
-29.51089177637775
 20
33.84678015271513
 30
0.0
 10
-29.64012389746539
 20
33.7560530049362
 30
0.0
 10
-29.76699817549215
 20
33.67654805597632
 30
0.0
 10
-29.89433159074909
 20
33.61215443715687
 30
0.0
 10
-30.02041246779672
 20
33.55943742508426
 30
0.0
 10
-30.14661065000467
 20
33.52257575285907
 30
0.0
 10
-30.27162855988205
 20
33.49684770070349
 30
0.0
 10
-30.35528348601345
 20
33.49160945318597
 30
0.0
 10
-30.39666918160326
 20
33.48901799172386
 30
0.0
  0
SPLINE
  5
C2
330
1F
100
AcDbEntity
  8
0
  6
Continuous
 62
     7
370
    25
100
AcDbSpline
210
0.0
220
0.0
230
1.0
 70
     8
 71
     3
 72
    11
 73
     7
 74
     0
 42
0.000000001
 43
0.00000001
 40
0.0
 40
0.0
 40
0.0
 40
0.0
 40
0.2572577084757524
 40
0.5057796228285905
 40
0.7522659734286482
 40
1.0
 40
1.0
 40
1.0
 40
1.0
 10
-24.76210868473741
 20
41.0888050395172
 30
0.0
 10
-24.79323044545382
 20
41.04655962357785
 30
0.0
 10
-24.85441715387226
 20
40.96350333474346
 30
0.0
 10
-24.92392947607488
 20
40.82624737132067
 30
0.0
 10
-24.97313644602436
 20
40.68243178086919
 30
0.0
 10
-24.98839907630665
 20
40.58277142971556
 30
0.0
 10
-24.99604965695964
 20
40.53281545618386
 30
0.0
  0
SPLINE
  5
C3
330
1F
100
AcDbEntity
  8
0
  6
Continuous
 62
     7
370
    25
100
AcDbSpline
210
0.0
220
0.0
230
1.0
 70
     8
 71
     3
 72
    23
 73
    19
 74
     0
 42
0.000000001
 43
0.00000001
 40
0.0
 40
0.0
 40
0.0
 40
0.0
 40
0.0717137037821288
 40
0.1412991323377055
 40
0.2091574984286162
 40
0.2757212517328348
 40
0.3420550777410126
 40
0.4080199180115606
 40
0.4740948244065513
 40
0.540756475919597
 40
0.606554455944074
 40
0.6679034663842455
 40
0.726750536312161
 40
0.7828916101655511
 40
0.8371388872742658
 40
0.8911693464839145
 40
0.9449751889525485
 40
1.0
 40
1.0
 40
1.0
 40
1.0
 10
10.59235803551535
 20
43.86336093906502
 30
0.0
 10
10.62138852578192
 20
43.85682881426694
 30
0.0
 10
10.67858795726668
 20
43.84395842105595
 30
0.0
 10
10.76473187777287
 20
43.83276382447828
 30
0.0
 10
10.84928707868683
 20
43.82802449320048
 30
0.0
 10
10.93261974458155
 20
43.83031610236822
 30
0.0
 10
11.01469297740725
 20
43.83939292385899
 30
0.0
 10
11.09550159705255
 20
43.85539429742598
 30
0.0
 10
11.17477030406141
 20
43.87829321485009
 30
0.0
 10
11.2517755608874
 20
43.90772723784382
 30
0.0
 10
11.32426539231886
 20
43.94269156396381
 30
0.0
 10
11.39051678053966
 20
43.98246472947984
 30
0.0
 10
11.44902397606538
 20
44.02653311290532
 30
0.0
 10
11.50071901359218
 20
44.0742979219474
 30
0.0
 10
11.54357831112492
 20
44.12762579737898
 30
0.0
 10
11.57937915337459
 20
44.18465290356505
 30
0.0
 10
11.60827315293353
 20
44.24603009933141
 30
0.0
 10
11.62062044784133
 20
44.28951077630587
 30
0.0
 10
11.62686324384869
 20
44.31149461962059
 30
0.0
  0
SPLINE
  5
C4
330
1F
100
AcDbEntity
  8
0
  6
Continuous
 62
     7
370
    25
100
AcDbSpline
210
0.0
220
0.0
230
1.0
 70
     8
 71
     3
 72
    15
 73
    11
 74
     0
 42
0.000000001
 43
0.00000001
 40
0.0
 40
0.0
 40
0.0
 40
0.0
 40
0.1335738618893469
 40
0.262067083769925
 40
0.3861967159526855
 40
0.5081165983863184
 40
0.628779676052434
 40
0.7498271770545232
 40
0.8728849492333021
 40
1.0
 40
1.0
 40
1.0
 40
1.0
 10
-37.2380248336781
 20
30.56007324536829
 30
0.0
 10
-37.1834858431457
 20
30.56985479063089
 30
0.0
 10
-37.07648231716828
 20
30.58904582849917
 30
0.0
 10
-36.91626865427487
 20
30.59735954719115
 30
0.0
 10
-36.76088222635411
 20
30.59143355183191
 30
0.0
 10
-36.6105203340083
 20
30.56676330668542
 30
0.0
 10
-36.46517666905535
 20
30.52563819600491
 30
0.0
 10
-36.32539222665921
 20
30.46726912699831
 30
0.0
 10
-36.19033057829135
 20
30.3926470004948
 30
0.0
 10
-36.1069093184064
 20
30.3309147704437
 30
0.0
 10
-36.06452222951143
 20
30.29954807175719
 30
0.0
  0
SPLINE
  5
C5
330
1F
100
AcDbEntity
  8
0
  6
Continuous
 62
     7
370
    25
100
AcDbSpline
210
0.0
220
0.0
230
1.0
 70
     8
 71
     3
 72
    15
 73
    11
 74
     0
 42
0.000000001
 43
0.00000001
 40
0.0
 40
0.0
 40
0.0
 40
0.0
 40
0.0901046511336527
 40
0.184762695764303
 40
0.2881375064276233
 40
0.4019270790212738
 40
0.5285358495510019
 40
0.6702632967787044
 40
0.827260536659907
 40
1.0
 40
1.0
 40
1.0
 40
1.0
 10
12.3864118549598
 20
46.1860605918428
 30
0.0
 10
12.37683086065171
 20
46.15535599654807
 30
0.0
 10
12.35718470127823
 20
46.09239516458622
 30
0.0
 10
12.3008578990246
 20
46.00553532188298
 30
0.0
 10
12.22626197036199
 20
45.92312958018879
 30
0.0
 10
12.1311207734426
 20
45.84577832733101
 30
0.0
 10
12.01694818566865
 20
45.77169790464558
 30
0.0
 10
11.88163542815637
 20
45.70373045039815
 30
0.0
 10
11.72727220684193
 20
45.63802826236171
 30
0.0
 10
11.61602401209563
 20
45.60090676802839
 30
0.0
 10
11.55774432023757
 20
45.58145989739835
 30
0.0
  0
SPLINE
  5
C7
330
1F
100
AcDbEntity
  8
0
  6
Continuous
 62
     7
370
    25
100
AcDbSpline
210
0.0
220
0.0
230
1.0
 70
     8
 71
     3
 72
    15
 73
    11
 74
     0
 42
0.000000001
 43
0.00000001
 40
0.0
 40
0.0
 40
0.0
 40
0.0
 40
0.09841053656023
 40
0.2035492161009937
 40
0.3169742869461291
 40
0.4374472641435767
 40
0.5665237567062219
 40
0.702905220275479
 40
0.8473535122524356
 40
1.0
 40
1.0
 40
1.0
 40
1.0
 10
-6.820152026294922
 20
46.45762053615898
 30
0.0
 10
-6.854804824821441
 20
46.46222053214478
 30
0.0
 10
-6.926479568424342
 20
46.47173501717561
 30
0.0
 10
-7.038758739009617
 20
46.48063764322277
 30
0.0
 10
-7.15912313822166
 20
46.48508228507607
 30
0.0
 10
-7.288058907963166
 20
46.4846594456023
 30
0.0
 10
-7.425102847452923
 20
46.48112604964029
 30
0.0
 10
-7.570433262044502
 20
46.47224012558869
 30
0.0
 10
-7.723954435618547
 20
46.46046723365578
 30
0.0
 10
-7.82886022479987
 20
46.44905347210914
 30
0.0
 10
-7.882760533239368
 20
46.44318911254788
 30
0.0
  0
SPLINE
  5
C8
330
1F
100
AcDbEntity
  8
0
  6
Continuous
 62
     7
370
    25
100
AcDbSpline
210
0.0
220
0.0
230
1.0
 70
     8
 71
     3
 72
     9
 73
     5
 74
     0
 42
0.000000001
 43
0.00000001
 40
0.0
 40
0.0
 40
0.0
 40
0.0
 40
0.4944872575457614
 40
1.0
 40
1.0
 40
1.0
 40
1.0
 10
9.652036854959796
 20
44.34187656406502
 30
0.0
 10
9.680923262243551
 20
44.33376340173632
 30
0.0
 10
9.739340151340189
 20
44.31735617949771
 30
0.0
 10
9.79436166671671
 20
44.29176878387587
 30
0.0
 10
9.822175743848687
 20
44.2788340293428
 30
0.0
  0
SPLINE
  5
C9
330
1F
100
AcDbEntity
  8
0
  6
Continuous
 62
     7
370
    25
100
AcDbSpline
210
0.0
220
0.0
230
1.0
 70
     8
 71
     3
 72
    15
 73
    11
 74
     0
 42
0.000000001
 43
0.00000001
 40
0.0
 40
0.0
 40
0.0
 40
0.0
 40
0.1233587949154242
 40
0.2441908961781671
 40
0.3643815957350314
 40
0.4852136969977712
 40
0.6083522903028459
 40
0.7336508165593807
 40
0.8641284241622905
 40
1.0
 40
1.0
 40
1.0
 40
1.0
 10
-38.09783386145588
 20
28.02166178703496
 30
0.0
 10
-38.12676995237605
 20
28.04585085515845
 30
0.0
 10
-38.18404945140597
 20
28.09373353937922
 30
0.0
 10
-38.25935468240907
 20
28.1761098528794
 30
0.0
 10
-38.32584282939164
 20
28.26457178750026
 30
0.0
 10
-38.38336369643395
 20
28.36004961484567
 30
0.0
 10
-38.43025209563381
 20
28.4628864067297
 30
0.0
 10
-38.46756084153398
 20
28.57259767043558
 30
0.0
 10
-38.49594294843669
 20
28.68903835985566
 30
0.0
 10
-38.5069383603965
 20
28.76969020919003
 30
0.0
 10
-38.51254740312255
 20
28.8108327939794
 30
0.0
  0
SPLINE
  5
CA
330
1F
100
AcDbEntity
  8
0
  6
Continuous
 62
     7
370
    25
100
AcDbSpline
210
0.0
220
0.0
230
1.0
 70
     8
 71
     3
 72
    23
 73
    19
 74
     0
 42
0.000000001
 43
0.00000001
 40
0.0
 40
0.0
 40
0.0
 40
0.0
 40
0.0688572131219742
 40
0.1353745604648076
 40
0.2005714396012111
 40
0.2648103408933906
 40
0.3281388804399813
 40
0.3914731955031863
 40
0.4553022500062283
 40
0.5196947038467207
 40
0.5833846423832503
 40
0.6444130820110069
 40
0.7034847513570164
 40
0.7616579399121035
 40
0.8195111510419754
 40
0.8781243815621232
 40
0.937819698721221
 40
0.9999999999999999
 40
0.9999999999999999
 40
0.9999999999999999
 40
0.9999999999999999
 10
-15.03224121610941
 20
44.69741954801328
 30
0.0
 10
-14.99344828990776
 20
44.71003467174688
 30
0.0
 10
-14.9171806761664
 20
44.73483623941445
 30
0.0
 10
-14.80079374962875
 20
44.75928939493758
 30
0.0
 10
-14.68587239208211
 20
44.77578900842394
 30
0.0
 10
-14.57174663651777
 20
44.78183172763487
 30
0.0
 10
-14.4586501400046
 20
44.77807926266578
 30
0.0
 10
-14.34656925802058
 20
44.76430711029995
 30
0.0
 10
-14.23548997759598
 20
44.74072871915332
 30
0.0
 10
-14.12672665467693
 20
44.70742261414236
 30
0.0
 10
-14.02265105136775
 20
44.66568754429046
 30
0.0
 10
-13.92633653289798
 20
44.61461443679769
 30
0.0
 10
-13.83881887864034
 20
44.55518343308689
 30
0.0
 10
-13.7609323914741
 20
44.4863470551872
 30
0.0
 10
-13.69214669141393
 20
44.40885722260722
 30
0.0
 10
-13.63177570165928
 20
44.32356331614832
 30
0.0
 10
-13.58089642143941
 20
44.22918091909241
 30
0.0
 10
-13.55564800126391
 20
44.16151919686012
 30
0.0
 10
-13.54276638972052
 20
44.12699854106884
 30
0.0
  0
SPLINE
  5
CB
330
1F
100
AcDbEntity
  8
0
  6
Continuous
 62
     7
370
    25
100
AcDbSpline
210
0.0
220
0.0
230
1.0
 70
     8
 71
     3
 72
    15
 73
    11
 74
     0
 42
0.000000001
 43
0.00000001
 40
0.0
 40
0.0
 40
0.0
 40
0.0
 40
0.1069151495204891
 40
0.2166570520984475
 40
0.3306064350637596
 40
0.4497549399656068
 40
0.5756764331258114
 40
0.7092030193181525
 40
0.8501230021010606
 40
1.0
 40
1.0
 40
1.0
 40
1.0
 10
11.63673737579313
 20
43.81930711962058
 30
0.0
 10
11.58480582962323
 20
43.79625270512586
 30
0.0
 10
11.47956970775886
 20
43.74953433542161
 30
0.0
 10
11.31001257378407
 20
43.7023199511616
 30
0.0
 10
11.13087080942692
 20
43.66898529989173
 30
0.0
 10
10.94049810616667
 20
43.65485289351876
 30
0.0
 10
10.73934909470483
 20
43.65566002114812
 30
0.0
 10
10.52740925957261
 20
43.67380179442753
 30
0.0
 10
10.30455899642003
 20
43.70795802277233
 30
0.0
 10
10.15414699510941
 20
43.74284242670204
 30
0.0
 10
10.07662452857091
 20
43.76082187656502
 30
0.0
  0
SPLINE
  5
CC
330
1F
100
AcDbEntity
  8
0
  6
Continuous
 62
     7
370
    25
100
AcDbSpline
210
0.0
220
0.0
230
1.0
 70
     8
 71
     3
 72
    15
 73
    11
 74
     0
 42
0.000000001
 43
0.00000001
 40
0.0
 40
0.0
 40
0.0
 40
0.0
 40
0.1439981622304473
 40
0.2793775142465612
 40
0.4083286642547415
 40
0.5308035695027857
 40
0.6491710295890918
 40
0.7651367102487534
 40
0.8817936595052724
 40
1.0
 40
1.0
 40
1.0
 40
1.0
 10
-5.797799595739367
 20
46.67864918199231
 30
0.0
 10
-5.756847205942814
 20
46.65505466965651
 30
0.0
 10
-5.677393574822803
 20
46.60927786178525
 30
0.0
 10
-5.568580606397109
 20
46.53063645465674
 30
0.0
 10
-5.474140890713117
 20
46.44554395984587
 30
0.0
 10
-5.393204541120701
 20
46.3547461135532
 30
0.0
 10
-5.327563476228025
 20
46.25743011875822
 30
0.0
 10
-5.274947548528719
 20
46.15468907372171
 30
0.0
 10
-5.237270099391397
 20
46.04537842395102
 30
0.0
 10
-5.223616662494599
 20
45.96946198047917
 30
0.0
 10
-5.216744908239368
 20
45.93125334865898
 30
0.0
  0
SPLINE
  5
CD
330
1F
100
AcDbEntity
  8
0
  6
Continuous
 62
     7
370
    25
100
AcDbSpline
210
0.0
220
0.0
230
1.0
 70
     8
 71
     3
 72
    11
 73
     7
 74
     0
 42
0.000000001
 43
0.00000001
 40
0.0
 40
0.0
 40
0.0
 40
0.0
 40
0.2569814871100332
 40
0.5075069422335832
 40
0.753684453065237
 40
1.0
 40
1.0
 40
1.0
 40
1.0
 10
34.73848112347877
 20
33.65190305068623
 30
0.0
 10
34.79379054667606
 20
33.63099214964346
 30
0.0
 10
34.90301987894906
 20
33.58969568285549
 30
0.0
 10
35.05442680369849
 20
33.50457641307481
 30
0.0
 10
35.19424473482872
 20
33.40553229936626
 30
0.0
 10
35.274726405342
 20
33.32571863660838
 30
0.0
 10
35.31497851931211
 20
33.28580062013067
 30
0.0
  0
SPLINE
  5
CE
330
1F
100
AcDbEntity
  8
0
  6
Continuous
 62
     7
370
    25
100
AcDbSpline
210
0.0
220
0.0
230
1.0
 70
     8
 71
     3
 72
    23
 73
    19
 74
     0
 42
0.000000001
 43
0.00000001
 40
0.0
 40
0.0
 40
0.0
 40
0.0
 40
0.0493691229773299
 40
0.0977626973180166
 40
0.14614209143004
 40
0.1958729738850928
 40
0.2470571634243321
 40
0.3013191336800771
 40
0.358547420007539
 40
0.4200464270601983
 40
0.4839648867164791
 40
0.5496593809539054
 40
0.6174624191184185
 40
0.6873140618630467
 40
0.7601247365236902
 40
0.8364930348593931
 40
0.9164483841867531
 40
1.0
 40
1.0
 40
1.0
 40
1.0
 10
-28.9094730010477
 20
35.54283743616831
 30
0.0
 10
-28.89051404958551
 20
35.519294481274
 30
0.0
 10
-28.85297078121276
 20
35.47267378731592
 30
0.0
 10
-28.80968239620833
 20
35.39402366324693
 30
0.0
 10
-28.77726259310196
 20
35.31027726071322
 30
0.0
 10
-28.75691981690345
 20
35.22096646949148
 30
0.0
 10
-28.74821462454693
 20
35.12631625208639
 30
0.0
 10
-28.74943729481723
 20
35.02663696064904
 30
0.0
 10
-28.76430911104944
 20
34.92174061327891
 30
0.0
 10
-28.78806784391346
 20
34.81254212446228
 30
0.0
 10
-28.82377240024616
 20
34.70108099969406
 30
0.0
 10
-28.87144270347857
 20
34.59007578735528
 30
0.0
 10
-28.92885850163756
 20
34.47964163992581
 30
0.0
 10
-28.99900147750975
 20
34.37160595359034
 30
0.0
 10
-29.07894390658692
 20
34.26408711044751
 30
0.0
 10
-29.17035583775332
 20
34.15781301003448
 30
0.0
 10
-29.27295416289098
 20
34.05287268958109
 30
0.0
 10
-29.34757760410608
 20
33.98634044239937
 30
0.0
 10
-29.38570998021437
 20
33.95234264450164
 30
0.0
  0
SPLINE
  5
CF
330
1F
100
AcDbEntity
  8
0
  6
Continuous
 62
     7
370
    25
100
AcDbSpline
210
0.0
220
0.0
230
1.0
 70
     8
 71
     3
 72
    27
 73
    23
 74
     0
 42
0.000000001
 43
0.00000001
 40
0.0
 40
0.0
 40
0.0
 40
0.0
 40
0.081875084971172
 40
0.155745987745602
 40
0.2222671612696326
 40
0.2818718670084988
 40
0.3338329366471423
 40
0.3782934904464698
 40
0.4153592740487034
 40
0.4451181233387302
 40
0.4954181242049728
 40
0.5403489004903527
 40
0.5807448563705087
 40
0.6186857862448714
 40
0.6404282895518902
 40
0.6695811480722034
 40
0.7050107451244647
 40
0.7490222237787288
 40
0.8002242079951829
 40
0.8590069417613081
 40
0.9256319060235703
 40
1.0
 40
1.0
 40
1.0
 40
1.0
 10
25.60236925189077
 20
37.08883953799434
 30
0.0
 10
25.62487187627566
 20
37.07335191311414
 30
0.0
 10
25.66767724817757
 20
37.04389074753915
 30
0.0
 10
25.72924021031996
 20
37.00251976575151
 30
0.0
 10
25.78574926071735
 20
36.96704190089293
 30
0.0
 10
25.83604538702036
 20
36.93533742173964
 30
0.0
 10
25.88199611888498
 20
36.91086533481826
 30
0.0
 10
25.9211026690703
 20
36.88943811229854
 30
0.0
 10
25.95549147686865
 20
36.87537109511065
 30
0.0
 10
25.99218934605124
 20
36.86170172366054
 30
0.0
 10
26.03347547828101
 20
36.85472631354653
 30
0.0
 10
26.07859651699263
 20
36.84956625466261
 30
0.0
 10
26.11971081777202
 20
36.85377057849742
 30
0.0
 10
26.15237870843961
 20
36.86220097675655
 30
0.0
 10
26.17833260250957
 20
36.87692831265231
 30
0.0
 10
26.2004004857294
 20
36.89557125020838
 30
0.0
 10
26.22666749930289
 20
36.92050370510414
 30
0.0
 10
26.25701005625624
 20
36.95188162489706
 30
0.0
 10
26.28885153300755
 20
36.99225279798404
 30
0.0
 10
26.32683594554894
 20
37.0373131832216
 30
0.0
 10
26.36654522495235
 20
37.09088586832603
 30
0.0
 10
26.39434606592231
 20
37.12882993106751
 30
0.0
 10
26.40900987689076
 20
37.14884387827212
 30
0.0
  0
SPLINE
  5
D0
330
1F
100
AcDbEntity
  8
0
  6
Continuous
 62
     7
370
    25
100
AcDbSpline
210
0.0
220
0.0
230
1.0
 70
     8
 71
     3
 72
    23
 73
    19
 74
     0
 42
0.000000001
 43
0.00000001
 40
0.0
 40
0.0
 40
0.0
 40
0.0
 40
0.0637785031523497
 40
0.125039789335204
 40
0.184917835684003
 40
0.2433597554791438
 40
0.301081153743732
 40
0.358750011660202
 40
0.4170187783816938
 40
0.4767532152047333
 40
0.5371730286769267
 40
0.5983683034874767
 40
0.6604013190342204
 40
0.7240780820013674
 40
0.7894294098076072
 40
0.8567357430432626
 40
0.9268244432284494
 40
1.0
 40
1.0
 40
1.0
 40
1.0
 10
18.54632843500691
 20
43.78702779195088
 30
0.0
 10
18.56975555450136
 20
43.81868048233069
 30
0.0
 10
18.61568516936424
 20
43.88073659122883
 30
0.0
 10
18.69427160244649
 20
43.96379220436418
 30
0.0
 10
18.77696670568055
 20
44.03766646016842
 30
0.0
 10
18.86455162471676
 20
44.10231169307247
 30
0.0
 10
18.95806289346043
 20
44.15517903825154
 30
0.0
 10
19.0555237431449
 20
44.20014344115126
 30
0.0
 10
19.1590044091338
 20
44.2331081603684
 30
0.0
 10
19.26648410916136
 20
44.2574771133004
 30
0.0
 10
19.37761532310295
 20
44.27177755545116
 30
0.0
 10
19.49097796701083
 20
44.27637428840533
 30
0.0
 10
19.60626812253537
 20
44.27062583512858
 30
0.0
 10
19.72340412127277
 20
44.25641559236105
 30
0.0
 10
19.84210001515358
 20
44.23162691253963
 30
0.0
 10
19.96266444270977
 20
44.19803343368277
 30
0.0
 10
20.08531463514231
 20
44.15477473663658
 30
0.0
 10
20.16616502656874
 20
44.11899612681589
 30
0.0
 10
20.2074612475069
 20
44.10072136833978
 30
0.0
  0
SPLINE
  5
D1
330
1F
100
AcDbEntity
  8
0
  6
Continuous
 62
     7
370
    25
100
AcDbSpline
210
0.0
220
0.0
230
1.0
 70
     8
 71
     3
 72
    11
 73
     7
 74
     0
 42
0.000000001
 43
0.00000001
 40
0.0
 40
0.0
 40
0.0
 40
0.0
 40
0.1915209968684045
 40
0.4218842007792747
 40
0.6901452164693612
 40
1.0
 40
1.0
 40
1.0
 40
1.0
 10
27.65391005050189
 20
39.37052356577212
 30
0.0
 10
27.63364977223089
 20
39.38361869916588
 30
0.0
 10
27.58902024624844
 20
39.41246477858412
 30
0.0
 10
27.51011776457158
 20
39.44927062367083
 30
0.0
 10
27.41542716539347
 20
39.4865297033033
 30
0.0
 10
27.34618627020999
 20
39.50891582266352
 30
0.0
 10
27.30907498105743
 20
39.52091419077212
 30
0.0
  0
SPLINE
  5
D2
330
1F
100
AcDbEntity
  8
0
  6
Continuous
 62
     7
370
    25
100
AcDbSpline
210
0.0
220
0.0
230
1.0
 70
     8
 71
     3
 72
    11
 73
     7
 74
     0
 42
0.000000001
 43
0.00000001
 40
0.0
 40
0.0
 40
0.0
 40
0.0
 40
0.2603297373023623
 40
0.5113315789912993
 40
0.756769901338968
 40
1.0
 40
1.0
 40
1.0
 40
1.0
 10
-7.113337790183811
 20
44.74331932088121
 30
0.0
 10
-7.06678786028934
 20
44.72893284626304
 30
0.0
 10
-6.975355934757031
 20
44.70067537994801
 30
0.0
 10
-6.835088154150161
 20
44.67976868411944
 30
0.0
 10
-6.696631481872766
 20
44.67204559013652
 30
0.0
 10
-6.605664405690916
 20
44.68159836929807
 30
0.0
 10
-6.560386401294922
 20
44.68635317504787
 30
0.0
  0
SPLINE
  5
D3
330
1F
100
AcDbEntity
  8
0
  6
Continuous
 62
     7
370
    25
100
AcDbSpline
210
0.0
220
0.0
230
1.0
 70
     8
 71
     3
 72
    13
 73
     9
 74
     0
 42
0.000000001
 43
0.00000001
 40
0.0
 40
0.0
 40
0.0
 40
0.0
 40
0.2059922587227906
 40
0.3864506843589814
 40
0.4892536674764845
 40
0.6251328642762024
 40
0.7966394266096872
 40
0.9999999999999999
 40
0.9999999999999999
 40
0.9999999999999999
 40
0.9999999999999999
 10
-7.524253588794922
 20
44.81243824449232
 30
0.0
 10
-7.495441709767839
 20
44.81553927269906
 30
0.0
 10
-7.441389336942176
 20
44.82135694021792
 30
0.0
 10
-7.372276726404403
 20
44.81772908279577
 30
0.0
 10
-7.314538250368874
 20
44.80573859952437
 30
0.0
 10
-7.258781624048999
 20
44.79101229777539
 30
0.0
 10
-7.190240550935225
 20
44.76960675192087
 30
0.0
 10
-7.140384210262269
 20
44.75256451436626
 30
0.0
 10
-7.113337790183811
 20
44.74331932088121
 30
0.0
  0
SPLINE
  5
D4
330
1F
100
AcDbEntity
  8
0
  6
Continuous
 62
     7
370
    25
100
AcDbSpline
210
0.0
220
0.0
230
1.0
 70
     8
 71
     3
 72
    23
 73
    19
 74
     0
 42
0.000000001
 43
0.00000001
 40
0.0
 40
0.0
 40
0.0
 40
0.0
 40
0.0789484019271454
 40
0.1554322749921428
 40
0.2286440749233612
 40
0.2996018028867242
 40
0.3685748390672507
 40
0.4363655682156014
 40
0.5025536506696754
 40
0.568458225692889
 40
0.6320932702609703
 40
0.6915279339731802
 40
0.7471039012517412
 40
0.800272438773865
 40
0.8509520555733496
 40
0.9004914424047016
 40
0.9498131037587761
 40
0.9999999999999999
 40
0.9999999999999999
 40
0.9999999999999999
 40
0.9999999999999999
 10
20.2074612475069
 20
44.10072136833978
 30
0.0
 10
20.25055502908993
 20
44.08004489651469
 30
0.0
 10
20.33539733553265
 20
44.0393374093948
 30
0.0
 10
20.45496994445215
 20
43.96934840267058
 30
0.0
 10
20.56557842898464
 20
43.89443107402632
 30
0.0
 10
20.66817861885746
 20
43.8159828087969
 30
0.0
 10
20.76016638569372
 20
43.73006025855441
 30
0.0
 10
20.84399229485202
 20
43.64010891829399
 30
0.0
 10
20.91809644744047
 20
43.5442780169579
 30
0.0
 10
20.98285855780971
 20
43.44495448923116
 30
0.0
 10
21.03744680574754
 20
43.34426442773902
 30
0.0
 10
21.07943155774139
 20
43.24444313781478
 30
0.0
 10
21.10978537903154
 20
43.14710195136419
 30
0.0
 10
21.12770378830812
 20
43.0520254570862
 30
0.0
 10
21.13238929410728
 20
42.95899669805071
 30
0.0
 10
21.12463771626259
 20
42.86862257608447
 30
0.0
 10
21.10544915989875
 20
42.78000238613625
 30
0.0
 10
21.08208973713698
 20
42.72437268787129
 30
0.0
 10
21.07030846972913
 20
42.69631598639533
 30
0.0
  0
SPLINE
  5
D5
330
1F
100
AcDbEntity
  8
0
  6
Continuous
 62
     7
370
    25
100
AcDbSpline
210
0.0
220
0.0
230
1.0
 70
     8
 71
     3
 72
    15
 73
    11
 74
     0
 42
0.000000001
 43
0.00000001
 40
0.0
 40
0.0
 40
0.0
 40
0.0
 40
0.1261934099374331
 40
0.248415424390469
 40
0.3689923126871368
 40
0.4886691516011141
 40
0.6100072869570176
 40
0.7347354079776081
 40
0.8644504476261993
 40
1.0
 40
1.0
 40
1.0
 40
1.0
 10
32.65048199153433
 20
30.82258447429734
 30
0.0
 10
32.61288358458769
 20
30.86472926655019
 30
0.0
 10
32.53887001904027
 20
30.94769252476254
 30
0.0
 10
32.44861831826235
 20
31.08640212274796
 30
0.0
 10
32.37471738304337
 20
31.23094515054019
 30
0.0
 10
32.32053686605232
 20
31.38372023757962
 30
0.0
 10
32.28475387314282
 20
31.54361956813769
 30
0.0
 10
32.26740654742965
 20
31.71104182657711
 30
0.0
 10
32.26899107221278
 20
31.88580163011302
 30
0.0
 10
32.28369951863066
 20
32.00352867515468
 30
0.0
 10
32.29121549847877
 20
32.06368690485289
 30
0.0
  0
SPLINE
  5
D6
330
1F
100
AcDbEntity
  8
0
  6
Continuous
 62
     7
370
    25
100
AcDbSpline
210
0.0
220
0.0
230
1.0
 70
     8
 71
     3
 72
    27
 73
    23
 74
     0
 42
0.000000001
 43
0.00000001
 40
0.0
 40
0.0
 40
0.0
 40
0.0
 40
0.0704213041720686
 40
0.1338072500932565
 40
0.1903850849496085
 40
0.2395685824915094
 40
0.2828440714694552
 40
0.3188514548111639
 40
0.3484705424656644
 40
0.3715386281036773
 40
0.4122445654494971
 40
0.4551104979991554
 40
0.5026773923390048
 40
0.5569910831823429
 40
0.5887373508892715
 40
0.6272690319331614
 40
0.6722762198291329
 40
0.7243741135545128
 40
0.7825960869168056
 40
0.8479865180127709
 40
0.9205584278814505
 40
1.0
 40
1.0
 40
1.0
 40
1.0
 10
26.88676595327966
 20
36.80552790604989
 30
0.0
 10
26.87332723588373
 20
36.78655374577966
 30
0.0
 10
26.84779238047782
 20
36.75050101658874
 30
0.0
 10
26.81176920589429
 20
36.69897977627392
 30
0.0
 10
26.78143144974358
 20
36.65206978837932
 30
0.0
 10
26.7562956858632
 20
36.60975885531555
 30
0.0
 10
26.73494726598115
 20
36.57310940429873
 30
0.0
 10
26.71849695549451
 20
36.54107992903362
 30
0.0
 10
26.70785650468985
 20
36.51376043849189
 30
0.0
 10
26.69913084927142
 20
36.48409617360981
 30
0.0
 10
26.69756867647513
 20
36.44839976285549
 30
0.0
 10
26.70594673695595
 20
36.40567214873123
 30
0.0
 10
26.72307678709253
 20
36.36079486867148
 30
0.0
 10
26.74601893837005
 20
36.32287882044138
 30
0.0
 10
26.77072927516381
 20
36.28993534668232
 30
0.0
 10
26.79690552945804
 20
36.26221450130997
 30
0.0
 10
26.82911386413485
 20
36.23111248942166
 30
0.0
 10
26.8666758812688
 20
36.19616436343647
 30
0.0
 10
26.91133583742598
 20
36.15910653268769
 30
0.0
 10
26.96147555073589
 20
36.11810806991483
 30
0.0
 10
27.0173363764693
 20
36.07300244741931
 30
0.0
 10
27.05779056973936
 20
36.04328193590083
 30
0.0
 10
27.07893175189077
 20
36.02775012827212
 30
0.0
  0
SPLINE
  5
D7
330
1F
100
AcDbEntity
  8
0
  6
Continuous
 62
     7
370
    25
100
AcDbSpline
210
0.0
220
0.0
230
1.0
 70
     8
 71
     3
 72
    23
 73
    19
 74
     0
 42
0.000000001
 43
0.00000001
 40
0.0
 40
0.0
 40
0.0
 40
0.0
 40
0.1086065282607519
 40
0.2088933695181037
 40
0.3026313431600409
 40
0.3883832463870137
 40
0.4679815150458942
 40
0.540874782771206
 40
0.6067571490649486
 40
0.667721194170448
 40
0.7230938394150702
 40
0.7734066899926334
 40
0.818606856226142
 40
0.8606280277107922
 40
0.8984721944394073
 40
0.9340487522636264
 40
0.9667991479323261
 40
1.0
 40
1.0
 40
1.0
 40
1.0
 10
-6.917374248517145
 20
44.36962140421453
 30
0.0
 10
-6.952028003576038
 20
44.36502754452511
 30
0.0
 10
-7.018680899830373
 20
44.35619173285718
 30
0.0
 10
-7.115762658898699
 20
44.34804976019257
 30
0.0
 10
-7.205683377303314
 20
44.34311595091731
 30
0.0
 10
-7.289120155052231
 20
44.34289543029271
 30
0.0
 10
-7.365684954288556
 20
44.34754927032736
 30
0.0
 10
-7.435584735949751
 20
44.35535632758417
 30
0.0
 10
-7.498665215790981
 20
44.36824663408298
 30
0.0
 10
-7.554772230032246
 20
44.38563688070995
 30
0.0
 10
-7.604315587912073
 20
44.40634306850705
 30
0.0
 10
-7.64764070272097
 20
44.42835197174531
 30
0.0
 10
-7.685631369269034
 20
44.45115342060168
 30
0.0
 10
-7.7176574511172
 20
44.47579468480141
 30
0.0
 10
-7.743101639063688
 20
44.50302834872042
 30
0.0
 10
-7.763248487385247
 20
44.53078666436745
 30
0.0
 10
-7.7768529190943
 20
44.56083461166779
 30
0.0
 10
-7.781114381023683
 20
44.58167685025171
 30
0.0
 10
-7.783259665183811
 20
44.59216914727009
 30
0.0
  0
SPLINE
  5
D8
330
1F
100
AcDbEntity
  8
0
  6
Continuous
 62
     7
370
    25
100
AcDbSpline
210
0.0
220
0.0
230
1.0
 70
     8
 71
     3
 72
    15
 73
    11
 74
     0
 42
0.000000001
 43
0.00000001
 40
0.0
 40
0.0
 40
0.0
 40
0.0
 40
0.0681522813320562
 40
0.1713115415412737
 40
0.3096153015307131
 40
0.4820704659106201
 40
0.6566227086955392
 40
0.8016264065710182
 40
0.9154338096486891
 40
1.0
 40
1.0
 40
1.0
 40
1.0
 10
9.822175743848687
 20
44.2788340293428
 30
0.0
 10
9.834144505913363
 20
44.27236987872501
 30
0.0
 10
9.864229882947928
 20
44.25612121345001
 30
0.0
 10
9.916234309638714
 20
44.22269141947243
 30
0.0
 10
9.985308130770685
 20
44.17742817643391
 30
0.0
 10
10.06466607259294
 20
44.12190989573764
 30
0.0
 10
10.14597260049361
 20
44.06687214273007
 30
0.0
 10
10.21851774557393
 20
44.01982667731033
 30
0.0
 10
10.27700068422237
 20
43.98402813769042
 30
0.0
 10
10.31224920835998
 20
43.96599289601855
 30
0.0
 10
10.32727557023758
 20
43.95830451545391
 30
0.0
  0
SPLINE
  5
D9
330
1F
100
AcDbEntity
  8
0
  6
Continuous
 62
     7
370
    25
100
AcDbSpline
210
0.0
220
0.0
230
1.0
 70
     8
 71
     3
 72
    15
 73
    11
 74
     0
 42
0.000000001
 43
0.00000001
 40
0.0
 40
0.0
 40
0.0
 40
0.0
 40
0.1219148923385962
 40
0.2434972594526504
 40
0.3642160007359886
 40
0.4862774340838741
 40
0.6095418944883273
 40
0.7362515733713598
 40
0.8660333155276496
 40
1.0
 40
1.0
 40
1.0
 40
1.0
 10
32.29121549847877
 20
32.06368690485289
 30
0.0
 10
32.3003496712093
 20
32.11505557797072
 30
0.0
 10
32.31859310303772
 20
32.21765281515786
 30
0.0
 10
32.3636586516735
 20
32.36707403012271
 30
0.0
 10
32.42000477076845
 20
32.51248496911527
 30
0.0
 10
32.48917762793919
 20
32.65315152086575
 30
0.0
 10
32.57189675598499
 20
32.78931024798334
 30
0.0
 10
32.66806130111632
 20
32.92034625109228
 30
0.0
 10
32.77584211602985
 20
33.04816907479095
 30
0.0
 10
32.85641142965336
 20
33.12717916052202
 30
0.0
 10
32.89733529014543
 20
33.16731103679734
 30
0.0
  0
SPLINE
  5
DA
330
1F
100
AcDbEntity
  8
0
  6
Continuous
 62
     7
370
    25
100
AcDbSpline
210
0.0
220
0.0
230
1.0
 70
     8
 71
     3
 72
    15
 73
    11
 74
     0
 42
0.000000001
 43
0.00000001
 40
0.0
 40
0.0
 40
0.0
 40
0.0
 40
0.1295794470325994
 40
0.2510512945520623
 40
0.3659147043076852
 40
0.4838061347868811
 40
0.6049060814028143
 40
0.7288590775678367
 40
0.8598235146142967
 40
1.0
 40
1.0
 40
1.0
 40
1.0
 10
27.76404459911299
 20
39.09556696854989
 30
0.0
 10
27.76778109364367
 20
39.10889156536628
 30
0.0
 10
27.77502029561973
 20
39.1347070581527
 30
0.0
 10
27.77826588159137
 20
39.17387830254996
 30
0.0
 10
27.77364874693572
 20
39.21165245677765
 30
0.0
 10
27.76099245542434
 20
39.24744430182826
 30
0.0
 10
27.74264151778343
 20
39.28164275028868
 30
0.0
 10
27.71880358797119
 20
39.31407534592861
 30
0.0
 10
27.68866681926763
 20
39.34374355297125
 30
0.0
 10
27.66575511612843
 20
39.36139696913006
 30
0.0
 10
27.65391005050189
 20
39.37052356577212
 30
0.0
  0
SPLINE
  5
DB
330
1F
100
AcDbEntity
  8
0
  6
Continuous
 62
     7
370
    25
100
AcDbSpline
210
0.0
220
0.0
230
1.0
 70
     8
 71
     3
 72
    15
 73
    11
 74
     0
 42
0.000000001
 43
0.00000001
 40
0.0
 40
0.0
 40
0.0
 40
0.0
 40
0.1851881993487589
 40
0.3527814248571507
 40
0.5031980824705458
 40
0.6365173272382907
 40
0.7528532187329692
 40
0.8517525774873052
 40
0.9339927061325007
 40
1.0
 40
1.0
 40
1.0
 40
1.0
 10
27.50731716855744
 20
38.67781523243878
 30
0.0
 10
27.52479086051977
 20
38.70262387925838
 30
0.0
 10
27.5580780460406
 20
38.74988407080715
 30
0.0
 10
27.60549474290349
 20
38.81734560540414
 30
0.0
 10
27.64651498344629
 20
38.87888772243705
 30
0.0
 10
27.68169619511031
 20
38.93421906957855
 30
0.0
 10
27.71030670238349
 20
38.98366590106922
 30
0.0
 10
27.7342409488297
 20
39.02611477523717
 30
0.0
 10
27.75229705747774
 20
39.06245608888277
 30
0.0
 10
27.76042543288861
 20
39.08536621497338
 30
0.0
 10
27.76404459911299
 20
39.09556696854989
 30
0.0
  0
SPLINE
  5
DC
330
1F
100
AcDbEntity
  8
0
  6
Continuous
 62
     7
370
    25
100
AcDbSpline
210
0.0
220
0.0
230
1.0
 70
     8
 71
     3
 72
    15
 73
    11
 74
     0
 42
0.000000001
 43
0.00000001
 40
0.0
 40
0.0
 40
0.0
 40
0.0
 40
0.0985274033188233
 40
0.1982223324805774
 40
0.3071864088078861
 40
0.432700352287812
 40
0.5678536551579707
 40
0.7047991578485614
 40
0.8492636841331008
 40
1.0
 40
1.0
 40
1.0
 40
1.0
 10
9.330747792459796
 20
44.22794427239836
 30
0.0
 10
9.334577777756364
 20
44.23972045741812
 30
0.0
 10
9.342283132746736
 20
44.26341237239516
 30
0.0
 10
9.367910252770887
 20
44.29292161462949
 30
0.0
 10
9.401602548485522
 20
44.31769631550149
 30
0.0
 10
9.443923597110768
 20
44.33650815327412
 30
0.0
 10
9.491692177981015
 20
44.35031669436238
 30
0.0
 10
9.543569421040711
 20
44.3552152730139
 30
0.0
 10
9.597574229811341
 20
44.35318031566748
 30
0.0
 10
9.633627320522708
 20
44.34569747434666
 30
0.0
 10
9.652036854959796
 20
44.34187656406502
 30
0.0
  0
SPLINE
  5
DD
330
1F
100
AcDbEntity
  8
0
  6
Continuous
 62
     7
370
    25
100
AcDbSpline
210
0.0
220
0.0
230
1.0
 70
     8
 71
     3
 72
    15
 73
    11
 74
     0
 42
0.000000001
 43
0.00000001
 40
0.0
 40
0.0
 40
0.0
 40
0.0
 40
0.1370930640124506
 40
0.269423573486807
 40
0.3979859316245402
 40
0.5219078806550662
 40
0.6444187042406904
 40
0.7637257583636722
 40
0.8821935675922216
 40
1.0
 40
1.0
 40
1.0
 40
1.0
 10
-14.59474121610941
 20
42.46434663134661
 30
0.0
 10
-14.63335154609358
 20
42.45202303327626
 30
0.0
 10
-14.70923089967556
 20
42.42780395367328
 30
0.0
 10
-14.8234857142214
 20
42.39928521312901
 30
0.0
 10
-14.93577651706921
 20
42.38047830158298
 30
0.0
 10
-15.04615869594484
 20
42.36962295459485
 30
0.0
 10
-15.15439503927611
 20
42.36690044810602
 30
0.0
 10
-15.26069765092296
 20
42.37447506249834
 30
0.0
 10
-15.36513750135732
 20
42.38781180399304
 30
0.0
 10
-15.43291108530644
 20
42.40492448482202
 30
0.0
 10
-15.46670302166497
 20
42.41345687440217
 30
0.0
  0
SPLINE
  5
DE
330
1F
100
AcDbEntity
  8
0
  6
Continuous
 62
     7
370
    25
100
AcDbSpline
210
0.0
220
0.0
230
1.0
 70
     8
 71
     3
 72
    23
 73
    19
 74
     0
 42
0.000000001
 43
0.00000001
 40
0.0
 40
0.0
 40
0.0
 40
0.0
 40
0.0693428719228529
 40
0.1366454178546294
 40
0.2023316347786975
 40
0.2662692614542262
 40
0.3296146990409395
 40
0.3925204421790801
 40
0.455320370012691
 40
0.5188949765241119
 40
0.5815011533444868
 40
0.6415154366372601
 40
0.7000910221391793
 40
0.7581098767269656
 40
0.8163621103214237
 40
0.8756449561459443
 40
0.9365524520725622
 40
1.0
 40
1.0
 40
1.0
 40
1.0
 10
-36.51797275034476
 20
28.3520654328683
 30
0.0
 10
-36.54429675117265
 20
28.31971194408198
 30
0.0
 10
-36.59617020251653
 20
28.25595692685136
 30
0.0
 10
-36.68183511881132
 20
28.16935900195348
 30
0.0
 10
-36.77119496336429
 20
28.09147228357851
 30
0.0
 10
-36.86567335429835
 20
28.02395737455353
 30
0.0
 10
-36.96259371767155
 20
27.96303965208863
 30
0.0
 10
-37.06494196180747
 20
27.91317416490638
 30
0.0
 10
-37.1710703864054
 20
27.87178152400485
 30
0.0
 10
-37.28035252175533
 20
27.84013656853496
 30
0.0
 10
-37.39038714174571
 20
27.81869099594387
 30
0.0
 10
-37.49913604152739
 20
27.80909573407317
 30
0.0
 10
-37.60553645774608
 20
27.81281131678703
 30
0.0
 10
-37.70953543631572
 20
27.82980808927719
 30
0.0
 10
-37.81121638618365
 20
27.8589358930879
 30
0.0
 10
-37.91052503579631
 20
27.90011696092376
 30
0.0
 10
-38.00698108378005
 20
27.9544989986383
 30
0.0
 10
-38.06714000408549
 20
27.99897139604879
 30
0.0
 10
-38.09783386145588
 20
28.02166178703496
 30
0.0
  0
SPLINE
  5
DF
330
1F
100
AcDbEntity
  8
0
  6
Continuous
 62
     7
370
    25
100
AcDbSpline
210
0.0
220
0.0
230
1.0
 70
     8
 71
     3
 72
    19
 73
    15
 74
     0
 42
0.000000001
 43
0.00000001
 40
0.0
 40
0.0
 40
0.0
 40
0.0
 40
0.0948771168171333
 40
0.1912778447000128
 40
0.2898163741463098
 40
0.3910679995298146
 40
0.4889659741016334
 40
0.5774867916095152
 40
0.6580056109028266
 40
0.7314033060432621
 40
0.8006604810634054
 40
0.8675614972628334
 40
0.9332468143362622
 40
1.0
 40
1.0
 40
1.0
 40
1.0
 10
10.49817400773757
 20
45.57918125156502
 30
0.0
 10
10.54494552961202
 20
45.57331005743634
 30
0.0
 10
10.63923966709859
 20
45.56147338494435
 30
0.0
 10
10.78335383165454
 20
45.55845823281307
 30
0.0
 10
10.93035446973378
 20
45.56601402754801
 30
0.0
 10
11.07705764108116
 20
45.58489810236499
 30
0.0
 10
11.21747612410384
 20
45.61245601622987
 30
0.0
 10
11.34367757962122
 20
45.65383710640395
 30
0.0
 10
11.45374105489136
 20
45.70364339617448
 30
0.0
 10
11.54568805957376
 20
45.76643683704329
 30
0.0
 10
11.62202288070895
 20
45.83775160350579
 30
0.0
 10
11.68354867141411
 20
45.91739993101205
 30
0.0
 10
11.73032500842011
 20
46.00538654822826
 30
0.0
 10
11.74940685114836
 20
46.06844709351959
 30
0.0
 10
11.75902470218202
 20
46.10023159878725
 30
0.0
  0
SPLINE
  5
E0
330
1F
100
AcDbEntity
  8
0
  6
Continuous
 62
     7
370
    25
100
AcDbSpline
210
0.0
220
0.0
230
1.0
 70
     8
 71
     3
 72
    23
 73
    19
 74
     0
 42
0.000000001
 43
0.00000001
 40
0.0
 40
0.0
 40
0.0
 40
0.0
 40
0.0815118567440215
 40
0.1592622879939306
 40
0.2332834876679864
 40
0.3035933607439394
 40
0.3709756173744729
 40
0.435696733254917
 40
0.4978209587523947
 40
0.5575505777854495
 40
0.6154441431345486
 40
0.6714929207444282
 40
0.7263603250581137
 40
0.7802572392587436
 40
0.8345103383217902
 40
0.888485983449073
 40
0.9438349917698987
 40
1.0
 40
1.0
 40
1.0
 40
1.0
 10
11.55774432023757
 20
45.58145989739835
 30
0.0
 10
11.59015590637273
 20
45.5626261757386
 30
0.0
 10
11.65348342179919
 20
45.52582782856817
 30
0.0
 10
11.74192662993462
 20
45.46507913050675
 30
0.0
 10
11.82463817426717
 20
45.4051390734012
 30
0.0
 10
11.89838542535862
 20
45.34146452784206
 30
0.0
 10
11.96537751142285
 20
45.27686277136702
 30
0.0
 10
12.02606441136596
 20
45.21119103553048
 30
0.0
 10
12.07730046318765
 20
45.1422767026668
 30
0.0
 10
12.12278834902299
 20
45.07321397194037
 30
0.0
 10
12.16007350762641
 20
45.00244455226483
 30
0.0
 10
12.1896420642419
 20
44.93062597703886
 30
0.0
 10
12.21315831857283
 20
44.85843508088511
 30
0.0
 10
12.22710608051957
 20
44.78467532776033
 30
0.0
 10
12.23537305652247
 20
44.71045540262696
 30
0.0
 10
12.23382209383703
 20
44.63514520099204
 30
0.0
 10
12.22696156677479
 20
44.55923041557335
 30
0.0
 10
12.21581210231813
 20
44.50914041868543
 30
0.0
 10
12.21019657718202
 20
44.4839121543428
 30
0.0
  0
SPLINE
  5
E1
330
1F
100
AcDbEntity
  8
0
  6
Continuous
 62
     7
370
    25
100
AcDbSpline
210
0.0
220
0.0
230
1.0
 70
     8
 71
     3
 72
    23
 73
    19
 74
     0
 42
0.000000001
 43
0.00000001
 40
0.0
 40
0.0
 40
0.0
 40
0.0
 40
0.0561948613418583
 40
0.1116101419701527
 40
0.167079837525258
 40
0.2228529620071548
 40
0.2793783066284961
 40
0.3372089688841065
 40
0.3963279637234716
 40
0.4574605612673986
 40
0.5199799723864552
 40
0.5835480118527984
 40
0.6484609506322785
 40
0.7147066664661094
 40
0.7830938397414733
 40
0.8529785906930273
 40
0.9254180849043542
 40
1.0
 40
1.0
 40
1.0
 40
1.0
 10
-36.06452222951143
 20
30.29954807175719
 30
0.0
 10
-36.02747453364747
 20
30.26880425646073
 30
0.0
 10
-35.9538930976174
 20
30.20774312901939
 30
0.0
 10
-35.85418295528965
 20
30.10480453587106
 30
0.0
 10
-35.76333560821149
 20
29.99458223729445
 30
0.0
 10
-35.68255284791941
 20
29.87554080462424
 30
0.0
 10
-35.61189055652849
 20
29.74798112425216
 30
0.0
 10
-35.55025195047217
 20
29.61267223032813
 30
0.0
 10
-35.49866348061262
 20
29.4690307677614
 30
0.0
 10
-35.45634649253269
 20
29.31824960027261
 30
0.0
 10
-35.42374602254213
 20
29.16117861651293
 30
0.0
 10
-35.40165923110153
 20
28.99900061679512
 30
0.0
 10
-35.39090629255786
 20
28.83253074079523
 30
0.0
 10
-35.38822157584129
 20
28.66162509571155
 30
0.0
 10
-35.39671777939
 20
28.4865940347551
 30
0.0
 10
-35.41632687837421
 20
28.3071900352284
 30
0.0
 10
-35.44471512211214
 20
28.1235579261694
 30
0.0
 10
-35.47143302094374
 20
28.00052455630151
 30
0.0
 10
-35.48498663923365
 20
27.93811143981274
 30
0.0
  0
SPLINE
  5
E2
330
1F
100
AcDbEntity
  8
0
  6
Continuous
 62
     7
370
    25
100
AcDbSpline
210
0.0
220
0.0
230
1.0
 70
     8
 71
     3
 72
    15
 73
    11
 74
     0
 42
0.000000001
 43
0.00000001
 40
0.0
 40
0.0
 40
0.0
 40
0.0
 40
0.1331298011478039
 40
0.2614364984547182
 40
0.3867876125612921
 40
0.5100614424957309
 40
0.6321811157291732
 40
0.753804754465576
 40
0.8760023598532415
 40
1.0
 40
1.0
 40
1.0
 40
1.0
 10
-38.14568542395588
 20
29.97825900925719
 30
0.0
 10
-38.1146138542167
 20
30.01598349812788
 30
0.0
 10
-38.05359639363266
 20
30.09006577115253
 30
0.0
 10
-37.95345892807416
 20
30.19099708827452
 30
0.0
 10
-37.84743576381699
 20
30.2800914982763
 30
0.0
 10
-37.73618524002015
 20
30.35867626782876
 30
0.0
 10
-37.61971598859252
 20
30.42670894655157
 30
0.0
 10
-37.49760794866965
 20
30.4830149721158
 30
0.0
 10
-37.37021367089975
 20
30.52841528134686
 30
0.0
 10
-37.28230203214198
 20
30.5494692792135
 30
0.0
 10
-37.2380248336781
 20
30.56007324536829
 30
0.0
  0
SPLINE
  5
E3
330
1F
100
AcDbEntity
  8
0
  6
Continuous
 62
     7
370
    25
100
AcDbSpline
210
0.0
220
0.0
230
1.0
 70
     8
 71
     3
 72
    15
 73
    11
 74
     0
 42
0.000000001
 43
0.00000001
 40
0.0
 40
0.0
 40
0.0
 40
0.0
 40
0.1430664515167084
 40
0.280856514771246
 40
0.4124525827228213
 40
0.5392595301407179
 40
0.6608499999206652
 40
0.7776751378873057
 40
0.8911061802407242
 40
1.0
 40
1.0
 40
1.0
 40
1.0
 10
-36.09566372256698
 20
29.30833713425719
 30
0.0
 10
-36.1079772198481
 20
29.2596351002144
 30
0.0
 10
-36.13215008423634
 20
29.16402719634513
 30
0.0
 10
-36.17351782884955
 20
29.02516570675358
 30
0.0
 10
-36.22043480798103
 20
28.89417333724142
 30
0.0
 10
-36.26966817659546
 20
28.77009129076209
 30
0.0
 10
-36.32564770953045
 20
28.65461084830482
 30
0.0
 10
-36.38495561475241
 20
28.54620891641393
 30
0.0
 10
-36.44809179258606
 20
28.44507807963364
 30
0.0
 10
-36.49499818750979
 20
28.38264493501157
 30
0.0
 10
-36.51797275034476
 20
28.3520654328683
 30
0.0
  0
SPLINE
  5
E4
330
1F
100
AcDbEntity
  8
0
  6
Continuous
 62
     7
370
    25
100
AcDbSpline
210
0.0
220
0.0
230
1.0
 70
     8
 71
     3
 72
    23
 73
    19
 74
     0
 42
0.000000001
 43
0.00000001
 40
0.0
 40
0.0
 40
0.0
 40
0.0
 40
0.0712637509250726
 40
0.1404131439573139
 40
0.2078667256929787
 40
0.2748392009757751
 40
0.3409634252314968
 40
0.4067262140467774
 40
0.4727238442663074
 40
0.5396775862803304
 40
0.605038568528591
 40
0.666304847971797
 40
0.7249012296625789
 40
0.7813581809840137
 40
0.8357889037815792
 40
0.8899552299841018
 40
0.94440131495031
 40
1.0
 40
1.0
 40
1.0
 40
1.0
 10
-6.560386401294922
 20
44.68635317504787
 30
0.0
 10
-6.526612390649364
 20
44.69164907220082
 30
0.0
 10
-6.460066426435707
 20
44.70208374003217
 30
0.0
 10
-6.363288237850977
 20
44.7266227850905
 30
0.0
 10
-6.270863700675049
 20
44.7582469965534
 30
0.0
 10
-6.181904797414383
 20
44.79501891543956
 30
0.0
 10
-6.0972521305576
 20
44.83923038264746
 30
0.0
 10
-6.017330104727161
 20
44.89057164187167
 30
0.0
 10
-5.940970351929675
 20
44.94770149908422
 30
0.0
 10
-5.869462750918615
 20
45.01059245807846
 30
0.0
 10
-5.805765075122734
 20
45.0782792716251
 30
0.0
 10
-5.750183293244098
 20
45.1476989716399
 30
0.0
 10
-5.70473639023103
 20
45.21928928013695
 30
0.0
 10
-5.670758631681934
 20
45.29331456836329
 30
0.0
 10
-5.645490428011891
 20
45.3685749102512
 30
0.0
 10
-5.632237754748582
 20
45.44585813984628
 30
0.0
 10
-5.62786622002388
 20
45.52476641097043
 30
0.0
 10
-5.633280332064856
 20
45.57733055097653
 30
0.0
 10
-5.636015741572701
 20
45.60388789727009
 30
0.0
  0
SPLINE
  5
E5
330
1F
100
AcDbEntity
  8
0
  6
Continuous
 62
     7
370
    25
100
AcDbSpline
210
0.0
220
0.0
230
1.0
 70
     8
 71
     3
 72
    11
 73
     7
 74
     0
 42
0.000000001
 43
0.00000001
 40
0.0
 40
0.0
 40
0.0
 40
0.0
 40
0.2512573558015222
 40
0.5005050903446695
 40
0.7489482622887179
 40
1.0
 40
1.0
 40
1.0
 40
1.0
 10
-6.108454977683811
 20
44.62558928615898
 30
0.0
 10
-6.17275138596225
 20
44.59449586471897
 30
0.0
 10
-6.300829943231074
 20
44.53255771505837
 30
0.0
 10
-6.5017192860898
 20
44.46156818181309
 30
0.0
 10
-6.706905943685537
 20
44.40447532495294
 30
0.0
 10
-6.846974315552933
 20
44.3812797566942
 30
0.0
 10
-6.917374248517145
 20
44.36962140421453
 30
0.0
  0
SPLINE
  5
E6
330
1F
100
AcDbEntity
  8
0
  6
Continuous
 62
     7
370
    25
100
AcDbSpline
210
0.0
220
0.0
230
1.0
 70
     8
 71
     3
 72
    23
 73
    19
 74
     0
 42
0.000000001
 43
0.00000001
 40
0.0
 40
0.0
 40
0.0
 40
0.0
 40
0.0866527632993337
 40
0.1693203869797842
 40
0.2480580661345353
 40
0.3234337830466753
 40
0.3954534230237131
 40
0.4648918075058551
 40
0.5318583791353154
 40
0.5969974898458065
 40
0.6589850837524222
 40
0.7165113964483313
 40
0.7695561494844251
 40
0.8196811061320785
 40
0.8663309124057775
 40
0.911554439446254
 40
0.9557188332902582
 40
1.0
 40
1.0
 40
1.0
 40
1.0
 10
-31.75702074410325
 20
36.69507267922386
 30
0.0
 10
-31.72097154081807
 20
36.72572063975305
 30
0.0
 10
-31.65053102838484
 20
36.78560706852184
 30
0.0
 10
-31.54046850857758
 20
36.86462929349038
 30
0.0
 10
-31.43287030857102
 20
36.93631408501736
 30
0.0
 10
-31.32489574036583
 20
36.99644261322884
 30
0.0
 10
-31.21723055508008
 20
37.04576701584276
 30
0.0
 10
-31.1109765803961
 20
37.0867575929791
 30
0.0
 10
-31.00486240599044
 20
37.11634265044129
 30
0.0
 10
-30.90066014357733
 20
37.13621269010233
 30
0.0
 10
-30.80021274821451
 20
37.14579983520415
 30
0.0
 10
-30.70594159353783
 20
37.14774947772746
 30
0.0
 10
-30.61833137463331
 20
37.14121291217813
 30
0.0
 10
-30.53774276601979
 20
37.12585960269885
 30
0.0
 10
-30.46438392925964
 20
37.10012087614153
 30
0.0
 10
-30.3976761960058
 20
37.06702385448136
 30
0.0
 10
-30.33815590412025
 20
37.02402605092946
 30
0.0
 10
-30.3047691481335
 20
36.98905632269449
 30
0.0
 10
-30.28805373021437
 20
36.97154837366831
 30
0.0
  0
SPLINE
  5
E7
330
1F
100
AcDbEntity
  8
0
  6
Continuous
 62
     7
370
    25
100
AcDbSpline
210
0.0
220
0.0
230
1.0
 70
     8
 71
     3
 72
    23
 73
    19
 74
     0
 42
0.000000001
 43
0.00000001
 40
0.0
 40
0.0
 40
0.0
 40
0.0
 40
0.0703252213307751
 40
0.1385948010715393
 40
0.2051346945342075
 40
0.2698201201096713
 40
0.332870363851663
 40
0.394972089971582
 40
0.4559091546211317
 40
0.5159467212217479
 40
0.5757484385189346
 40
0.6351874951559369
 40
0.694139533883779
 40
0.7540262639320918
 40
0.8139318693193174
 40
0.8750426200660294
 40
0.9369049444231136
 40
1.0
 40
1.0
 40
1.0
 40
1.0
 10
-15.46670302166497
 20
42.41345687440217
 30
0.0
 10
-15.49899268047957
 20
42.42239596258632
 30
0.0
 10
-15.56262815514135
 20
42.44001284491106
 30
0.0
 10
-15.65447958240263
 20
42.47348058496429
 30
0.0
 10
-15.74274980781946
 20
42.50867086935435
 30
0.0
 10
-15.82645560413104
 20
42.54824679924791
 30
0.0
 10
-15.90575091537709
 20
42.5917645607901
 30
0.0
 10
-15.98099071614833
 20
42.63869008565074
 30
0.0
 10
-16.05183400508971
 20
42.68963704833494
 30
0.0
 10
-16.11809683338325
 20
42.74468349931691
 30
0.0
 10
-16.18054958767798
 20
42.80299494259884
 30
0.0
 10
-16.23812801699787
 20
42.86542099545835
 30
0.0
 10
-16.29190737070125
 20
42.93119983366866
 30
0.0
 10
-16.34086351446884
 20
43.00090406005022
 30
0.0
 10
-16.38633574826905
 20
43.07417405236571
 30
0.0
 10
-16.42591849913294
 20
43.15181011131684
 30
0.0
 10
-16.46311303288226
 20
43.23231397369121
 30
0.0
 10
-16.48337952911543
 20
43.2882940215331
 30
0.0
 10
-16.49361274388719
 20
43.31656017301328
 30
0.0
  0
SPLINE
  5
E8
330
1F
100
AcDbEntity
  8
0
  6
Continuous
 62
     7
370
    25
100
AcDbSpline
210
0.0
220
0.0
230
1.0
 70
     8
 71
     3
 72
     9
 73
     5
 74
     0
 42
0.000000001
 43
0.00000001
 40
0.0
 40
0.0
 40
0.0
 40
0.0
 40
0.4852779538144555
 40
1.0
 40
1.0
 40
1.0
 40
1.0
 10
10.32727557023758
 20
43.95830451545392
 30
0.0
 10
10.36890267160175
 20
43.93946695579219
 30
0.0
 10
10.45468258605484
 20
43.90064887326102
 30
0.0
 10
10.54557414586756
 20
43.87603185901084
 30
0.0
 10
10.59235803551535
 20
43.86336093906502
 30
0.0
  0
SPLINE
  5
E9
330
1F
100
AcDbEntity
  8
0
  6
Continuous
 62
     7
370
    25
100
AcDbSpline
210
0.0
220
0.0
230
1.0
 70
     8
 71
     3
 72
    11
 73
     7
 74
     0
 42
0.000000001
 43
0.00000001
 40
0.0
 40
0.0
 40
0.0
 40
0.0
 40
0.2737052809836481
 40
0.5311941736594707
 40
0.7726298781375475
 40
1.0
 40
1.0
 40
1.0
 40
1.0
 10
11.60103859107091
 20
44.72468906406502
 30
0.0
 10
11.5919878874074
 20
44.75050199752094
 30
0.0
 10
11.57442271279221
 20
44.80059850938785
 30
0.0
 10
11.53950170435377
 20
44.86949609115538
 30
0.0
 10
11.50241138318565
 20
44.93204720153959
 30
0.0
 10
11.47215715756847
 20
44.96784995567727
 30
0.0
 10
11.45748390357091
 20
44.98521423767614
 30
0.0
  0
SPLINE
  5
EA
330
1F
100
AcDbEntity
  8
0
  6
Continuous
 62
     7
370
    25
100
AcDbSpline
210
0.0
220
0.0
230
1.0
 70
     8
 71
     3
 72
    23
 73
    19
 74
     0
 42
0.000000001
 43
0.00000001
 40
0.0
 40
0.0
 40
0.0
 40
0.0
 40
0.0832066066653468
 40
0.1594226602541187
 40
0.2292764914047618
 40
0.2927809403695786
 40
0.3502081881002154
 40
0.4013127791670661
 40
0.4454827683802844
 40
0.4836090534333828
 40
0.5526713236619138
 40
0.6192014702716875
 40
0.6835910919183628
 40
0.7462608148073584
 40
0.8084847485904082
 40
0.8718062821198019
 40
0.934708779594428
 40
1.0
 40
1.0
 40
1.0
 40
1.0
 10
19.33701853917357
 20
41.02151129889533
 30
0.0
 10
19.3651050458073
 20
41.00856224855202
 30
0.0
 10
19.41891838809154
 20
40.98375205455147
 30
0.0
 10
19.49657694937623
 20
40.94865249336613
 30
0.0
 10
19.56793362608726
 20
40.91739423077922
 30
0.0
 10
19.63343776572941
 20
40.89022299575092
 30
0.0
 10
19.69248823760455
 20
40.86568249749131
 30
0.0
 10
19.74544239857232
 20
40.84522517264428
 30
0.0
 10
19.79212744837657
 20
40.82852310562504
 30
0.0
 10
19.84525209997377
 20
40.80995565858424
 30
0.0
 10
19.90787554134664
 20
40.79381906700691
 30
0.0
 10
19.980934793413
 20
40.77991841552671
 30
0.0
 10
20.05256634835211
 20
40.77198630872698
 30
0.0
 10
20.12301138355239
 20
40.77132538798921
 30
0.0
 10
20.19290365508017
 20
40.77698572526422
 30
0.0
 10
20.26150264565073
 20
40.79183732675109
 30
0.0
 10
20.32961458131284
 20
40.81306100619977
 30
0.0
 10
20.37298199829868
 20
40.8329086406521
 30
0.0
 10
20.39506975445135
 20
40.84301737528422
 30
0.0
  0
SPLINE
  5
EB
330
1F
100
AcDbEntity
  8
0
  6
Continuous
 62
     7
370
    25
100
AcDbSpline
210
0.0
220
0.0
230
1.0
 70
     8
 71
     3
 72
    15
 73
    11
 74
     0
 42
0.000000001
 43
0.00000001
 40
0.0
 40
0.0
 40
0.0
 40
0.0
 40
0.1211493940224426
 40
0.2409583034093101
 40
0.3607245088707058
 40
0.4812388802305642
 40
0.6044116955735507
 40
0.7312095615669176
 40
0.8627636976452785
 40
1.0
 40
1.0
 40
1.0
 40
1.0
 10
-38.51254740312255
 20
28.81083279397941
 30
0.0
 10
-38.51705753648105
 20
28.8614336342687
 30
0.0
 10
-38.52602789981619
 20
28.9620754305036
 30
0.0
 10
-38.51780415182991
 20
29.11337520254881
 30
0.0
 10
-38.49626723801546
 20
29.26284619068522
 30
0.0
 10
-38.45776611893346
 20
29.41048083628695
 30
0.0
 10
-38.40318800326679
 20
29.55597747303467
 30
0.0
 10
-38.33397933779663
 20
29.70026208189329
 30
0.0
 10
-38.24754993024667
 20
29.84199982272236
 30
0.0
 10
-38.18011544242563
 20
29.93220365121447
 30
0.0
 10
-38.14568542395588
 20
29.97825900925719
 30
0.0
  0
SPLINE
  5
EC
330
1F
100
AcDbEntity
  8
0
  6
Continuous
 62
     7
370
    25
100
AcDbSpline
210
0.0
220
0.0
230
1.0
 70
     8
 71
     3
 72
    35
 73
    31
 74
     0
 42
0.000000001
 43
0.00000001
 40
0.0
 40
0.0
 40
0.0
 40
0.0
 40
0.0300864595902222
 40
0.059799369308461
 40
0.0894894292163411
 40
0.1193195757720242
 40
0.1494524034939254
 40
0.179831332666698
 40
0.2108038205817225
 40
0.2422811811744054
 40
0.274426609602665
 40
0.3071222881169026
 40
0.3401084641371453
 40
0.3740410107882218
 40
0.4083910035194043
 40
0.4437869027811796
 40
0.479946982447705
 40
0.5171713959750076
 40
0.5543577634404749
 40
0.5904147370503922
 40
0.6252674106162093
 40
0.6589671509976331
 40
0.6915707748326613
 40
0.7232691266683712
 40
0.7538750782613131
 40
0.7838666469930936
 40
0.8416265188300579
 40
0.896792165921503
 40
0.9495671376548878
 40
0.9999999999999999
 40
0.9999999999999999
 40
0.9999999999999999
 40
0.9999999999999999
 10
-16.49361274388719
 20
43.31656017301329
 30
0.0
 10
-16.50556861705516
 20
43.35336392780178
 30
0.0
 10
-16.52933192070453
 20
43.42651448637565
 30
0.0
 10
-16.55491471034775
 20
43.53883835092523
 30
0.0
 10
-16.57259400256187
 20
43.65228678416817
 30
0.0
 10
-16.58140004603538
 20
43.76731015437139
 30
0.0
 10
-16.58315691106576
 20
43.88352586309044
 30
0.0
 10
-16.57620685670037
 20
44.00105352564117
 30
0.0
 10
-16.56071565930524
 20
44.1194625957605
 30
0.0
 10
-16.53811607751163
 20
44.23904671112744
 30
0.0
 10
-16.50663986370848
 20
44.35889487919938
 30
0.0
 10
-16.46819947350849
 20
44.4787242926942
 30
0.0
 10
-16.42119152280045
 20
44.59793675385852
 30
0.0
 10
-16.36753575531256
 20
44.71660901220628
 30
0.0
 10
-16.30652360493009
 20
44.83520851615956
 30
0.0
 10
-16.23709621131389
 20
44.95239133992374
 30
0.0
 10
-16.16136178324537
 20
45.07003960365002
 30
0.0
 10
-16.07710572229501
 20
45.18460248433372
 30
0.0
 10
-15.9902221118967
 20
45.29697220446044
 30
0.0
 10
-15.90050375371214
 20
45.4031614664654
 30
0.0
 10
-15.8101531201388
 20
45.50281740875845
 30
0.0
 10
-15.71903195322252
 20
45.59567192341704
 30
0.0
 10
-15.62680138260946
 20
45.68155417850553
 30
0.0
 10
-15.53460762039504
 20
45.76155069235257
 30
0.0
 10
-15.44058619444925
 20
45.83405568632514
 30
0.0
 10
-15.31541395240662
 20
45.92064778122262
 30
0.0
 10
-15.15917304785379
 20
46.01758071766781
 30
0.0
 10
-14.97214183588225
 20
46.11972934308221
 30
0.0
 10
-14.78773950125322
 20
46.20664008783079
 30
0.0
 10
-14.66319553754
 20
46.25256207610879
 30
0.0
 10
-14.60233670222052
 20
46.27500201329106
 30
0.0
  0
SPLINE
  5
ED
330
1F
100
AcDbEntity
  8
0
  6
Continuous
 62
     7
370
    25
100
AcDbSpline
210
0.0
220
0.0
230
1.0
 70
     8
 71
     3
 72
    27
 73
    23
 74
     0
 42
0.000000001
 43
0.00000001
 40
0.0
 40
0.0
 40
0.0
 40
0.0
 40
0.0813909969630309
 40
0.1605461812580723
 40
0.2379607164879876
 40
0.3141391531451174
 40
0.3524595133679952
 40
0.3917692841463817
 40
0.431801175824325
 40
0.4728750511893285
 40
0.5148997119597106
 40
0.5585075284546261
 40
0.6032799076838807
 40
0.6495541905064698
 40
0.6960940471802459
 40
0.7414581162958326
 40
0.7859321110509992
 40
0.8297865240771263
 40
0.8728407239316065
 40
0.9154986467398987
 40
0.9579107999180221
 40
1.0
 40
1.0
 40
1.0
 40
1.0
 10
-36.24529479895587
 20
26.68561578009052
 30
0.0
 10
-36.20006353976273
 20
26.7468553677386
 30
0.0
 10
-36.11084352516763
 20
26.86765229007122
 30
0.0
 10
-35.9989730878336
 20
27.06036846186946
 30
0.0
 10
-35.90447378114583
 20
27.25661774887205
 30
0.0
 10
-35.84290190867067
 20
27.42539534340865
 30
0.0
 10
-35.80224548725445
 20
27.5634121823998
 30
0.0
 10
-35.78041212089943
 20
27.67129561576713
 30
0.0
 10
-35.7621761359375
 20
27.78242599873315
 30
0.0
 10
-35.75229724121376
 20
27.89718403077233
 30
0.0
 10
-35.74671100220687
 20
28.01551431583826
 30
0.0
 10
-35.74734578167747
 20
28.13749136475062
 30
0.0
 10
-35.75557296742208
 20
28.26314025747391
 30
0.0
 10
-35.76813053116224
 20
28.39115232555029
 30
0.0
 10
-35.78644105998468
 20
28.51909908789847
 30
0.0
 10
-35.81290175680324
 20
28.64386196131127
 30
0.0
 10
-35.84349145431788
 20
28.76509081740699
 30
0.0
 10
-35.88164612891759
 20
28.88192076478663
 30
0.0
 10
-35.92578181264764
 20
28.99478220237965
 30
0.0
 10
-35.97610374568091
 20
29.10352094483923
 30
0.0
 10
-36.03183594432033
 20
29.20864362529168
 30
0.0
 10
-36.07444207483351
 20
29.27519074272207
 30
0.0
 10
-36.09566372256698
 20
29.30833713425719
 30
0.0
  0
SPLINE
  5
EE
330
1F
100
AcDbEntity
  8
0
  6
Continuous
 62
     7
370
    25
100
AcDbSpline
210
0.0
220
0.0
230
1.0
 70
     8
 71
     3
 72
    15
 73
    11
 74
     0
 42
0.000000001
 43
0.00000001
 40
0.0
 40
0.0
 40
0.0
 40
0.0
 40
0.119376281560099
 40
0.238394200531787
 40
0.3567131990850403
 40
0.4774769340964509
 40
0.6005183289678007
 40
0.7276014710885756
 40
0.8610382034372241
 40
1.0
 40
1.0
 40
1.0
 40
1.0
 10
-13.54276638972052
 20
44.12699854106884
 30
0.0
 10
-13.53211984221909
 20
44.09276651460905
 30
0.0
 10
-13.5108587077051
 20
44.02440522479658
 30
0.0
 10
-13.49287305393737
 20
43.91851959715191
 30
0.0
 10
-13.48727936412429
 20
43.81108538393153
 30
0.0
 10
-13.4910285766176
 20
43.70224021546361
 30
0.0
 10
-13.50969180678717
 20
43.59228353376874
 30
0.0
 10
-13.53771840784424
 20
43.48055721373117
 30
0.0
 10
-13.57795665014795
 20
43.36737293235318
 30
0.0
 10
-13.6129979877639
 20
43.29348803642075
 30
0.0
 10
-13.63087402860941
 20
43.25579628412439
 30
0.0
  0
SPLINE
  5
EF
330
1F
100
AcDbEntity
  8
0
  6
Continuous
 62
     7
370
    25
100
AcDbSpline
210
0.0
220
0.0
230
1.0
 70
     8
 71
     3
 72
    15
 73
    11
 74
     0
 42
0.000000001
 43
0.00000001
 40
0.0
 40
0.0
 40
0.0
 40
0.0
 40
0.1479496756860225
 40
0.2856779251557297
 40
0.4161477689750932
 40
0.5399538903228018
 40
0.6586319622916964
 40
0.7740292078038155
 40
0.8877407357209806
 40
1.0
 40
1.0
 40
1.0
 40
1.0
 10
12.26336497995979
 20
46.66305711962058
 30
0.0
 10
12.27740253754537
 20
46.64226899449727
 30
0.0
 10
12.30450783741646
 20
46.60212893724082
 30
0.0
 10
12.33803390593485
 20
46.53997358984454
 30
0.0
 10
12.36508163254987
 20
46.47921654879357
 30
0.0
 10
12.3843720979698
 20
46.41886904708188
 30
0.0
 10
12.39572853186105
 20
46.35916932411709
 30
0.0
 10
12.40060460184661
 20
46.30032172945884
 30
0.0
 10
12.3977317234432
 20
46.24230409053519
 30
0.0
 10
12.39016894302265
 20
46.20472792687946
 30
0.0
 10
12.3864118549598
 20
46.1860605918428
 30
0.0
  0
SPLINE
  5
F0
330
1F
100
AcDbEntity
  8
0
  6
Continuous
 62
     7
370
    25
100
AcDbSpline
210
0.0
220
0.0
230
1.0
 70
     8
 71
     3
 72
    15
 73
    11
 74
     0
 42
0.000000001
 43
0.00000001
 40
0.0
 40
0.0
 40
0.0
 40
0.0
 40
0.1198003224398782
 40
0.2388358083541209
 40
0.357769240379723
 40
0.4778908363104804
 40
0.6012918437814507
 40
0.7287780532851459
 40
0.8611843449129889
 40
1.0
 40
1.0
 40
1.0
 40
1.0
 10
-13.63087402860941
 20
43.25579628412439
 30
0.0
 10
-13.6548960757764
 20
43.21059920274195
 30
0.0
 10
-13.70278680709164
 20
43.12049358994074
 30
0.0
 10
-13.79315588368847
 20
42.99689360165398
 30
0.0
 10
-13.89415980209383
 20
42.88190863110181
 30
0.0
 10
-14.0094536983368
 20
42.77830501192003
 30
0.0
 10
-14.13672420050841
 20
42.68375294419934
 30
0.0
 10
-14.27711667283621
 20
42.59933354839335
 30
0.0
 10
-14.43065166178948
 20
42.52533696632529
 30
0.0
 10
-14.53918972796354
 20
42.48499452623926
 30
0.0
 10
-14.59474121610941
 20
42.46434663134661
 30
0.0
  0
SPLINE
  5
F1
330
1F
100
AcDbEntity
  8
0
  6
Continuous
 62
     7
370
    25
100
AcDbSpline
210
0.0
220
0.0
230
1.0
 70
     8
 71
     3
 72
    15
 73
    11
 74
     0
 42
0.000000001
 43
0.00000001
 40
0.0
 40
0.0
 40
0.0
 40
0.0
 40
0.1224647121534009
 40
0.241926481777523
 40
0.3615286433054926
 40
0.4807795151726397
 40
0.6026059461682383
 40
0.7296910446892678
 40
0.8611891512950187
 40
0.9999999999999999
 40
0.9999999999999999
 40
0.9999999999999999
 40
0.9999999999999999
 10
12.21019657718202
 20
44.4839121543428
 30
0.0
 10
12.20012805935761
 20
44.44819004103282
 30
0.0
 10
12.18023791262765
 20
44.37762175207203
 30
0.0
 10
12.13619725926585
 20
44.277004032134
 30
0.0
 10
12.08070761156608
 20
44.18347143541615
 30
0.0
 10
12.01365876343023
 20
44.09697170326822
 30
0.0
 10
11.93633373322101
 20
44.01636426818371
 30
0.0
 10
11.84725778830894
 20
43.9429819019136
 30
0.0
 10
11.74683193826033
 20
43.87624243878788
 30
0.0
 10
11.67409151877001
 20
43.83862478622417
 30
0.0
 10
11.63673737579313
 20
43.81930711962058
 30
0.0
  0
SPLINE
  5
F2
330
1F
100
AcDbEntity
  8
0
  6
Continuous
 62
     7
370
    25
100
AcDbSpline
210
0.0
220
0.0
230
1.0
 70
     8
 71
     3
 72
    15
 73
    11
 74
     0
 42
0.000000001
 43
0.00000001
 40
0.0
 40
0.0
 40
0.0
 40
0.0
 40
0.1226996301631128
 40
0.245105612042197
 40
0.3680053106317672
 40
0.4912241621960261
 40
0.6159377805883408
 40
0.7420420539962707
 40
0.8701148900680022
 40
1.0
 40
1.0
 40
1.0
 40
1.0
 10
-35.48498663923365
 20
27.93811143981274
 30
0.0
 10
-35.49748023163089
 20
27.88678129696249
 30
0.0
 10
-35.52243751640068
 20
27.78424385603623
 30
0.0
 10
-35.57198572506673
 20
27.63365734250356
 30
0.0
 10
-35.62869335763005
 20
27.48546860881013
 30
0.0
 10
-35.69431339981936
 20
27.33987518141202
 30
0.0
 10
-35.76864058228722
 20
27.19695823142166
 30
0.0
 10
-35.85281103813519
 20
27.05720601893865
 30
0.0
 10
-35.94423219259646
 20
26.91936481784807
 30
0.0
 10
-36.0116086234931
 20
26.83108550386305
 30
0.0
 10
-36.04553351423365
 20
26.78663574536829
 30
0.0
  0
SPLINE
  5
F3
330
1F
100
AcDbEntity
  8
0
  6
Continuous
 62
     7
370
    25
100
AcDbSpline
210
0.0
220
0.0
230
1.0
 70
     8
 71
     3
 72
    19
 73
    15
 74
     0
 42
0.000000001
 43
0.00000001
 40
0.0
 40
0.0
 40
0.0
 40
0.0
 40
0.1354799222592517
 40
0.2659062443946319
 40
0.3925260413354956
 40
0.5172966393673116
 40
0.5787786025091857
 40
0.639628662544562
 40
0.6991414531657523
 40
0.7583301154528651
 40
0.8181711774914928
 40
0.8777254714337275
 40
0.9382002245136135
 40
1.0
 40
1.0
 40
1.0
 40
1.0
 10
19.87098121278468
 20
43.82348612528422
 30
0.0
 10
19.81778275216274
 20
43.84607391385263
 30
0.0
 10
19.71337021165
 20
43.89040693329379
 30
0.0
 10
19.55111267346205
 20
43.93332460295599
 30
0.0
 10
19.38978239427178
 20
43.95684954254907
 30
0.0
 10
19.25594877281995
 20
43.95849239399814
 30
0.0
 10
19.1510944174115
 20
43.94815171577773
 30
0.0
 10
19.07453652662361
 20
43.93564136074443
 30
0.0
 10
19.00035187390459
 20
43.91646499174039
 30
0.0
 10
18.92850220918778
 20
43.89118001238294
 30
0.0
 10
18.8589184036568
 20
43.86014914405979
 30
0.0
 10
18.79156697866337
 20
43.82341094247491
 30
0.0
 10
18.72662376881636
 20
43.78090454993097
 30
0.0
 10
18.68607277723597
 20
43.74814036141986
 30
0.0
 10
18.66557756695135
 20
43.73158074333978
 30
0.0
  0
SPLINE
  5
F4
330
1F
100
AcDbEntity
  8
0
  6
Continuous
 62
     7
370
    25
100
AcDbSpline
210
0.0
220
0.0
230
1.0
 70
     8
 71
     3
 72
    15
 73
    11
 74
     0
 42
0.000000001
 43
0.00000001
 40
0.0
 40
0.0
 40
0.0
 40
0.0
 40
0.1479810729738125
 40
0.2858887157907043
 40
0.416254178908624
 40
0.5399921529052797
 40
0.6584277969425867
 40
0.7732325900083776
 40
0.8862270319074591
 40
1.0
 40
1.0
 40
1.0
 40
1.0
 10
-30.39666918160325
 20
33.48901799172386
 30
0.0
 10
-30.42857838419678
 20
33.48879112304937
 30
0.0
 10
-30.49022465265562
 20
33.48835282920071
 30
0.0
 10
-30.57984861786507
 20
33.49554089935847
 30
0.0
 10
-30.66296417698544
 20
33.51172118336738
 30
0.0
 10
-30.74006259887892
 20
33.53449928787737
 30
0.0
 10
-30.81159614751335
 20
33.56359001625509
 30
0.0
 10
-30.8755593532059
 20
33.60243587882668
 30
0.0
 10
-30.93447560864668
 20
33.64708039481662
 30
0.0
 10
-30.96782690729741
 20
33.68294046344118
 30
0.0
 10
-30.98455980660325
 20
33.70093205422386
 30
0.0
  0
SPLINE
  5
F5
330
1F
100
AcDbEntity
  8
0
  6
Continuous
 62
     7
370
    25
100
AcDbSpline
210
0.0
220
0.0
230
1.0
 70
     8
 71
     3
 72
    31
 73
    27
 74
     0
 42
0.000000001
 43
0.00000001
 40
0.0
 40
0.0
 40
0.0
 40
0.0
 40
0.0552755384660888
 40
0.1089768507609267
 40
0.1604313139180751
 40
0.2103535050412523
 40
0.2582593658846806
 40
0.3046419566083848
 40
0.3487925218532613
 40
0.3914314811470911
 40
0.4320210252930917
 40
0.4711633632811535
 40
0.5080422227878304
 40
0.5434385522638636
 40
0.5769273761450122
 40
0.6088250248293094
 40
0.6386257278287607
 40
0.6669996033411806
 40
0.7198798273156234
 40
0.7689499091387989
 40
0.8146318204716825
 40
0.8568709381723278
 40
0.8959828187992244
 40
0.932528603064513
 40
0.966991148724642
 40
0.9999999999999999
 40
0.9999999999999999
 40
0.9999999999999999
 40
0.9999999999999999
 10
17.38421906000691
 20
41.60256598639533
 30
0.0
 10
17.44499130095475
 20
41.6118801070862
 30
0.0
 10
17.56480501269713
 20
41.63024308587689
 30
0.0
 10
17.7410465406284
 20
41.65819722004409
 30
0.0
 10
17.91124170286422
 20
41.68625827497671
 30
0.0
 10
18.07474236255599
 20
41.71521610828562
 30
0.0
 10
18.23255595965803
 20
41.74393444900987
 30
0.0
 10
18.38366128768208
 20
41.77357251151717
 30
0.0
 10
18.52882811546457
 20
41.80305594800002
 30
0.0
 10
18.6671245677856
 20
41.8338416580474
 30
0.0
 10
18.80012738425848
 20
41.86280824751802
 30
0.0
 10
18.92594660716149
 20
41.89436113083752
 30
0.0
 10
19.04612138327428
 20
41.9246117123623
 30
0.0
 10
19.15969289781359
 20
41.9553502300731
 30
0.0
 10
19.26692692657952
 20
41.98802679050445
 30
0.0
 10
19.3684247450268
 20
42.01818976792729
 30
0.0
 10
19.46325576996062
 20
42.05057671149351
 30
0.0
 10
19.57919385196181
 20
42.09319604505478
 30
0.0
 10
19.71366994415357
 20
42.14753153022946
 30
0.0
 10
19.86165305537206
 20
42.21898699817399
 30
0.0
 10
19.99409653347156
 20
42.29462204292332
 30
0.0
 10
20.11092716187416
 20
42.37433729502647
 30
0.0
 10
20.21244454885242
 20
42.45780990310855
 30
0.0
 10
20.29704820913079
 20
42.54660782978304
 30
0.0
 10
20.36833179110382
 20
42.63842251505282
 30
0.0
 10
20.40260696046514
 20
42.70534892920316
 30
0.0
 10
20.41937531000691
 20
42.73809116000645
 30
0.0
  0
SPLINE
  5
F6
330
1F
100
AcDbEntity
  8
0
  6
Continuous
 62
     7
370
    25
100
AcDbSpline
210
0.0
220
0.0
230
1.0
 70
     8
 71
     3
 72
    23
 73
    19
 74
     0
 42
0.000000001
 43
0.00000001
 40
0.0
 40
0.0
 40
0.0
 40
0.0
 40
0.0638232178338622
 40
0.1260667967965213
 40
0.1873601514541653
 40
0.2474620381943427
 40
0.3065576129659442
 40
0.3654795161564283
 40
0.4236535279873935
 40
0.4819595127917614
 40
0.5409643684563294
 40
0.600879952483931
 40
0.662011595518258
 40
0.7247972674510286
 40
0.7899942719181529
 40
0.857416443863205
 40
0.9273948763355571
 40
1.0
 40
1.0
 40
1.0
 40
1.0
 10
10.02877296607091
 20
46.7397715293428
 30
0.0
 10
10.05260773642733
 20
46.76329071820512
 30
0.0
 10
10.09968736125973
 20
46.80974699076162
 30
0.0
 10
10.17344232340519
 20
46.87485241136622
 30
0.0
 10
10.2503578171384
 20
46.93297909441351
 30
0.0
 10
10.32866008425965
 20
46.98626390964591
 30
0.0
 10
10.40862293448279
 20
47.03475946552833
 30
0.0
 10
10.49132805623448
 20
47.07624062908683
 30
0.0
 10
10.5761383476933
 20
47.11206549466431
 30
0.0
 10
10.66299992021144
 20
47.14278700177233
 30
0.0
 10
10.75281546697776
 20
47.16713570549153
 30
0.0
 10
10.84571656741155
 20
47.18490901689768
 30
0.0
 10
10.94179952248928
 20
47.19412289198454
 30
0.0
 10
11.04099297614569
 20
47.19847232079936
 30
0.0
 10
11.14351111910927
 20
47.1941033703122
 30
0.0
 10
11.24934484613191
 20
47.18368830408719
 30
0.0
 10
11.35802641758588
 20
47.16507622769499
 30
0.0
 10
11.4309725876126
 20
47.1484963198406
 30
0.0
 10
11.46811758412646
 20
47.14005364739836
 30
0.0
  0
SPLINE
  5
F7
330
1F
100
AcDbEntity
  8
0
  6
Continuous
 62
     7
370
    25
100
AcDbSpline
210
0.0
220
0.0
230
1.0
 70
     8
 71
     3
 72
    23
 73
    19
 74
     0
 42
0.000000001
 43
0.00000001
 40
0.0
 40
0.0
 40
0.0
 40
0.0
 40
0.0404929721072494
 40
0.0818273008120915
 40
0.1242473519802115
 40
0.1682832535433122
 40
0.2140097070602715
 40
0.2616532584988752
 40
0.3126358150303642
 40
0.3661976266733252
 40
0.4241999677647425
 40
0.4880522496579656
 40
0.5574831509088307
 40
0.6334786359164389
 40
0.7153610755690369
 40
0.8037742120526823
 40
0.898635890279109
 40
1.0
 40
1.0
 40
1.0
 40
1.0
 10
-30.98455980660325
 20
33.70093205422386
 30
0.0
 10
-30.99655680378444
 20
33.71587055383153
 30
0.0
 10
-31.02080006986496
 20
33.7460579428392
 30
0.0
 10
-31.0510898759598
 20
33.79659112375774
 30
0.0
 10
-31.07632846934805
 20
33.85160750156941
 30
0.0
 10
-31.09568207129277
 20
33.91112389734369
 30
0.0
 10
-31.11109254108216
 20
33.97429458889714
 30
0.0
 10
-31.12088624495104
 20
34.04192737780544
 30
0.0
 10
-31.12525867764811
 20
34.11380858330278
 30
0.0
 10
-31.12425501596998
 20
34.19069390090873
 30
0.0
 10
-31.11822466656042
 20
34.27345349451925
 30
0.0
 10
-31.1051017287279
 20
34.36300681920183
 30
0.0
 10
-31.08447792810195
 20
34.45978767631251
 30
0.0
 10
-31.05998839704506
 20
34.56443366507732
 30
0.0
 10
-31.02761295997358
 20
34.67631801186269
 30
0.0
 10
-30.98859975485974
 20
34.79544614128945
 30
0.0
 10
-30.9438408490756
 20
34.92235535929512
 30
0.0
 10
-30.91059021282677
 20
35.00895398625469
 30
0.0
 10
-30.89341397326992
 20
35.05368813061275
 30
0.0
  0
SPLINE
  5
F8
330
1F
100
AcDbEntity
  8
0
  6
Continuous
 62
     7
370
    25
100
AcDbSpline
210
0.0
220
0.0
230
1.0
 70
     8
 71
     3
 72
    15
 73
    11
 74
     0
 42
0.000000001
 43
0.00000001
 40
0.0
 40
0.0
 40
0.0
 40
0.0
 40
0.172574258402783
 40
0.3323053788887524
 40
0.4775966252326236
 40
0.6092670393232323
 40
0.7266518966099778
 40
0.83139626226417
 40
0.9221884327279067
 40
1.0
 40
1.0
 40
1.0
 40
1.0
 10
-30.4612308135477
 20
35.65980792227941
 30
0.0
 10
-30.40505286720062
 20
35.67109461568806
 30
0.0
 10
-30.29687778988122
 20
35.69282803621252
 30
0.0
 10
-30.14094813864441
 20
35.72171933581935
 30
0.0
 10
-29.99790490376785
 20
35.74551575687693
 30
0.0
 10
-29.86824425863617
 20
35.76379125571123
 30
0.0
 10
-29.75150304150762
 20
35.777203118388
 30
0.0
 10
-29.64786169284819
 20
35.7845057231405
 30
0.0
 10
-29.55711441277603
 20
35.78865634290515
 30
0.0
 10
-29.50115999353026
 20
35.78624588356843
 30
0.0
 10
-29.47533671632548
 20
35.78513344311275
 30
0.0
  0
SPLINE
  5
F9
330
1F
100
AcDbEntity
  8
0
  6
Continuous
 62
     7
370
    25
100
AcDbSpline
210
0.0
220
0.0
230
1.0
 70
     8
 71
     3
 72
    19
 73
    15
 74
     0
 42
0.000000001
 43
0.00000001
 40
0.0
 40
0.0
 40
0.0
 40
0.0
 40
0.1235501865365793
 40
0.2379480879882335
 40
0.3417606396800071
 40
0.4348833954938034
 40
0.5189748573585692
 40
0.592745675320332
 40
0.6576433182154886
 40
0.7142433406244635
 40
0.8085971159101043
 40
0.8844521789505532
 40
0.9466281393937894
 40
0.9999999999999999
 40
0.9999999999999999
 40
0.9999999999999999
 40
0.9999999999999999
 10
10.07662452857091
 20
43.76082187656503
 30
0.0
 10
10.03909961982055
 20
43.77023676116298
 30
0.0
 10
9.966829552575932
 20
43.78836909953906
 30
0.0
 10
9.863889879149893
 20
43.8177056371097
 30
0.0
 10
9.771211410711501
 20
43.8480269597944
 30
0.0
 10
9.688676963314418
 20
43.87858577117492
 30
0.0
 10
9.615950059335985
 20
43.90845864901605
 30
0.0
 10
9.553094548902601
 20
43.9387809355726
 30
0.0
 10
9.500116089661024
 20
43.96957105479772
 30
0.0
 10
9.44618088745329
 20
44.01043726044642
 30
0.0
 10
9.394411368642622
 20
44.05966134743313
 30
0.0
 10
9.350620348983481
 20
44.11775862162056
 30
0.0
 10
9.325816964601684
 20
44.17455497494017
 30
0.0
 10
9.329189848148415
 20
44.21107539060867
 30
0.0
 10
9.330747792459796
 20
44.22794427239836
 30
0.0
  0
SPLINE
  5
FA
330
1F
100
AcDbEntity
  8
0
  6
Continuous
 62
     7
370
    25
100
AcDbSpline
210
0.0
220
0.0
230
1.0
 70
     8
 71
     3
 72
    15
 73
    11
 74
     0
 42
0.000000001
 43
0.00000001
 40
0.0
 40
0.0
 40
0.0
 40
0.0
 40
0.1450381178713456
 40
0.2834896042619063
 40
0.4153162866518604
 40
0.5417584864289231
 40
0.6625868324158487
 40
0.7791105926191821
 40
0.8911838214284699
 40
1.0
 40
1.0
 40
1.0
 40
1.0
 10
-7.344240567961589
 20
46.97183494588121
 30
0.0
 10
-7.267276116021581
 20
46.97331608568525
 30
0.0
 10
-7.116842406987504
 20
46.9762111021338
 30
0.0
 10
-6.89640215767591
 20
46.96833620266386
 30
0.0
 10
-6.686854875183959
 20
46.9470979432566
 30
0.0
 10
-6.487641659652736
 20
46.91802006405041
 30
0.0
 10
-6.29928036276893
 20
46.87480793662964
 30
0.0
 10
-6.121375369032516
 20
46.82215370420951
 30
0.0
 10
-5.953782910248645
 20
46.75814512969049
 30
0.0
 10
-5.849280398397878
 20
46.70488606001018
 30
0.0
 10
-5.797799595739367
 20
46.67864918199232
 30
0.0
  0
SPLINE
  5
FB
330
1F
100
AcDbEntity
  8
0
  6
Continuous
 62
     7
370
    25
100
AcDbSpline
210
0.0
220
0.0
230
1.0
 70
     8
 71
     3
 72
    19
 73
    15
 74
     0
 42
0.000000001
 43
0.00000001
 40
0.0
 40
0.0
 40
0.0
 40
0.0
 40
0.114871294067169
 40
0.2205780474085919
 40
0.3170860451506585
 40
0.4044222716201277
 40
0.4822759560624908
 40
0.5512212301281672
 40
0.6114991232064514
 40
0.6633502798038303
 40
0.75425586265535
 40
0.8395385456879992
 40
0.9202823734524274
 40
0.9999999999999999
 40
0.9999999999999999
 40
0.9999999999999999
 40
0.9999999999999999
 10
-30.89341397326992
 20
35.05368813061275
 30
0.0
 10
-30.94579373478873
 20
35.04464674151836
 30
0.0
 10
-31.04637435080225
 20
35.02728529392174
 30
0.0
 10
-31.19142392902723
 20
35.00518989769425
 30
0.0
 10
-31.3243098185445
 20
34.98778055020112
 30
0.0
 10
-31.44501331617024
 20
34.97792362324247
 30
0.0
 10
-31.55308810439374
 20
34.96995067945806
 30
0.0
 10
-31.64897045228523
 20
34.9691683020482
 30
0.0
 10
-31.73270900783096
 20
34.97341766544066
 30
0.0
 10
-31.82602014103449
 20
34.98494721711113
 30
0.0
 10
-31.92887459744809
 20
35.01097616760012
 30
0.0
 10
-32.03811653655605
 20
35.05856178833694
 30
0.0
 10
-32.13568440120341
 20
35.11888910719653
 30
0.0
 10
-32.18717116557141
 20
35.17275884965009
 30
0.0
 10
-32.21274991076992
 20
35.19952146394608
 30
0.0
  0
SPLINE
  5
FC
330
1F
100
AcDbEntity
  8
0
  6
Continuous
 62
     7
370
    25
100
AcDbSpline
210
0.0
220
0.0
230
1.0
 70
     8
 71
     3
 72
    15
 73
    11
 74
     0
 42
0.000000001
 43
0.00000001
 40
0.0
 40
0.0
 40
0.0
 40
0.0
 40
0.1030173808163836
 40
0.2112734842403109
 40
0.3261833125112478
 40
0.4469031934107398
 40
0.5750194264644812
 40
0.7097392757530738
 40
0.8510171115028891
 40
1.0
 40
1.0
 40
1.0
 40
1.0
 10
20.69433190722913
 20
42.28843838222867
 30
0.0
 10
20.6583664548841
 20
42.266251938093
 30
0.0
 10
20.58460660611882
 20
42.22075080694115
 30
0.0
 10
20.46605989777399
 20
42.15854206891031
 30
0.0
 10
20.33785974089415
 20
42.09965730479134
 30
0.0
 10
20.19963977336114
 20
42.04345550108275
 30
0.0
 10
20.05188874594808
 20
41.98933086349257
 30
0.0
 10
19.8936292708939
 20
41.94001984754959
 30
0.0
 10
19.72622082993168
 20
41.89142366848602
 30
0.0
 10
19.61057109326865
 20
41.86316443024067
 30
0.0
 10
19.5512112475069
 20
41.84865973639534
 30
0.0
  0
SPLINE
  5
FD
330
1F
100
AcDbEntity
  8
0
  6
Continuous
 62
     7
370
    25
100
AcDbSpline
210
0.0
220
0.0
230
1.0
 70
     8
 71
     3
 72
    19
 73
    15
 74
     0
 42
0.000000001
 43
0.00000001
 40
0.0
 40
0.0
 40
0.0
 40
0.0
 40
0.0800452712953579
 40
0.1588073355368111
 40
0.2380448484752097
 40
0.3194856707697435
 40
0.4018424879925458
 40
0.4841844723850873
 40
0.5672648543181078
 40
0.6514950871619094
 40
0.7368954487602518
 40
0.8226229590325896
 40
0.9107301595173362
 40
1.0
 40
1.0
 40
1.0
 40
1.0
 10
-5.216744908239368
 20
45.93125334865898
 30
0.0
 10
-5.212294107521819
 20
45.88647536173599
 30
0.0
 10
-5.203463856945851
 20
45.79763722453104
 30
0.0
 10
-5.215231194800132
 20
45.6638467124505
 30
0.0
 10
-5.245706282681044
 20
45.53255191325486
 30
0.0
 10
-5.296666713942119
 20
45.40556093712159
 30
0.0
 10
-5.362268121497128
 20
45.28378773366907
 30
0.0
 10
-5.439288516562345
 20
45.16780418624913
 30
0.0
 10
-5.527567272887588
 20
45.05871743403065
 30
0.0
 10
-5.627700689332184
 20
44.95803880174378
 30
0.0
 10
-5.736107054147621
 20
44.86415535174487
 30
0.0
 10
-5.852652777912263
 20
44.77694267741164
 30
0.0
 10
-5.976565081793214
 20
44.69636203364058
 30
0.0
 10
-6.064299989245916
 20
44.64928306365167
 30
0.0
 10
-6.108454977683811
 20
44.62558928615898
 30
0.0
  0
SPLINE
  5
FE
330
1F
100
AcDbEntity
  8
0
  6
Continuous
 62
     7
370
    25
100
AcDbSpline
210
0.0
220
0.0
230
1.0
 70
     8
 71
     3
 72
    31
 73
    27
 74
     0
 42
0.000000001
 43
0.00000001
 40
0.0
 40
0.0
 40
0.0
 40
0.0
 40
0.0549322962131486
 40
0.1081149641125638
 40
0.1593233166665633
 40
0.2088967423234028
 40
0.2572626362198867
 40
0.3042650947676106
 40
0.3502512778372591
 40
0.3956426926243251
 40
0.4400224676716751
 40
0.4827556536317804
 40
0.5243165695662542
 40
0.5649239974429022
 40
0.604770117773195
 40
0.644097190211787
 40
0.6831601450063054
 40
0.7218681396783269
 40
0.759989190290925
 40
0.7969826430026195
 40
0.833051904894017
 40
0.8678248257635431
 40
0.9020005908910906
 40
0.9351595705556821
 40
0.9677219023616114
 40
0.9999999999999999
 40
0.9999999999999999
 40
0.9999999999999999
 40
0.9999999999999999
 10
35.07496115820101
 20
30.9357572173529
 30
0.0
 10
35.03836463703051
 20
30.90216871476551
 30
0.0
 10
34.96633721699261
 20
30.83606152460291
 30
0.0
 10
34.85388915827431
 20
30.74586183760753
 30
0.0
 10
34.74043946213664
 20
30.66509442007969
 30
0.0
 10
34.62621911065379
 20
30.59328039729647
 30
0.0
 10
34.51091330576648
 20
30.5307775810793
 30
0.0
 10
34.39424744972553
 20
30.47839518502952
 30
0.0
 10
34.27699515622305
 20
30.43439529164841
 30
0.0
 10
34.15859107670196
 20
30.40160087789401
 30
0.0
 10
34.04139430667248
 20
30.37650627061106
 30
0.0
 10
33.92621087203657
 20
30.35950469589839
 30
0.0
 10
33.81349942664232
 20
30.35124106582239
 30
0.0
 10
33.70311681928865
 20
30.35039996647205
 30
0.0
 10
33.59492299768981
 20
30.35699408846597
 30
0.0
 10
33.488989518163
 20
30.37221515052339
 30
0.0
 10
33.38568281854222
 20
30.39584864841575
 30
0.0
 10
33.28553922034507
 20
30.42701756999027
 30
0.0
 10
33.18970874229825
 20
30.46465306230798
 30
0.0
 10
33.09749393339662
 20
30.50469596140821
 30
0.0
 10
33.01018132913767
 20
30.5482763210154
 30
0.0
 10
32.92867720247537
 20
30.59704432368811
 30
0.0
 10
32.85096321236271
 20
30.64700207626327
 30
0.0
 10
32.77961665723784
 20
30.70249138345248
 30
0.0
 10
32.71205475023351
 20
30.75992892228634
 30
0.0
 10
32.67094617665798
 20
30.80176041439706
 30
0.0
 10
32.65048199153433
 20
30.82258447429734
 30
0.0
  0
SPLINE
  5
FF
330
1F
100
AcDbEntity
  8
0
  6
Continuous
 62
     7
370
    25
100
AcDbSpline
210
0.0
220
0.0
230
1.0
 70
     8
 71
     3
 72
    23
 73
    19
 74
     0
 42
0.000000001
 43
0.00000001
 40
0.0
 40
0.0
 40
0.0
 40
0.0
 40
0.0803524187699369
 40
0.1533889062029705
 40
0.2194814514397138
 40
0.2787645479875372
 40
0.3354598447192794
 40
0.3934874952347431
 40
0.4539442159774666
 40
0.5163447552216454
 40
0.5786888499827044
 40
0.6390867025215208
 40
0.6978559886663671
 40
0.7550074114493013
 40
0.8126323537468645
 40
0.8724407900729289
 40
0.9349212050471246
 40
1.0
 40
1.0
 40
1.0
 40
1.0
 10
-14.37599121610941
 20
46.25297510356884
 30
0.0
 10
-14.4446201685629
 20
46.22242489575416
 30
0.0
 10
-14.57562954092339
 20
46.16410601708563
 30
0.0
 10
-14.75887156406523
 20
46.07140920311781
 30
0.0
 10
-14.91775448661321
 20
45.97544810812205
 30
0.0
 10
-15.057800183405
 20
45.87834076079257
 30
0.0
 10
-15.18173830964899
 20
45.77266842920538
 30
0.0
 10
-15.29903663683852
 20
45.65817586167829
 30
0.0
 10
-15.40993576415852
 20
45.53031231951731
 30
0.0
 10
-15.51547689757613
 20
45.39291096095081
 30
0.0
 10
-15.61081803581073
 20
45.24830457590406
 30
0.0
 10
-15.69533260310797
 20
45.10096972283043
 30
0.0
 10
-15.76428058786528
 20
44.95101528841732
 30
0.0
 10
-15.82057486596106
 20
44.79870579997414
 30
0.0
 10
-15.86464669584288
 20
44.64130118110636
 30
0.0
 10
-15.89462045136638
 20
44.47567043037615
 30
0.0
 10
-15.91708920706154
 20
44.30176652263061
 30
0.0
 10
-15.92113012251168
 20
44.18251966057956
 30
0.0
 10
-15.92319173694274
 20
44.12168170079106
 30
0.0
  0
SPLINE
  5
100
330
1F
100
AcDbEntity
  8
0
  6
Continuous
 62
     7
370
    25
100
AcDbSpline
210
0.0
220
0.0
230
1.0
 70
     8
 71
     3
 72
    23
 73
    19
 74
     0
 42
0.000000001
 43
0.00000001
 40
0.0
 40
0.0
 40
0.0
 40
0.0
 40
0.0597316978404974
 40
0.1173363382349927
 40
0.1741005932637527
 40
0.2308093059553089
 40
0.2872841443262177
 40
0.3455604785868819
 40
0.4062811010673918
 40
0.4695633474544046
 40
0.5339734092689428
 40
0.5983173881269025
 40
0.6628618540864539
 40
0.7271666406283888
 40
0.7929323427106933
 40
0.860213909972091
 40
0.9289527244171424
 40
1.0
 40
1.0
 40
1.0
 40
1.0
 10
20.41937531000691
 20
42.73809116000645
 30
0.0
 10
20.42983506032693
 20
42.76294584562226
 30
0.0
 10
20.45038208721172
 20
42.81177013663653
 30
0.0
 10
20.47081013151618
 20
42.88782867860731
 30
0.0
 10
20.48260954578419
 20
42.96425277922111
 30
0.0
 10
20.48406912449762
 20
43.04112410303663
 30
0.0
 10
20.47556480655917
 20
43.11820364627205
 30
0.0
 10
20.45681487705313
 20
43.19526933977478
 30
0.0
 10
20.42940238463391
 20
43.2729264974382
 30
0.0
 10
20.39284401905194
 20
43.34976942641175
 30
0.0
 10
20.34926770599106
 20
43.42477612750906
 30
0.0
 10
20.29775637415229
 20
43.49524634029306
 30
0.0
 10
20.24193181980124
 20
43.56223992278608
 30
0.0
 10
20.17979053394381
 20
43.62442248968861
 30
0.0
 10
20.11119414132909
 20
43.68133137916453
 30
0.0
 10
20.03657208650689
 20
43.73354240526819
 30
0.0
 10
19.95658614948556
 20
43.78198656405601
 30
0.0
 10
19.89982862747837
 20
43.80950147558417
 30
0.0
 10
19.87098121278468
 20
43.82348612528422
 30
0.0
  0
SPLINE
  5
101
330
1F
100
AcDbEntity
  8
0
  6
Continuous
 62
     7
370
    25
100
AcDbSpline
210
0.0
220
0.0
230
1.0
 70
     8
 71
     3
 72
    23
 73
    19
 74
     0
 42
0.000000001
 43
0.00000001
 40
0.0
 40
0.0
 40
0.0
 40
0.0
 40
0.0731824945318286
 40
0.1443005769480144
 40
0.2127723598183645
 40
0.2795801402060455
 40
0.3449351211267029
 40
0.4086593973743788
 40
0.4717566121673759
 40
0.5338408177992279
 40
0.5952345650233235
 40
0.6548702040451414
 40
0.7136649678056621
 40
0.7715819194583343
 40
0.8285434384091704
 40
0.8856719947715821
 40
0.9424167663043457
 40
1.0
 40
1.0
 40
1.0
 40
1.0
 10
32.89733529014543
 20
33.16731103679734
 30
0.0
 10
32.9334001248446
 20
33.20042380247327
 30
0.0
 10
33.0045124378085
 20
33.26571525259327
 30
0.0
 10
33.11613569364188
 20
33.35421128983801
 30
0.0
 10
33.22919940281376
 20
33.43349407794266
 30
0.0
 10
33.34296280892109
 20
33.50488849961076
 30
0.0
 10
33.45938722447298
 20
33.56522934684959
 30
0.0
 10
33.57688141069149
 20
33.61759331034555
 30
0.0
 10
33.69606942526357
 20
33.65986312429582
 30
0.0
 10
33.81631782260271
 20
33.69368704221574
 30
0.0
 10
33.93659854475246
 20
33.71718627971011
 30
0.0
 10
34.05566265696228
 20
33.73479396968575
 30
0.0
 10
34.1735232271247
 20
33.74206891626648
 30
0.0
 10
34.28975253193775
 20
33.74140617680219
 30
0.0
 10
34.40460457790839
 20
33.73255075273897
 30
0.0
 10
34.51739257794973
 20
33.71376447456303
 30
0.0
 10
34.62943357667985
 20
33.68859649965695
 30
0.0
 10
34.70195465545632
 20
33.66419385529218
 30
0.0
 10
34.73848112347877
 20
33.65190305068623
 30
0.0
  0
SPLINE
  5
102
330
1F
100
AcDbEntity
  8
0
  6
Continuous
 62
     7
370
    25
100
AcDbSpline
210
0.0
220
0.0
230
1.0
 70
     8
 71
     3
 72
    23
 73
    19
 74
     0
 42
0.000000001
 43
0.00000001
 40
0.0
 40
0.0
 40
0.0
 40
0.0
 40
0.050164650556258
 40
0.1002440514559362
 40
0.1506070567045694
 40
0.2019156546291142
 40
0.2552188577405784
 40
0.3104102753929197
 40
0.3686833999383592
 40
0.4297084528158381
 40
0.4932209813124177
 40
0.5580669069960826
 40
0.6251830066030558
 40
0.6948553489511234
 40
0.7665030784312167
 40
0.8413273184337952
 40
0.9188564288265746
 40
1.0
 40
1.0
 40
1.0
 40
1.0
 10
-5.636015741572701
 20
45.60388789727009
 30
0.0
 10
-5.640509133101823
 20
45.62958573055404
 30
0.0
 10
-5.64948828010399
 20
45.68093772630116
 30
0.0
 10
-5.673242357703446
 20
45.75581485034002
 30
0.0
 10
-5.706628062325657
 20
45.82739670627959
 30
0.0
 10
-5.746893368067309
 20
45.89729987386522
 30
0.0
 10
-5.796631930540311
 20
45.9640111126192
 30
0.0
 10
-5.854879737288446
 20
46.02835679735846
 30
0.0
 10
-5.922079596650445
 20
46.08937189994223
 30
0.0
 10
-5.99624926060129
 20
46.14887005626857
 30
0.0
 10
-6.078163228640604
 20
46.20357048625531
 30
0.0
 10
-6.165738061338098
 20
46.25522114754081
 30
0.0
 10
-6.260502771504955
 20
46.30015103116574
 30
0.0
 10
-6.36038692554379
 20
46.34212443944454
 30
0.0
 10
-6.46664086418664
 20
46.37887549784817
 30
0.0
 10
-6.579080357470677
 20
46.40912005284034
 30
0.0
 10
-6.697133990308097
 20
46.43743817176149
 30
0.0
 10
-6.778527980198474
 20
46.45079168655757
 30
0.0
 10
-6.820152026294922
 20
46.45762053615898
 30
0.0
  0
SPLINE
  5
103
330
1F
100
AcDbEntity
  8
0
  6
Continuous
 62
     7
370
    25
100
AcDbSpline
210
0.0
220
0.0
230
1.0
 70
     8
 71
     3
 72
    23
 73
    19
 74
     0
 42
0.000000001
 43
0.00000001
 40
0.0
 40
0.0
 40
0.0
 40
0.0
 40
0.0586566281475091
 40
0.114371642251885
 40
0.1693555457606741
 40
0.2243907721526114
 40
0.2792718859092338
 40
0.3360452054892805
 40
0.3948700537419761
 40
0.4564767772078409
 40
0.5200642271357325
 40
0.5842079374022925
 40
0.6484139711810818
 40
0.7144409939022276
 40
0.7822401139941116
 40
0.8525870100615593
 40
0.9246161114722694
 40
1.0
 40
1.0
 40
1.0
 40
1.0
 10
11.75902470218202
 20
46.10023159878725
 30
0.0
 10
11.76356515702082
 20
46.12141425503519
 30
0.0
 10
11.77241836411581
 20
46.1627172630472
 30
0.0
 10
11.77726005897878
 20
46.22530718043576
 30
0.0
 10
11.77285975243636
 20
46.28643895321144
 30
0.0
 10
11.76293621031611
 20
46.34666896215988
 30
0.0
 10
11.74308376770367
 20
46.40513351059899
 30
0.0
 10
11.71649501195739
 20
46.46228052216884
 30
0.0
 10
11.68196464633298
 20
46.51802371784721
 30
0.0
 10
11.63998393653189
 20
46.57152730420324
 30
0.0
 10
11.5926663456824
 20
46.62308476777272
 30
0.0
 10
11.53935519794846
 20
46.66994272416472
 30
0.0
 10
11.48162578935931
 20
46.71258174881964
 30
0.0
 10
11.42045117785824
 20
46.75280660569806
 30
0.0
 10
11.3527881202788
 20
46.78624451359242
 30
0.0
 10
11.28183029668152
 20
46.81761574777062
 30
0.0
 10
11.20599333428709
 20
46.84461388235486
 30
0.0
 10
11.15327814378698
 20
46.85816651842737
 30
0.0
 10
11.12632070912646
 20
46.86509705017613
 30
0.0
  0
SPLINE
  5
104
330
1F
100
AcDbEntity
  8
0
  6
Continuous
 62
     7
370
    25
100
AcDbSpline
210
0.0
220
0.0
230
1.0
 70
     8
 71
     3
 72
    15
 73
    11
 74
     0
 42
0.000000001
 43
0.00000001
 40
0.0
 40
0.0
 40
0.0
 40
0.0
 40
0.1241533319954663
 40
0.246322828226113
 40
0.3672734507924079
 40
0.4885318986171105
 40
0.6118755054743189
 40
0.7369263913353357
 40
0.8661661188866612
 40
1.0
 40
1.0
 40
1.0
 40
1.0
 10
35.31497851931211
 20
33.28580062013068
 30
0.0
 10
35.34529014525465
 20
33.25167557076532
 30
0.0
 10
35.40542905019013
 20
33.18397075335987
 30
0.0
 10
35.48296200314598
 20
33.07314329172606
 30
0.0
 10
35.54860871509531
 20
32.95625938227108
 30
0.0
 10
35.60289236952163
 20
32.83318162277829
 30
0.0
 10
35.64540050297375
 20
32.70396357879674
 30
0.0
 10
35.67587449990537
 20
32.5684164520608
 30
0.0
 10
35.69425023230409
 20
32.42674535761854
 30
0.0
 10
35.69710053077144
 20
32.33008963605609
 30
0.0
 10
35.69855056792322
 20
32.28091780763068
 30
0.0
  0
SPLINE
  5
105
330
1F
100
AcDbEntity
  8
0
  6
Continuous
 62
     7
370
    25
100
AcDbSpline
210
0.0
220
0.0
230
1.0
 70
     8
 71
     3
 72
    15
 73
    11
 74
     0
 42
0.000000001
 43
0.00000001
 40
0.0
 40
0.0
 40
0.0
 40
0.0
 40
0.1287347049789524
 40
0.2533783745715591
 40
0.3753863296723098
 40
0.4963548660750041
 40
0.6176954903760556
 40
0.7410956573782775
 40
0.8680673972821669
 40
1.0
 40
1.0
 40
1.0
 40
1.0
 10
11.12632070912646
 20
46.86509705017613
 30
0.0
 10
11.08242978315344
 20
46.87471946802606
 30
0.0
 10
10.99604273248747
 20
46.893658514763
 30
0.0
 10
10.86525351077743
 20
46.90425487131471
 30
0.0
 10
10.73682718975568
 20
46.90287557221534
 30
0.0
 10
10.61079283695968
 20
46.88464780552498
 30
0.0
 10
10.48685166346869
 20
46.85363500091425
 30
0.0
 10
10.36551139666491
 20
46.80737999994484
 30
0.0
 10
10.24608390703541
 20
46.74741015000939
 30
0.0
 10
10.17106122244212
 20
46.69706636510559
 30
0.0
 10
10.13283112579313
 20
46.6714121543428
 30
0.0
  0
SPLINE
  5
106
330
1F
100
AcDbEntity
  8
0
  6
Continuous
 62
     7
370
    25
100
AcDbSpline
210
0.0
220
0.0
230
1.0
 70
     8
 71
     3
 72
    15
 73
    11
 74
     0
 42
0.000000001
 43
0.00000001
 40
0.0
 40
0.0
 40
0.0
 40
0.0
 40
0.1674038604553431
 40
0.3215631390269443
 40
0.4651007406015877
 40
0.5945658549705438
 40
0.7132749520762054
 40
0.820014358352278
 40
0.9154436209746248
 40
1.0
 40
1.0
 40
1.0
 40
1.0
 10
-24.30030312918186
 20
41.43439965757275
 30
0.0
 10
-24.32821859404671
 20
41.41805229549504
 30
0.0
 10
-24.38184092082533
 20
41.3866509344379
 30
0.0
 10
-24.45835262055569
 20
41.33947926820968
 30
0.0
 10
-24.52706280944835
 20
41.29366723048262
 30
0.0
 10
-24.58799899997735
 20
41.24878437709406
 30
0.0
 10
-24.64331005660051
 20
41.20811139672651
 30
0.0
 10
-24.68922637650718
 20
41.16638939500488
 30
0.0
 10
-24.72957535434505
 20
41.12829964802366
 30
0.0
 10
-24.75170995636672
 20
41.10142882260405
 30
0.0
 10
-24.76210868473742
 20
41.0888050395172
 30
0.0
  0
SPLINE
  5
107
330
1F
100
AcDbEntity
  8
0
  6
Continuous
 62
     7
370
    25
100
AcDbSpline
210
0.0
220
0.0
230
1.0
 70
     8
 71
     3
 72
    23
 73
    19
 74
     0
 42
0.000000001
 43
0.00000001
 40
0.0
 40
0.0
 40
0.0
 40
0.0
 40
0.0988619614894291
 40
0.1930936280459949
 40
0.2818823165407532
 40
0.3665720218631897
 40
0.4461027333151287
 40
0.5207182762497652
 40
0.5901744034087012
 40
0.6550089733764184
 40
0.7154567865933636
 40
0.7702169651937406
 40
0.8210091642825091
 40
0.8662296446155342
 40
0.9068417988218676
 40
0.9429562407149003
 40
0.9740371804917058
 40
0.9999999999999999
 40
0.9999999999999999
 40
0.9999999999999999
 40
0.9999999999999999
 10
19.5512112475069
 20
41.84865973639533
 30
0.0
 10
19.50667641621213
 20
41.83791853333358
 30
0.0
 10
19.41969258522631
 20
41.81693920177344
 30
0.0
 10
19.29228809194159
 20
41.78810949204438
 30
0.0
 10
19.17183285677739
 20
41.75843102426131
 30
0.0
 10
19.05759870317077
 20
41.73203500613936
 30
0.0
 10
18.94952641317826
 20
41.70817018302214
 30
0.0
 10
18.84871661848656
 20
41.68421803108075
 30
0.0
 10
18.7543141430896
 20
41.66277172804142
 30
0.0
 10
18.66599080793437
 20
41.64426006409138
 30
0.0
 10
18.58464009841079
 20
41.62574243003335
 30
0.0
 10
18.50940941731415
 20
41.60968967428102
 30
0.0
 10
18.4409752227068
 20
41.59561875739941
 30
0.0
 10
18.37909615566137
 20
41.58221597050883
 30
0.0
 10
18.3235582535103
 20
41.57175935149844
 30
0.0
 10
18.27442059576657
 20
41.56276996768667
 30
0.0
 10
18.23198402855802
 20
41.55480845678093
 30
0.0
 10
18.20581047516841
 20
41.55108999794622
 30
0.0
 10
18.19389787945135
 20
41.54939758361756
 30
0.0
  0
SPLINE
  5
108
330
1F
100
AcDbEntity
  8
0
  6
Continuous
 62
     7
370
    25
100
AcDbSpline
210
0.0
220
0.0
230
1.0
 70
     8
 71
     3
 72
    23
 73
    19
 74
     0
 42
0.000000001
 43
0.00000001
 40
0.0
 40
0.0
 40
0.0
 40
0.0
 40
0.0484174981006523
 40
0.0962998464102071
 40
0.143798292887192
 40
0.1930213826564353
 40
0.2439145078813209
 40
0.2976301477878035
 40
0.3548457483773498
 40
0.4161464925497241
 40
0.4803207194239178
 40
0.5458039053860942
 40
0.613536936024004
 40
0.6839912673246379
 40
0.7575860750397537
 40
0.834644089352678
 40
0.9152605184420872
 40
1.0
 40
1.0
 40
1.0
 40
1.0
 10
-32.21274991076992
 20
35.19952146394608
 30
0.0
 10
-32.23008942508533
 20
35.22136000347022
 30
0.0
 10
-32.26457680322144
 20
35.26479570511731
 30
0.0
 10
-32.30491997091038
 20
35.3374803113761
 30
0.0
 10
-32.33411047013004
 20
35.41565242057356
 30
0.0
 10
-32.35274998894995
 20
35.49869976158857
 30
0.0
 10
-32.36231350129084
 20
35.58692207977131
 30
0.0
 10
-32.35906919963519
 20
35.68017765749398
 30
0.0
 10
-32.34690432217481
 20
35.77861231000063
 30
0.0
 10
-32.32393459752376
 20
35.88131328484842
 30
0.0
 10
-32.29092584106102
 20
35.98623603353602
 30
0.0
 10
-32.24631656322958
 20
36.09082706908791
 30
0.0
 10
-32.19133779422663
 20
36.19443007120154
 30
0.0
 10
-32.12556159819835
 20
36.29709238062067
 30
0.0
 10
-32.04960545723468
 20
36.39927361126377
 30
0.0
 10
-31.96148564682429
 20
36.49905526145516
 30
0.0
 10
-31.86433911223155
 20
36.59920710427755
 30
0.0
 10
-31.79338328080033
 20
36.66259067686239
 30
0.0
 10
-31.75702074410325
 20
36.69507267922386
 30
0.0
  0
SPLINE
  5
109
330
1F
100
AcDbEntity
  8
0
  6
Continuous
 62
     7
370
    25
100
AcDbSpline
210
0.0
220
0.0
230
1.0
 70
     8
 71
     3
 72
    23
 73
    19
 74
     0
 42
0.000000001
 43
0.00000001
 40
0.0
 40
0.0
 40
0.0
 40
0.0
 40
0.0351199342075821
 40
0.0714254537733277
 40
0.1084168139452018
 40
0.1469920799511302
 40
0.1879927134801209
 40
0.2315517812392229
 40
0.2775824195267511
 40
0.3262698796098072
 40
0.3801029948435072
 40
0.4423378885384825
 40
0.5134499145793947
 40
0.5928802694039104
 40
0.6809361870795739
 40
0.7782557788355536
 40
0.8844190889063678
 40
1.0
 40
1.0
 40
1.0
 40
1.0
 10
-30.28805373021437
 20
36.97154837366831
 30
0.0
 10
-30.27787902533896
 20
36.9588547412747
 30
0.0
 10
-30.25718613598328
 20
36.93303896245273
 30
0.0
 10
-30.23143762881187
 20
36.8897340678477
 30
0.0
 10
-30.21112789943382
 20
36.84199517525676
 30
0.0
 10
-30.19436520805001
 20
36.7906694149835
 30
0.0
 10
-30.18110162370352
 20
36.7351218441332
 30
0.0
 10
-30.17425595610776
 20
36.67497822814385
 30
0.0
 10
-30.1702422905418
 20
36.6110819061022
 30
0.0
 10
-30.17100282936649
 20
36.54225402851004
 30
0.0
 10
-30.17801922241035
 20
36.4662310942642
 30
0.0
 10
-30.19361713689827
 20
36.3808981629024
 30
0.0
 10
-30.21861728985219
 20
36.28559322022603
 30
0.0
 10
-30.25045367350114
 20
36.17982122243097
 30
0.0
 10
-30.29122469177958
 20
36.06419907618321
 30
0.0
 10
-30.33983344506456
 20
35.93830689924348
 30
0.0
 10
-30.39703869018893
 20
35.80213442810511
 30
0.0
 10
-30.43923605717371
 20
35.70857460356991
 30
0.0
 10
-30.4612308135477
 20
35.65980792227941
 30
0.0
  0
SPLINE
  5
10A
330
1F
100
AcDbEntity
  8
0
  6
Continuous
 62
     7
370
    25
100
AcDbSpline
210
0.0
220
0.0
230
1.0
 70
     8
 71
     3
 72
    15
 73
    11
 74
     0
 42
0.000000001
 43
0.00000001
 40
0.0
 40
0.0
 40
0.0
 40
0.0
 40
0.144664173105175
 40
0.2812472771305154
 40
0.4102383618552567
 40
0.5344482189360786
 40
0.654714270397145
 40
0.7702683913369195
 40
0.8853976795115109
 40
1.0
 40
1.0
 40
1.0
 40
1.0
 10
-29.47533671632548
 20
35.78513344311275
 30
0.0
 10
-29.444882685931
 20
35.78293337174279
 30
0.0
 10
-29.38567581430377
 20
35.77865612694189
 30
0.0
 10
-29.30050660779369
 20
35.76274251727977
 30
0.0
 10
-29.22064378075362
 20
35.742846992111
 30
0.0
 10
-29.1467624837674
 20
35.71512687600464
 30
0.0
 10
-29.07822000858467
 20
35.68213832231851
 30
0.0
 10
-29.01581123529765
 20
35.642023527279
 30
0.0
 10
-28.95938261566582
 20
35.59566178975986
 30
0.0
 10
-28.92608407874202
 20
35.56041860661763
 30
0.0
 10
-28.9094730010477
 20
35.54283743616831
 30
0.0
  0
SPLINE
  5
10B
330
1F
100
AcDbEntity
  8
0
  6
Continuous
 62
     7
370
    25
100
AcDbSpline
210
0.0
220
0.0
230
1.0
 70
     8
 71
     3
 72
    11
 73
     7
 74
     0
 42
0.000000001
 43
0.00000001
 40
0.0
 40
0.0
 40
0.0
 40
0.0
 40
0.2404440905286673
 40
0.4848348037788658
 40
0.7351923932772718
 40
1.0
 40
1.0
 40
1.0
 40
1.0
 10
11.62686324384869
 20
44.31149461962058
 30
0.0
 10
11.63349633051719
 20
44.34453243294962
 30
0.0
 10
11.64687137860552
 20
44.41115033862344
 30
0.0
 10
11.64749011890389
 20
44.51455688344482
 30
0.0
 10
11.63307506633176
 20
44.62023832451415
 30
0.0
 10
11.61191525537207
 20
44.68922712198641
 30
0.0
 10
11.60103859107091
 20
44.72468906406502
 30
0.0
  0
SPLINE
  5
10C
330
1F
100
AcDbEntity
  8
0
  6
Continuous
 62
     7
370
    25
100
AcDbSpline
210
0.0
220
0.0
230
1.0
 70
     8
 71
     3
 72
    15
 73
    11
 74
     0
 42
0.000000001
 43
0.00000001
 40
0.0
 40
0.0
 40
0.0
 40
0.0
 40
0.1320148853729658
 40
0.2613467158869957
 40
0.3882724552337696
 40
0.5132867217850279
 40
0.6364682490159017
 40
0.7583795965877771
 40
0.8793826464505344
 40
1.0
 40
1.0
 40
1.0
 40
1.0
 10
-15.92319173694274
 20
44.12168170079106
 30
0.0
 10
-15.88965319367403
 20
44.15476047332013
 30
0.0
 10
-15.82325774050866
 20
44.22024572933214
 30
0.0
 10
-15.7178399589038
 20
44.31023000784155
 30
0.0
 10
-15.61086385262814
 20
44.39428178582623
 30
0.0
 10
-15.50074794582172
 20
44.47050671121813
 30
0.0
 10
-15.38712953157248
 20
44.53792977620009
 30
0.0
 10
-15.27149765644798
 20
44.59867104609086
 30
0.0
 10
-15.15387544028523
 20
44.65362116344196
 30
0.0
 10
-15.07274278707812
 20
44.68283563141375
 30
0.0
 10
-15.03224121610941
 20
44.69741954801328
 30
0.0
  0
SPLINE
  5
10D
330
1F
100
AcDbEntity
  8
0
  6
Continuous
 62
     7
370
    25
100
AcDbSpline
210
0.0
220
0.0
230
1.0
 70
     8
 71
     3
 72
    15
 73
    11
 74
     0
 42
0.000000001
 43
0.00000001
 40
0.0
 40
0.0
 40
0.0
 40
0.0
 40
0.0956480579450321
 40
0.1915555595617676
 40
0.2994140078827595
 40
0.4218058729722776
 40
0.5540851020451781
 40
0.6942684432271351
 40
0.840354366529538
 40
1.0
 40
1.0
 40
1.0
 40
1.0
 10
-7.783259665183811
 20
44.59216914727009
 30
0.0
 10
-7.784042480402462
 20
44.60414552784881
 30
0.0
 10
-7.785610234212256
 20
44.62813077472751
 30
0.0
 10
-7.773337778943845
 20
44.66417713953478
 30
0.0
 10
-7.751286945855855
 20
44.69845233305142
 30
0.0
 10
-7.720241220533115
 20
44.73154329753142
 30
0.0
 10
-7.68058163968573
 20
44.7609165120014
 30
0.0
 10
-7.634273786002642
 20
44.78515254332576
 30
0.0
 10
-7.581438804251682
 20
44.80294856801725
 30
0.0
 10
-7.543870729768174
 20
44.80918285199768
 30
0.0
 10
-7.524253588794922
 20
44.81243824449232
 30
0.0
  0
SPLINE
  5
10E
330
1F
100
AcDbEntity
  8
0
  6
Continuous
 62
     7
370
    25
100
AcDbSpline
210
0.0
220
0.0
230
1.0
 70
     8
 71
     3
 72
    11
 73
     7
 74
     0
 42
0.000000001
 43
0.00000001
 40
0.0
 40
0.0
 40
0.0
 40
0.0
 40
0.2985159101275601
 40
0.564700475350552
 40
0.7980215926455899
 40
1.0
 40
1.0
 40
1.0
 40
1.0
 10
-36.20959601423365
 20
29.47088053703496
 30
0.0
 10
-36.24496439238143
 20
29.51118660311209
 30
0.0
 10
-36.31187050785073
 20
29.58743330856755
 30
0.0
 10
-36.4114333302949
 20
29.69058389882208
 30
0.0
 10
-36.50221481533005
 20
29.77807182776646
 30
0.0
 10
-36.56226613499631
 20
29.82816925213437
 30
0.0
 10
-36.59012986840033
 20
29.85141439120163
 30
0.0
  0
SPLINE
  5
10F
330
1F
100
AcDbEntity
  8
0
  6
Continuous
 62
     7
370
    25
100
AcDbSpline
210
0.0
220
0.0
230
1.0
 70
     8
 71
     3
 72
    19
 73
    15
 74
     0
 42
0.000000001
 43
0.00000001
 40
0.0
 40
0.0
 40
0.0
 40
0.0
 40
0.0775836575476225
 40
0.158938883587307
 40
0.2457776309260289
 40
0.3380269521378344
 40
0.4302844335504349
 40
0.5169061844298402
 40
0.6000268253086871
 40
0.68107080867284
 40
0.7609183128269584
 40
0.8388063296863079
 40
0.9182636366489575
 40
0.9999999999999999
 40
0.9999999999999999
 40
0.9999999999999999
 40
0.9999999999999999
 10
-36.59012986840032
 20
29.85141439120163
 30
0.0
 10
-36.62426047504499
 20
29.8765816444249
 30
0.0
 10
-36.69418087694061
 20
29.92813960465396
 30
0.0
 10
-36.81311761442699
 20
29.99109030004852
 30
0.0
 10
-36.94374774441856
 20
30.04752109604784
 30
0.0
 10
-37.08478810644682
 20
30.09336767038523
 30
0.0
 10
-37.22907636341412
 20
30.1278055287975
 30
0.0
 10
-37.37198886371877
 20
30.14087878746769
 30
0.0
 10
-37.5092694282926
 20
30.13473131342891
 30
0.0
 10
-37.6401575850964
 20
30.10699530289294
 30
0.0
 10
-37.76254587584339
 20
30.06069961243173
 30
0.0
 10
-37.875689107417
 20
29.99670992669725
 30
0.0
 10
-37.97774646383157
 20
29.91408056012406
 30
0.0
 10
-38.03525361237487
 20
29.84729955759134
 30
0.0
 10
-38.06441372256698
 20
29.81343696064607
 30
0.0
  0
SPLINE
  5
110
330
1F
100
AcDbEntity
  8
0
  6
Continuous
 62
     7
370
    25
100
AcDbSpline
210
0.0
220
0.0
230
1.0
 70
     8
 71
     3
 72
    15
 73
    11
 74
     0
 42
0.000000001
 43
0.00000001
 40
0.0
 40
0.0
 40
0.0
 40
0.0
 40
0.1260217705210376
 40
0.2484282200680241
 40
0.3702327459754142
 40
0.4922603296785232
 40
0.6139924247415111
 40
0.7389658745712071
 40
0.8675739238308118
 40
0.9999999999999999
 40
0.9999999999999999
 40
0.9999999999999999
 40
0.9999999999999999
 10
-37.05117587534476
 20
28.40903157870163
 30
0.0
 10
-37.02525519455969
 20
28.41364494157828
 30
0.0
 10
-36.97415744721204
 20
28.42273931886909
 30
0.0
 10
-36.89967485325527
 20
28.44411620153263
 30
0.0
 10
-36.82881294706403
 20
28.47325504295041
 30
0.0
 10
-36.76127520722076
 20
28.50904190059
 30
0.0
 10
-36.69657593227817
 20
28.55105870438929
 30
0.0
 10
-36.63597747622199
 20
28.6009319477568
 30
0.0
 10
-36.57777346502791
 20
28.65691673624058
 30
0.0
 10
-36.54313884092167
 20
28.69906442658062
 30
0.0
 10
-36.52556823645588
 20
28.72044650925719
 30
0.0
  0
SPLINE
  5
111
330
1F
100
AcDbEntity
  8
0
  6
Continuous
 62
     7
370
    25
100
AcDbSpline
210
0.0
220
0.0
230
1.0
 70
     8
 71
     3
 72
    15
 73
    11
 74
     0
 42
0.000000001
 43
0.00000001
 40
0.0
 40
0.0
 40
0.0
 40
0.0
 40
0.1045842349581922
 40
0.219139353045555
 40
0.3435109220857748
 40
0.4786117644368435
 40
0.616175190068175
 40
0.749662337072362
 40
0.876237028884234
 40
1.0
 40
1.0
 40
1.0
 40
1.0
 10
-36.52556823645588
 20
28.72044650925719
 30
0.0
 10
-36.50859482073773
 20
28.74355276483487
 30
0.0
 10
-36.47302977270794
 20
28.79196818710787
 30
0.0
 10
-36.42271715927372
 20
28.8717135834711
 30
0.0
 10
-36.37578591573769
 20
28.96292123208207
 30
0.0
 10
-36.32812610435257
 20
29.0607984795992
 30
0.0
 10
-36.28654966404748
 20
29.16415609597618
 30
0.0
 10
-36.25118586412824
 20
29.26732916887788
 30
0.0
 10
-36.22578634703029
 20
29.36959565638799
 30
0.0
 10
-36.21495222993585
 20
29.43737266076518
 30
0.0
 10
-36.20959601423365
 20
29.47088053703496
 30
0.0
  0
SPLINE
  5
112
330
1F
100
AcDbEntity
  8
0
  6
Continuous
 62
     7
370
    25
100
AcDbSpline
210
0.0
220
0.0
230
1.0
 70
     8
 71
     3
 72
    23
 73
    19
 74
     0
 42
0.000000001
 43
0.00000001
 40
0.0
 40
0.0
 40
0.0
 40
0.0
 40
0.0606175318642654
 40
0.1201003989744983
 40
0.1786034463320517
 40
0.2361008433747208
 40
0.2943969376719248
 40
0.3521011167972298
 40
0.4114778802051102
 40
0.471849298459207
 40
0.5325707659659593
 40
0.5933037708977658
 40
0.6545422706382411
 40
0.7172839872994126
 40
0.7826186981621881
 40
0.8507488169037787
 40
0.9231539851954695
 40
1.0
 40
1.0
 40
1.0
 40
1.0
 10
-38.06441372256698
 20
29.81343696064607
 30
0.0
 10
-38.07996277530651
 20
29.79267131609824
 30
0.0
 10
-38.11076982700029
 20
29.75152872717294
 30
0.0
 10
-38.15031250094071
 20
29.68599229359086
 30
0.0
 10
-38.18304194651574
 20
29.61832664240526
 30
0.0
 10
-38.20913614022727
 20
29.54836904529281
 30
0.0
 10
-38.22874120464765
 20
29.47669557926864
 30
0.0
 10
-38.24202517396535
 20
29.40272716655953
 30
0.0
 10
-38.24754533064872
 20
29.32693567095577
 30
0.0
 10
-38.24820041252148
 20
29.24964308564191
 30
0.0
 10
-38.23983660025157
 20
29.17212536453049
 30
0.0
 10
-38.22248551018303
 20
29.09572833173034
 30
0.0
 10
-38.19484717146338
 20
29.02143888176077
 30
0.0
 10
-38.15691241171064
 20
28.94970108382114
 30
0.0
 10
-38.11049240710003
 20
28.87960097939367
 30
0.0
 10
-38.05427355941947
 20
28.81165546792446
 30
0.0
 10
-37.98897861046676
 20
28.74520614908293
 30
0.0
 10
-37.93949901017209
 20
28.70479496749564
 30
0.0
 10
-37.914023097567
 20
28.68398817592385
 30
0.0
  0
SPLINE
  5
113
330
1F
100
AcDbEntity
  8
0
  6
Continuous
 62
     7
370
    25
100
AcDbSpline
210
0.0
220
0.0
230
1.0
 70
     8
 71
     3
 72
    15
 73
    11
 74
     0
 42
0.000000001
 43
0.00000001
 40
0.0
 40
0.0
 40
0.0
 40
0.0
 40
0.1412579502273724
 40
0.2759436922993656
 40
0.4050503126082514
 40
0.5286542137102608
 40
0.6485297621667289
 40
0.7654735399199059
 40
0.8821611301347027
 40
1.0
 40
1.0
 40
1.0
 40
1.0
 10
-37.91402309756699
 20
28.68398817592385
 30
0.0
 10
-37.87901275961367
 20
28.65753491680809
 30
0.0
 10
-37.81062098479368
 20
28.60585917054387
 30
0.0
 10
-37.70291616042327
 20
28.54056913287623
 30
0.0
 10
-37.59515828364025
 20
28.48670563457125
 30
0.0
 10
-37.48647218018655
 20
28.44667389869975
 30
0.0
 10
-37.37842498647574
 20
28.41653758398698
 30
0.0
 10
-37.26939917837154
 20
28.40220385341837
 30
0.0
 10
-37.1600777966819
 20
28.39708694713968
 30
0.0
 10
-37.08759512050295
 20
28.40503702599
 30
0.0
 10
-37.05117587534476
 20
28.40903157870163
 30
0.0
  0
SPLINE
  5
114
330
1F
100
AcDbEntity
  8
0
  6
Continuous
 62
     7
370
    25
100
AcDbSpline
210
0.0
220
0.0
230
1.0
 70
     8
 71
     3
 72
    11
 73
     7
 74
     0
 42
0.000000001
 43
0.00000001
 40
0.0
 40
0.0
 40
0.0
 40
0.0
 40
0.2470983917090552
 40
0.4897017265911535
 40
0.7384809325276305
 40
0.9999999999999999
 40
0.9999999999999999
 40
0.9999999999999999
 40
0.9999999999999999
 10
-29.14721171632548
 20
35.05368813061275
 30
0.0
 10
-29.16813300338151
 20
35.07570924802842
 30
0.0
 10
-29.20959499074206
 20
35.11935088869369
 30
0.0
 10
-29.28726720741619
 20
35.16727157545285
 30
0.0
 10
-29.37343704993455
 20
35.20174228706629
 30
0.0
 10
-29.43528544527211
 20
35.21182424987654
 30
0.0
 10
-29.46698168160326
 20
35.21699108200164
 30
0.0
  0
SPLINE
  5
115
330
1F
100
AcDbEntity
  8
0
  6
Continuous
 62
     7
370
    25
100
AcDbSpline
210
0.0
220
0.0
230
1.0
 70
     8
 71
     3
 72
    15
 73
    11
 74
     0
 42
0.000000001
 43
0.00000001
 40
0.0
 40
0.0
 40
0.0
 40
0.0
 40
0.1537890763457817
 40
0.2952688536663737
 40
0.426464367497328
 40
0.5483579568263165
 40
0.6637241750220366
 40
0.7756641900416725
 40
0.887418287476848
 40
1.0
 40
1.0
 40
1.0
 40
1.0
 10
-30.70352682049214
 20
35.08938691533498
 30
0.0
 10
-30.71895964782484
 20
35.03621308192613
 30
0.0
 10
-30.74859005684758
 20
34.93412145611796
 30
0.0
 10
-30.77539117668824
 20
34.78271070397499
 30
0.0
 10
-30.78603971847651
 20
34.64086171283156
 30
0.0
 10
-30.77966881733284
 20
34.50806396023035
 30
0.0
 10
-30.75627519976407
 20
34.38411439786236
 30
0.0
 10
-30.71533061957661
 20
34.26879020211747
 30
0.0
 10
-30.65871329549233
 20
34.16105857499354
 30
0.0
 10
-30.60813901857756
 20
34.09794709230766
 30
0.0
 10
-30.58275859132548
 20
34.06627493616831
 30
0.0
  0
SPLINE
  5
116
330
1F
100
AcDbEntity
  8
0
  6
Continuous
 62
     7
370
    25
100
AcDbSpline
210
0.0
220
0.0
230
1.0
 70
     8
 71
     3
 72
    23
 73
    19
 74
     0
 42
0.000000001
 43
0.00000001
 40
0.0
 40
0.0
 40
0.0
 40
0.0
 40
0.084506194869608
 40
0.1650478157076353
 40
0.2409556263107691
 40
0.3139581966832254
 40
0.3839988928947604
 40
0.4515209350818108
 40
0.5170186941802974
 40
0.5803793045470788
 40
0.6414780580408506
 40
0.6988372832856108
 40
0.7523585086112338
 40
0.8040406407539854
 40
0.8534646067047483
 40
0.9021351363791428
 40
0.9500502071798527
 40
1.0
 40
1.0
 40
1.0
 40
1.0
 10
-29.43356154271437
 20
34.09437823477942
 30
0.0
 10
-29.41026629726271
 20
34.1151192111169
 30
0.0
 10
-29.36476869339943
 20
34.1556281092566
 30
0.0
 10
-29.30261640876597
 20
34.21933192491104
 30
0.0
 10
-29.24751795498825
 20
34.2836790632761
 30
0.0
 10
-29.1986293724053
 20
34.34808673587133
 30
0.0
 10
-29.15666012341335
 20
34.41357999786285
 30
0.0
 10
-29.12146933265536
 20
34.47983864171009
 30
0.0
 10
-29.0933267557114
 20
34.54672113210268
 30
0.0
 10
-29.07194069599231
 20
34.61358284082367
 30
0.0
 10
-29.05761439797162
 20
34.67921489556037
 30
0.0
 10
-29.04965591872866
 20
34.74230470831875
 30
0.0
 10
-29.04909501680912
 20
34.80237636613953
 30
0.0
 10
-29.05367717179616
 20
34.85940851598399
 30
0.0
 10
-29.06697264647792
 20
34.91330123613955
 30
0.0
 10
-29.08684747078875
 20
34.96348901590425
 30
0.0
 10
-29.1128679682201
 20
35.0111877413509
 30
0.0
 10
-29.13560621560022
 20
35.03932632313358
 30
0.0
 10
-29.14721171632548
 20
35.05368813061275
 30
0.0
  0
SPLINE
  5
117
330
1F
100
AcDbEntity
  8
0
  6
Continuous
 62
     7
370
    25
100
AcDbSpline
210
0.0
220
0.0
230
1.0
 70
     8
 71
     3
 72
    23
 73
    19
 74
     0
 42
0.000000001
 43
0.00000001
 40
0.0
 40
0.0
 40
0.0
 40
0.0
 40
0.0628853615268911
 40
0.1229880769513735
 40
0.1811290040198809
 40
0.2388058859922323
 40
0.2954576699346209
 40
0.3530141910037368
 40
0.4117366604945786
 40
0.4723906831515051
 40
0.5344462506755578
 40
0.5962302266667913
 40
0.6592395274913515
 40
0.722992843063302
 40
0.788566630864117
 40
0.8561301634773583
 40
0.9267057884010604
 40
1.0
 40
1.0
 40
1.0
 40
1.0
 10
-30.58275859132548
 20
34.06627493616831
 30
0.0
 10
-30.56435052395251
 20
34.04646077672444
 30
0.0
 10
-30.5283489370709
 20
34.00770922457877
 30
0.0
 10
-30.46979410737375
 20
33.95603066445923
 30
0.0
 10
-30.40662817073332
 20
33.91406696907916
 30
0.0
 10
-30.34069619429405
 20
33.87983119256687
 30
0.0
 10
-30.27143566261168
 20
33.85349352742618
 30
0.0
 10
-30.19894422467713
 20
33.83615411278494
 30
0.0
 10
-30.12324457953671
 20
33.82698244276769
 30
0.0
 10
-30.045119130381
 20
33.82670784967036
 30
0.0
 10
-29.9658912657969
 20
33.83299284686233
 30
0.0
 10
-29.88703689801499
 20
33.84903532816631
 30
0.0
 10
-29.80880731427443
 20
33.87060751381244
 30
0.0
 10
-29.7315974033624
 20
33.90064644207431
 30
0.0
 10
-29.65566348300269
 20
33.93823010121837
 30
0.0
 10
-29.57986096802503
 20
33.98229124535123
 30
0.0
 10
-29.50561162253126
 20
34.03496332759245
 30
0.0
 10
-29.45787889101165
 20
34.07432533552118
 30
0.0
 10
-29.43356154271437
 20
34.09437823477942
 30
0.0
  0
SPLINE
  5
118
330
1F
100
AcDbEntity
  8
0
  6
Continuous
 62
     7
370
    25
100
AcDbSpline
210
0.0
220
0.0
230
1.0
 70
     8
 71
     3
 72
    15
 73
    11
 74
     0
 42
0.000000001
 43
0.00000001
 40
0.0
 40
0.0
 40
0.0
 40
0.0
 40
0.080602094494928
 40
0.1732036445180057
 40
0.2787091745399738
 40
0.3966895719441125
 40
0.5280186669533953
 40
0.6720701664954715
 40
0.8296112834426786
 40
0.9999999999999999
 40
0.9999999999999999
 40
0.9999999999999999
 40
0.9999999999999999
 10
-29.46698168160326
 20
35.21699108200164
 30
0.0
 10
-29.50038126671506
 20
35.21968737566304
 30
0.0
 10
-29.57215272505005
 20
35.22548136764021
 30
0.0
 10
-29.68810133006947
 20
35.22549477558859
 30
0.0
 10
-29.81931140228008
 20
35.21888234189588
 30
0.0
 10
-29.96632967522769
 20
35.20694953798688
 30
0.0
 10
-30.1285421565876
 20
35.1863855765296
 30
0.0
 10
-30.30662567535698
 20
35.16070146288666
 30
0.0
 10
-30.50001759128291
 20
35.12777965086331
 30
0.0
 10
-30.63394145914401
 20
35.10251443974879
 30
0.0
 10
-30.70352682049214
 20
35.08938691533498
 30
0.0
  0
SPLINE
  5
11A
330
1F
100
AcDbEntity
  8
0
  6
Continuous
 62
     7
370
    25
100
AcDbSpline
210
0.0
220
0.0
230
1.0
 70
     8
 71
     3
 72
    19
 73
    15
 74
     0
 42
0.000000001
 43
0.00000001
 40
0.0
 40
0.0
 40
0.0
 40
0.0
 40
0.1124061138160175
 40
0.2154537069363731
 40
0.3092139069456186
 40
0.3940464894569268
 40
0.4696503296488455
 40
0.5357089845841155
 40
0.5937479605849937
 40
0.6427094547175359
 40
0.7320913987264515
 40
0.8193865321166345
 40
0.9081764636040559
 40
1.0
 40
1.0
 40
1.0
 40
1.0
 10
-30.6526370635477
 20
35.62638778339053
 30
0.0
 10
-30.64156966908223
 20
35.66558083980203
 30
0.0
 10
-30.62035631081584
 20
35.74070388252058
 30
0.0
 10
-30.59276707469319
 20
35.84931411032725
 30
0.0
 10
-30.57126225032153
 20
35.94905874628929
 30
0.0
 10
-30.55198323738911
 20
36.03915435615136
 30
0.0
 10
-30.54032587926812
 20
36.12041674879881
 30
0.0
 10
-30.5319741625401
 20
36.19231716757898
 30
0.0
 10
-30.52960704038842
 20
36.25504422953989
 30
0.0
 10
-30.53232841244433
 20
36.32621115640686
 30
0.0
 10
-30.5466550020729
 20
36.40716533552428
 30
0.0
 10
-30.57848635437906
 20
36.4982392218257
 30
0.0
 10
-30.62406146644502
 20
36.58460457815527
 30
0.0
 10
-30.66516184816827
 20
36.63568390814363
 30
0.0
 10
-30.68605720243659
 20
36.66165254033498
 30
0.0
  0
SPLINE
  5
11B
330
1F
100
AcDbEntity
  8
0
  6
Continuous
 62
     7
370
    25
100
AcDbSpline
210
0.0
220
0.0
230
1.0
 70
     8
 71
     3
 72
    23
 73
    19
 74
     0
 42
0.000000001
 43
0.00000001
 40
0.0
 40
0.0
 40
0.0
 40
0.0
 40
0.0604598221907539
 40
0.1176733062459765
 40
0.1733770236599446
 40
0.2277647194233094
 40
0.2813878331055107
 40
0.3360412683781974
 40
0.3918489268884658
 40
0.4502404714820684
 40
0.5098029930155598
 40
0.5713238726398021
 40
0.6350541209903277
 40
0.7010295614831906
 40
0.7703601066216327
 40
0.8428474295170983
 40
0.9190282496112011
 40
0.9999999999999999
 40
0.9999999999999999
 40
0.9999999999999999
 40
0.9999999999999999
 10
-30.68605720243659
 20
36.66165254033498
 30
0.0
 10
-30.70088570359626
 20
36.67796763694079
 30
0.0
 10
-30.72974650230362
 20
36.70972180507696
 30
0.0
 10
-30.77833849489539
 20
36.75040320796225
 30
0.0
 10
-30.82938426174285
 20
36.78390424650989
 30
0.0
 10
-30.88273639965456
 20
36.81095065080055
 30
0.0
 10
-30.93903844824074
 20
36.83002813777675
 30
0.0
 10
-30.99771686119504
 20
36.84214153529522
 30
0.0
 10
-31.05914978006113
 20
36.84742408381981
 30
0.0
 10
-31.12253648067218
 20
36.84572182011498
 30
0.0
 10
-31.18756515160847
 20
36.83757126866633
 30
0.0
 10
-31.25291436354166
 20
36.82090579770004
 30
0.0
 10
-31.31918814406056
 20
36.79918905974422
 30
0.0
 10
-31.38557280000317
 20
36.76976678925042
 30
0.0
 10
-31.45247926908121
 20
36.73417771721418
 30
0.0
 10
-31.51919738257545
 20
36.69099597640079
 30
0.0
 10
-31.58750264258532
 20
36.6425672075052
 30
0.0
 10
-31.63120486962122
 20
36.6055368550295
 30
0.0
 10
-31.65372213299215
 20
36.58645722783498
 30
0.0
  0
SPLINE
  5
11C
330
1F
100
AcDbEntity
  8
0
  6
Continuous
 62
     7
370
    25
100
AcDbSpline
210
0.0
220
0.0
230
1.0
 70
     8
 71
     3
 72
    23
 73
    19
 74
     0
 42
0.000000001
 43
0.00000001
 40
0.0
 40
0.0
 40
0.0
 40
0.0
 40
0.083917008501227
 40
0.163191937634167
 40
0.2401230176828699
 40
0.313565068463041
 40
0.3839480719238906
 40
0.4524270721577726
 40
0.5187610216875943
 40
0.5837541176500441
 40
0.6458043658521354
 40
0.7038337115088328
 40
0.7577482879484077
 40
0.8089511403246543
 40
0.8581375781149602
 40
0.9056580026674591
 40
0.9522843743423489
 40
1.0
 40
1.0
 40
1.0
 40
1.0
 10
-31.65372213299215
 20
36.58645722783498
 30
0.0
 10
-31.67573668738474
 20
36.56670993632297
 30
0.0
 10
-31.71854800599161
 20
36.52830772415612
 30
0.0
 10
-31.77752089656468
 20
36.46755934152518
 30
0.0
 10
-31.83067914995496
 20
36.40650521322186
 30
0.0
 10
-31.87734908413062
 20
36.34415520121597
 30
0.0
 10
-31.91676141539555
 20
36.28051782520995
 30
0.0
 10
-31.95146671869266
 20
36.21701216291087
 30
0.0
 10
-31.97880470344465
 20
36.1520107934476
 30
0.0
 10
-31.9998449730222
 20
36.08714597831406
 30
0.0
 10
-32.0152592008894
 20
36.02370773219364
 30
0.0
 10
-32.02385559011322
 20
35.96289014809779
 30
0.0
 10
-32.02542879494365
 20
35.90530465487196
 30
0.0
 10
-32.0209288263395
 20
35.85103611483976
 30
0.0
 10
-32.01069423087706
 20
35.79973952722248
 30
0.0
 10
-31.99282342711191
 20
35.75233982409861
 30
0.0
 10
-31.96927663663078
 20
35.70796195581175
 30
0.0
 10
-31.94836822270829
 20
35.68203543649506
 30
0.0
 10
-31.9377933135477
 20
35.66892250561275
 30
0.0
  0
SPLINE
  5
11D
330
1F
100
AcDbEntity
  8
0
  6
Continuous
 62
     7
370
    25
100
AcDbSpline
210
0.0
220
0.0
230
1.0
 70
     8
 71
     3
 72
    15
 73
    11
 74
     0
 42
0.000000001
 43
0.00000001
 40
0.0
 40
0.0
 40
0.0
 40
0.0
 40
0.1010395941874994
 40
0.2071422731617066
 40
0.3169162988300103
 40
0.4367950957702803
 40
0.564694648457674
 40
0.699993717755657
 40
0.8451756745936575
 40
1.0
 40
1.0
 40
1.0
 40
1.0
 10
-31.9377933135477
 20
35.66892250561275
 30
0.0
 10
-31.92236168142092
 20
35.65288487108874
 30
0.0
 10
-31.8907251394985
 20
35.62000595764739
 30
0.0
 10
-31.83231316366997
 20
35.58115174938888
 30
0.0
 10
-31.76544694254003
 20
35.54959165868914
 30
0.0
 10
-31.69039360813004
 20
35.52559436738699
 30
0.0
 10
-31.60748787646713
 20
35.50988229064826
 30
0.0
 10
-31.51791990580005
 20
35.50305516860082
 30
0.0
 10
-31.42214059056831
 20
35.50164775954944
 30
0.0
 10
-31.35645652995338
 20
35.50777454343834
 30
0.0
 10
-31.3225589385477
 20
35.51093639450164
 30
0.0
  0
SPLINE
  5
11E
330
1F
100
AcDbEntity
  8
0
  6
Continuous
 62
     7
370
    25
100
AcDbSpline
210
0.0
220
0.0
230
1.0
 70
     8
 71
     3
 72
    15
 73
    11
 74
     0
 42
0.000000001
 43
0.00000001
 40
0.0
 40
0.0
 40
0.0
 40
0.0
 40
0.109439214003472
 40
0.2249357594915114
 40
0.3479787831995844
 40
0.4800379037739919
 40
0.6135399778608934
 40
0.743028520753311
 40
0.8708228919858626
 40
1.0
 40
1.0
 40
1.0
 40
1.0
 10
-15.79786621610941
 20
43.37656451329106
 30
0.0
 10
-15.78252397788315
 20
43.33743937921055
 30
0.0
 10
-15.75099032663074
 20
43.25702358100015
 30
0.0
 10
-15.6853175260838
 20
43.14022933337357
 30
0.0
 10
-15.60180155293472
 20
43.02499136300307
 30
0.0
 10
-15.50655931766315
 20
42.91002367136078
 30
0.0
 10
-15.39630741959806
 20
42.80535924500978
 30
0.0
 10
-15.27478749775578
 20
42.71685852358904
 30
0.0
 10
-15.14274011208576
 20
42.64760229840621
 30
0.0
 10
-15.04848224997938
 20
42.61814961153614
 30
0.0
 10
-15.00109972305385
 20
42.60334402717995
 30
0.0
  0
SPLINE
  5
11F
330
1F
100
AcDbEntity
  8
0
  6
Continuous
 62
     7
370
    25
100
AcDbSpline
210
0.0
220
0.0
230
1.0
 70
     8
 71
     3
 72
    23
 73
    19
 74
     0
 42
0.000000001
 43
0.00000001
 40
0.0
 40
0.0
 40
0.0
 40
0.0
 40
0.0672295548636847
 40
0.1328983215668214
 40
0.1963043157604626
 40
0.2591633110878658
 40
0.3209704032809165
 40
0.3824552952985411
 40
0.444399179452781
 40
0.506642947730188
 40
0.5684043752755626
 40
0.6281711133954677
 40
0.6872369795351105
 40
0.7460500989781411
 40
0.8059582881032247
 40
0.867902172257464
 40
0.9321954516502142
 40
1.0
 40
1.0
 40
1.0
 40
1.0
 10
-14.05166395916497
 20
43.65835704801328
 30
0.0
 10
-14.06406777629744
 20
43.69198630519219
 30
0.0
 10
-14.0885874459765
 20
43.75846408931074
 30
0.0
 10
-14.13361088585997
 20
43.8530374131931
 30
0.0
 10
-14.18386181561671
 20
43.9422506750624
 30
0.0
 10
-14.24101368572189
 20
44.02472950045572
 30
0.0
 10
-14.3033218119998
 20
44.10207052410508
 30
0.0
 10
-14.37228239540419
 20
44.17287061365235
 30
0.0
 10
-14.44650686694913
 20
44.23848308234117
 30
0.0
 10
-14.52687104544723
 20
44.29670635420673
 30
0.0
 10
-14.61112599136142
 20
44.34695980551758
 30
0.0
 10
-14.69927414968785
 20
44.38623661864733
 30
0.0
 10
-14.79013324158321
 20
44.41362277863321
 30
0.0
 10
-14.88372128766274
 20
44.43002293123882
 30
0.0
 10
-14.98021861368213
 20
44.43340547012481
 30
0.0
 10
-15.07927336252311
 20
44.42557904845549
 30
0.0
 10
-15.18119562410164
 20
44.40659495229167
 30
0.0
 10
-15.24839794885499
 20
44.3854598391903
 30
0.0
 10
-15.28289225777608
 20
44.37461138829106
 30
0.0
  0
SPLINE
  5
120
330
1F
100
AcDbEntity
  8
0
  6
Continuous
 62
     7
370
    25
100
AcDbSpline
210
0.0
220
0.0
230
1.0
 70
     8
 71
     3
 72
    23
 73
    19
 74
     0
 42
0.000000001
 43
0.00000001
 40
0.0
 40
0.0
 40
0.0
 40
0.0
 40
0.0602286147793566
 40
0.1188875329174789
 40
0.1772822545491297
 40
0.2352339721820762
 40
0.2934671590046005
 40
0.3529833353316497
 40
0.4133269268903856
 40
0.4755155323207629
 40
0.5379124180211691
 40
0.5993939525001141
 40
0.661287490906275
 40
0.7242966256360306
 40
0.7886868777809949
 40
0.8552513528791387
 40
0.9258759784376882
 40
0.9999999999999999
 40
0.9999999999999999
 40
0.9999999999999999
 40
0.9999999999999999
 10
-14.54309191055385
 20
42.63372597162439
 30
0.0
 10
-14.51911422577751
 20
42.64266371480959
 30
0.0
 10
-14.47178377000369
 20
42.66030626297429
 30
0.0
 10
-14.40431703111651
 20
42.69411005135947
 30
0.0
 10
-14.34151255781985
 20
42.73396287401245
 30
0.0
 10
-14.28158871318231
 20
42.77778223365993
 30
0.0
 10
-14.22663752601217
 20
42.82849745181223
 30
0.0
 10
-14.17613555702117
 20
42.88486778179926
 30
0.0
 10
-14.12832686952067
 20
42.9457591191264
 30
0.0
 10
-14.08652015923789
 20
43.01233375379722
 30
0.0
 10
-14.04922439988912
 20
43.0822068824105
 30
0.0
 10
-14.02300257235712
 20
43.15686414767052
 30
0.0
 10
-14.00435627297078
 20
43.23393553654198
 30
0.0
 10
-13.99543689880753
 20
43.31403130145767
 30
0.0
 10
-13.99547485829719
 20
43.39657074118645
 30
0.0
 10
-14.00507753667782
 20
43.48176325943262
 30
0.0
 10
-14.02304049418831
 20
43.56986425216416
 30
0.0
 10
-14.04197025758092
 20
43.62838783373407
 30
0.0
 10
-14.05166395916497
 20
43.65835704801329
 30
0.0
  0
SPLINE
  5
121
330
1F
100
AcDbEntity
  8
0
  6
Continuous
 62
     7
370
    25
100
AcDbSpline
210
0.0
220
0.0
230
1.0
 70
     8
 71
     3
 72
    11
 73
     7
 74
     0
 42
0.000000001
 43
0.00000001
 40
0.0
 40
0.0
 40
0.0
 40
0.0
 40
0.2350991333073611
 40
0.4767275556079947
 40
0.7306811330236819
 40
1.0
 40
1.0
 40
1.0
 40
1.0
 10
-15.00109972305386
 20
42.60334402717995
 30
0.0
 10
-14.96529049565435
 20
42.59610529909383
 30
0.0
 10
-14.89267752934428
 20
42.58142680539775
 30
0.0
 10
-14.77868475668594
 20
42.58090513341027
 30
0.0
 10
-14.66080149768315
 20
42.59777132181774
 30
0.0
 10
-14.58308908461218
 20
42.62150874767862
 30
0.0
 10
-14.54309191055385
 20
42.63372597162439
 30
0.0
  0
SPLINE
  5
122
330
1F
100
AcDbEntity
  8
0
  6
Continuous
 62
     7
370
    25
100
AcDbSpline
210
0.0
220
0.0
230
1.0
 70
     8
 71
     3
 72
    13
 73
     9
 74
     0
 42
0.000000001
 43
0.00000001
 40
0.0
 40
0.0
 40
0.0
 40
0.0
 40
0.1789997478064915
 40
0.3746305854340088
 40
0.4895811578458511
 40
0.6320681037382558
 40
0.8020857342436174
 40
0.9999999999999999
 40
0.9999999999999999
 40
0.9999999999999999
 40
0.9999999999999999
 10
-15.28289225777608
 20
44.37461138829106
 30
0.0
 10
-15.32645557959569
 20
44.35723983328796
 30
0.0
 10
-15.41762974579829
 20
44.32088271044024
 30
0.0
 10
-15.52781124690352
 20
44.25429427821429
 30
0.0
 10
-15.62318829148117
 20
44.18388439914722
 30
0.0
 10
-15.71069279939045
 20
44.11411290186838
 30
0.0
 10
-15.81034711889119
 20
44.02512209233032
 30
0.0
 10
-15.88125300496383
 20
43.95999248242066
 30
0.0
 10
-15.91939399388719
 20
43.92495861051329
 30
0.0
  0
SPLINE
  5
123
330
1F
100
AcDbEntity
  8
0
  6
Continuous
 62
     7
370
    25
100
AcDbSpline
210
0.0
220
0.0
230
1.0
 70
     8
 71
     3
 72
    11
 73
     7
 74
     0
 42
0.000000001
 43
0.00000001
 40
0.0
 40
0.0
 40
0.0
 40
0.0
 40
0.2957646489468853
 40
0.5614447959627518
 40
0.7953374878934996
 40
1.0
 40
1.0
 40
1.0
 40
1.0
 10
-15.91939399388719
 20
43.92495861051329
 30
0.0
 10
-15.91056750060288
 20
43.87022248976569
 30
0.0
 10
-15.89381232469283
 20
43.7663178809683
 30
0.0
 10
-15.86566530121586
 20
43.61987215207932
 30
0.0
 10
-15.83399898951124
 20
43.49161715795995
 30
0.0
 10
-15.80936313851715
 20
43.41317258967241
 30
0.0
 10
-15.79786621610941
 20
43.37656451329106
 30
0.0
  0
CIRCLE
  5
127
330
1F
100
AcDbEntity
  8
0
  6
Continuous
 62
     7
370
    25
100
AcDbCircle
 10
-31.0
 20
0.0
 30
0.0
 40
3.000000000000004
  0
SPLINE
  5
128
330
1F
100
AcDbEntity
  8
0
  6
Continuous
 62
     7
370
    25
100
AcDbSpline
210
0.0
220
0.0
230
1.0
 70
     8
 71
     3
 72
    11
 73
     7
 74
     0
 42
0.000000001
 43
0.00000001
 40
0.0
 40
0.0
 40
0.0
 40
0.0
 40
0.2511872835516356
 40
0.498160492020167
 40
0.7444091146517077
 40
1.0
 40
1.0
 40
1.0
 40
1.0
 10
35.18813390125654
 20
33.17262787707512
 30
0.0
 10
35.15992866951275
 20
33.19983861869894
 30
0.0
 10
35.10399139464612
 20
33.25380359751431
 30
0.0
 10
35.00434404465717
 20
33.31446867632445
 30
0.0
 10
34.89536976063351
 20
33.3579182030068
 30
0.0
 10
34.81809424142443
 20
33.37052547085778
 30
0.0
 10
34.77873719986766
 20
33.37694645346401
 30
0.0
  0
SPLINE
  5
129
330
1F
100
AcDbEntity
  8
0
  6
Continuous
 62
     7
370
    25
100
AcDbSpline
210
0.0
220
0.0
230
1.0
 70
     8
 71
     3
 72
    15
 73
    11
 74
     0
 42
0.000000001
 43
0.00000001
 40
0.0
 40
0.0
 40
0.0
 40
0.0
 40
0.1440578172011703
 40
0.2818246293415981
 40
0.4135159422995038
 40
0.5405498458359007
 40
0.6619076160542054
 40
0.7792910172425559
 40
0.8918505530456331
 40
1.0
 40
1.0
 40
1.0
 40
1.0
 10
34.68075542903432
 20
31.52060964790845
 30
0.0
 10
34.71597775667372
 20
31.55450746122679
 30
0.0
 10
34.78488425285963
 20
31.62082277031265
 30
0.0
 10
34.88122024849461
 20
31.72287466067562
 30
0.0
 10
34.97021370641012
 20
31.82384476339164
 30
0.0
 10
35.04919825606547
 20
31.92583792732392
 30
0.0
 10
35.12249721248146
 20
32.02605571372278
 30
0.0
 10
35.18583144290814
 20
32.12711106872852
 30
0.0
 10
35.24201198272506
 20
32.22724089682423
 30
0.0
 10
35.27314087313688
 20
32.29538038798467
 30
0.0
 10
35.28839431792321
 20
32.32876937013068
 30
0.0
  0
SPLINE
  5
12A
330
1F
100
AcDbEntity
  8
0
  6
Continuous
 62
     7
370
    25
100
AcDbSpline
210
0.0
220
0.0
230
1.0
 70
     8
 71
     3
 72
    15
 73
    11
 74
     0
 42
0.000000001
 43
0.00000001
 40
0.0
 40
0.0
 40
0.0
 40
0.0
 40
0.096552205812463
 40
0.201187405001043
 40
0.3134717955952213
 40
0.4336992484473511
 40
0.5621091119853494
 40
0.6993633371612664
 40
0.8451463289711678
 40
1.0
 40
1.0
 40
1.0
 40
1.0
 10
33.65840299847878
 20
30.78232839790845
 30
0.0
 10
33.69562122501415
 20
30.79903076936081
 30
0.0
 10
33.7731734502832
 20
30.83383377299584
 30
0.0
 10
33.88886280425932
 20
30.89849372006395
 30
0.0
 10
34.00973756851445
 20
30.97380762480233
 30
0.0
 10
34.13505230059
 20
31.06070144736478
 30
0.0
 10
34.26499085533897
 20
31.15913055409909
 30
0.0
 10
34.40003336035062
 20
31.26852473929052
 30
0.0
 10
34.54013759986181
 20
31.38931336849804
 30
0.0
 10
34.63294939355915
 20
31.47597267243964
 30
0.0
 10
34.68075542903432
 20
31.52060964790845
 30
0.0
  0
SPLINE
  5
12B
330
1F
100
AcDbEntity
  8
0
  6
Continuous
 62
     7
370
    25
100
AcDbSpline
210
0.0
220
0.0
230
1.0
 70
     8
 71
     3
 72
    15
 73
    11
 74
     0
 42
0.000000001
 43
0.00000001
 40
0.0
 40
0.0
 40
0.0
 40
0.0
 40
0.1388234924283919
 40
0.2688461880513861
 40
0.3923573106260352
 40
0.5116156557194419
 40
0.6292154870261005
 40
0.7487480138389396
 40
0.8709844184889065
 40
1.0
 40
1.0
 40
1.0
 40
1.0
 10
32.63984831097877
 20
31.62922509929734
 30
0.0
 10
32.62929999507264
 20
31.59577691559204
 30
0.0
 10
32.60887207994013
 20
31.53100101542476
 30
0.0
 10
32.59428697562897
 20
31.4327694663586
 30
0.0
 10
32.590210450176
 20
31.33856246786947
 30
0.0
 10
32.60113677921744
 20
31.24790009233827
 30
0.0
 10
32.62501726004683
 20
31.16090272156478
 30
0.0
 10
32.66171835409979
 20
31.07766550114161
 30
0.0
 10
32.7118329357838
 20
30.99818453090868
 30
0.0
 10
32.75360063485582
 20
30.95041321584374
 30
0.0
 10
32.77504796375655
 20
30.92588308540845
 30
0.0
  0
SPLINE
  5
12C
330
1F
100
AcDbEntity
  8
0
  6
Continuous
 62
     7
370
    25
100
AcDbSpline
210
0.0
220
0.0
230
1.0
 70
     8
 71
     3
 72
    11
 73
     7
 74
     0
 42
0.000000001
 43
0.00000001
 40
0.0
 40
0.0
 40
0.0
 40
0.0
 40
0.2321694429144072
 40
0.4733040609047706
 40
0.7292119341631252
 40
1.0
 40
1.0
 40
1.0
 40
1.0
 10
35.36662782486766
 20
32.85741520346402
 30
0.0
 10
35.35908940565057
 20
32.88479885255265
 30
0.0
 10
35.34372147271565
 20
32.9406235646825
 30
0.0
 10
35.30435796537756
 20
33.02100198218564
 30
0.0
 10
35.25260401790019
 20
33.09950636173409
 30
0.0
 10
35.2100249211168
 20
33.14779924905525
 30
0.0
 10
35.18813390125654
 20
33.17262787707512
 30
0.0
  0
SPLINE
  5
12D
330
1F
100
AcDbEntity
  8
0
  6
Continuous
 62
     7
370
    25
100
AcDbSpline
210
0.0
220
0.0
230
1.0
 70
     8
 71
     3
 72
    15
 73
    11
 74
     0
 42
0.000000001
 43
0.00000001
 40
0.0
 40
0.0
 40
0.0
 40
0.0
 40
0.1449698176821938
 40
0.2838506264756375
 40
0.4156578934658937
 40
0.542543389168041
 40
0.6635503809355985
 40
0.7796892297789222
 40
0.8918023534339131
 40
1.0
 40
1.0
 40
1.0
 40
1.0
 10
33.32875890125655
 20
32.61587874513067
 30
0.0
 10
33.28660488055586
 20
32.57498561661221
 30
0.0
 10
33.20406738843743
 20
32.49491694898126
 30
0.0
 10
33.08958377225027
 20
32.37134088216204
 30
0.0
 10
32.98625218892474
 20
32.24771794628323
 30
0.0
 10
32.8945174564805
 20
32.1241768128509
 30
0.0
 10
32.81329351996079
 20
32.00096066106537
 30
0.0
 10
32.74428933749149
 20
31.87738694049592
 30
0.0
 10
32.68448904663246
 20
31.75468035163078
 30
0.0
 10
32.65455119922117
 20
31.6705450848995
 30
0.0
 10
32.63984831097877
 20
31.62922509929734
 30
0.0
  0
SPLINE
  5
12E
330
1F
100
AcDbEntity
  8
0
  6
Continuous
 62
     7
370
    25
100
AcDbSpline
210
0.0
220
0.0
230
1.0
 70
     8
 71
     3
 72
    19
 73
    15
 74
     0
 42
0.000000001
 43
0.00000001
 40
0.0
 40
0.0
 40
0.0
 40
0.0
 40
0.0497608315848062
 40
0.1008255024082227
 40
0.1536904451031969
 40
0.2088810714958559
 40
0.2665582557316819
 40
0.3272621533239772
 40
0.3912641885385455
 40
0.4588578713443625
 40
0.5967182462018797
 40
0.732804944965617
 40
0.8669799062673911
 40
1.0
 40
1.0
 40
1.0
 40
1.0
 10
34.77873719986766
 20
33.37694645346401
 30
0.0
 10
34.75090513380966
 20
33.37937063433152
 30
0.0
 10
34.69451174258236
 20
33.3842825147425
 30
0.0
 10
34.60821123422032
 20
33.37953083112328
 30
0.0
 10
34.51972259721627
 20
33.36750231476454
 30
0.0
 10
34.42905794315634
 20
33.34622482552927
 30
0.0
 10
34.33697160681292
 20
33.31430224170776
 30
0.0
 10
34.24268430549996
 20
33.27456105597811
 30
0.0
 10
34.14577703175767
 20
33.22698216143726
 30
0.0
 10
34.01626225981649
 20
33.14893003455845
 30
0.0
 10
33.85661445541205
 20
33.04302883770792
 30
0.0
 10
33.67090229057474
 20
32.90911234829736
 30
0.0
 10
33.49494309213689
 20
32.76678401348482
 30
0.0
 10
33.38399378358393
 20
32.66603534965466
 30
0.0
 10
33.32875890125655
 20
32.61587874513067
 30
0.0
  0
SPLINE
  5
12F
330
1F
100
AcDbEntity
  8
0
  6
Continuous
 62
     7
370
    25
100
AcDbSpline
210
0.0
220
0.0
230
1.0
 70
     8
 71
     3
 72
    15
 73
    11
 74
     0
 42
0.000000001
 43
0.00000001
 40
0.0
 40
0.0
 40
0.0
 40
0.0
 40
0.1449468210464852
 40
0.2834034560182127
 40
0.4150503268655919
 40
0.5401661426179932
 40
0.6611231152809718
 40
0.7772603169828305
 40
0.8893856599213703
 40
1.0
 40
1.0
 40
1.0
 40
1.0
 10
35.28839431792321
 20
32.32876937013068
 30
0.0
 10
35.29864069342444
 20
32.352934199691
 30
0.0
 10
35.31867464937975
 20
32.40018184653171
 30
0.0
 10
35.34176254064059
 20
32.47174067492166
 30
0.0
 10
35.36052520617214
 20
32.54082074143269
 30
0.0
 10
35.37261833150739
 20
32.60818639473124
 30
0.0
 10
35.37962107321398
 20
32.67343894522754
 30
0.0
 10
35.38108890532789
 20
32.73667244023742
 30
0.0
 10
35.37789046048147
 20
32.79807706828355
 30
0.0
 10
35.37036501992053
 20
32.83772547959768
 30
0.0
 10
35.36662782486766
 20
32.85741520346401
 30
0.0
  0
SPLINE
  5
130
330
1F
100
AcDbEntity
  8
0
  6
Continuous
 62
     7
370
    25
100
AcDbSpline
210
0.0
220
0.0
230
1.0
 70
     8
 71
     3
 72
    19
 73
    15
 74
     0
 42
0.000000001
 43
0.00000001
 40
0.0
 40
0.0
 40
0.0
 40
0.0
 40
0.1019078338993339
 40
0.207560418283345
 40
0.3203216493759016
 40
0.4417879574772562
 40
0.5052742154112602
 40
0.5693899242939655
 40
0.6346058877057195
 40
0.7023709728562475
 40
0.771540090586908
 40
0.8444483329985354
 40
0.9204027096619167
 40
0.9999999999999999
 40
0.9999999999999999
 40
0.9999999999999999
 40
0.9999999999999999
 10
32.77504796375655
 20
30.92588308540845
 30
0.0
 10
32.7984237772969
 20
30.90328516944768
 30
0.0
 10
32.84603438239466
 20
30.85725894447873
 30
0.0
 10
32.93250436949154
 20
30.80205745498811
 30
0.0
 10
33.0304360880658
 20
30.7556712788256
 30
0.0
 10
33.1206568917964
 20
30.72558642496283
 30
0.0
 10
33.19814745525505
 20
30.70852483974845
 30
0.0
 10
33.25914405958147
 20
30.70046725150053
 30
0.0
 10
33.32201776702001
 20
30.70031074017854
 30
0.0
 10
33.386243201059
 20
30.70485228873628
 30
0.0
 10
33.45246154879249
 20
30.71453028374902
 30
0.0
 10
33.51974001604371
 20
30.73190424137307
 30
0.0
 10
33.58925096883125
 20
30.7535428418071
 30
0.0
 10
33.63499522221815
 20
30.77258456449977
 30
0.0
 10
33.65840299847877
 20
30.78232839790845
 30
0.0
  0
LINE
  5
131
330
1F
100
AcDbEntity
  8
0
  6
Continuous
 62
     7
370
    25
100
AcDbLine
 10
26.4090098769
 20
37.1488438783
 30
0.0
 11
27.5073171686
 21
38.6778152324
 31
0.0
  0
LINE
  5
132
330
1F
100
AcDbEntity
  8
0
  6
Continuous
 62
     7
370
    25
100
AcDbLine
 10
25.5469222033
 20
37.0113655797
 30
0.0
 11
25.6023692519
 21
37.088839538
 31
0.0
  0
LINE
  5
133
330
1F
100
AcDbEntity
  8
0
  6
Continuous
 62
     7
370
    25
100
AcDbLine
 10
27.0234847033
 20
35.9502761699
 30
0.0
 11
25.5469222033
 21
37.0113655797
 31
0.0
  0
LINE
  5
134
330
1F
100
AcDbEntity
  8
0
  6
Continuous
 62
     7
370
    25
100
AcDbLine
 10
27.0789317519
 20
36.0277501283
 30
0.0
 11
27.0234847033
 21
35.9502761699
 31
0.0
  0
LINE
  5
135
330
1F
100
AcDbEntity
  8
0
  6
Continuous
 62
     7
370
    25
100
AcDbLine
 10
28.6048649116
 20
39.1973464824
 30
0.0
 11
26.8867659533
 21
36.805527906
 31
0.0
  0
LINE
  5
136
330
1F
100
AcDbEntity
  8
0
  6
Continuous
 62
     7
370
    25
100
AcDbLine
 10
28.5091617866
 20
39.2657058574
 30
0.0
 11
28.6048649116
 21
39.1973464824
 31
0.0
  0
LINE
  5
137
330
1F
100
AcDbEntity
  8
0
  6
Continuous
 62
     7
370
    25
100
AcDbLine
 10
27.3121131755
 20
39.6158577672
 30
0.0
 11
28.5091617866
 21
39.2657058574
 31
0.0
  0
LINE
  5
138
330
1F
100
AcDbEntity
  8
0
  6
Continuous
 62
     7
370
    25
100
AcDbLine
 10
27.3090749811
 20
39.5209141908
 30
0.0
 11
27.3121131755
 21
39.6158577672
 31
0.0
  0
LINE
  5
139
330
1F
100
AcDbEntity
  8
0
  6
Continuous
 62
     7
370
    25
100
AcDbLine
 10
19.92718781
 20
40.3227265767
 30
0.0
 11
17.3447225322
 21
41.5167369933
 31
0.0
  0
LINE
  5
13A
330
1F
100
AcDbEntity
  8
0
  6
Continuous
 62
     7
370
    25
100
AcDbLine
 10
10.4791852925
 20
45.5039859391
 30
0.0
 11
10.4981740077
 21
45.5791812516
 31
0.0
  0
LINE
  5
13B
330
1F
100
AcDbEntity
  8
0
  6
Continuous
 62
     7
370
    25
100
AcDbLine
 10
10.5893198411
 20
45.4774017377
 30
0.0
 11
10.4791852925
 21
45.5039859391
 31
0.0
  0
LINE
  5
13C
330
1F
100
AcDbEntity
  8
0
  6
Continuous
 62
     7
370
    25
100
AcDbLine
 10
2.9790900117
 20
48.4269986631
 30
0.0
 11
3.3679789006
 21
48.4072503992
 31
0.0
  0
LINE
  5
13D
330
1F
100
AcDbEntity
  8
0
  6
Continuous
 62
     7
370
    25
100
AcDbLine
 10
0.6374016437
 20
46.2372200172
 30
0.0
 11
2.9790900117
 21
48.4269986631
 31
0.0
  0
LINE
  5
13E
330
1F
100
AcDbEntity
  8
0
  6
Continuous
 62
     7
370
    25
100
AcDbLine
 10
0.6206915742
 20
45.9090950172
 30
0.0
 11
0.6374016437
 21
46.2372200172
 31
0.0
  0
LINE
  5
13F
330
1F
100
AcDbEntity
  8
0
  6
Continuous
 62
     7
370
    25
100
AcDbLine
 10
2.6046325465
 20
44.8890212325
 30
0.0
 11
2.6509650117
 21
45.8065559547
 31
0.0
  0
LINE
  5
140
330
1F
100
AcDbEntity
  8
0
  6
Continuous
 62
     7
370
    25
100
AcDbLine
 10
3.8776360187
 20
45.7442729686
 30
0.0
 11
3.2342983451
 21
45.7769335589
 31
0.0
  0
LINE
  5
141
330
1F
100
AcDbEntity
  8
0
  6
Continuous
 62
     7
370
    25
100
AcDbLine
 10
3.896624734
 20
46.108856302
 30
0.0
 11
3.8776360187
 21
45.7442729686
 31
0.0
  0
LINE
  5
142
330
1F
100
AcDbEntity
  8
0
  6
Continuous
 62
     7
370
    25
100
AcDbLine
 10
3.2532870603
 20
46.1415168922
 30
0.0
 11
3.896624734
 21
46.108856302
 31
0.0
  0
LINE
  5
143
330
1F
100
AcDbEntity
  8
0
  6
Continuous
 62
     7
370
    25
100
AcDbLine
 10
-23.1495869833
 20
42.0959664979
 30
0.0
 11
-24.3003031292
 21
41.4343996576
 31
0.0
  0
LINE
  5
144
330
1F
100
AcDbEntity
  8
0
  6
Continuous
 62
     7
370
    25
100
AcDbLine
 10
-22.8328552125
 20
38.6536921923
 30
0.0
 11
-23.1495869833
 21
42.0959664979
 31
0.0
  0
LINE
  5
145
330
1F
100
AcDbEntity
  8
0
  6
Continuous
 62
     7
370
    25
100
AcDbLine
 10
-22.4872605945
 20
38.8526939284
 30
0.0
 11
-22.8328552125
 21
38.6536921923
 31
0.0
  0
LINE
  5
146
330
1F
100
AcDbEntity
  8
0
  6
Continuous
 62
     7
370
    25
100
AcDbLine
 10
-22.8191833375
 20
42.6572729215
 30
0.0
 11
-22.4872605945
 21
38.8526939284
 31
0.0
  0
LINE
  5
147
330
1F
100
AcDbEntity
  8
0
  6
Continuous
 62
     7
370
    25
100
AcDbLine
 10
-22.8677944486
 20
42.7415828173
 30
0.0
 11
-22.8191833375
 21
42.6572729215
 31
0.0
  0
LINE
  5
148
330
1F
100
AcDbEntity
  8
0
  6
Continuous
 62
     7
370
    25
100
AcDbLine
 10
-25.1107414972
 20
41.4518692756
 30
0.0
 11
-22.8677944486
 21
42.7415828173
 31
0.0
  0
LINE
  5
149
330
1F
100
AcDbEntity
  8
0
  6
Continuous
 62
     7
370
    25
100
AcDbLine
 10
-25.1001078167
 20
40.5054717062
 30
0.0
 11
-25.1107414972
 21
41.4518692756
 31
0.0
  0
LINE
  5
14A
330
1F
100
AcDbEntity
  8
0
  6
Continuous
 62
     7
370
    25
100
AcDbLine
 10
-95.4770023536
 20
-5.0221624536
 30
0.0
 11
-95.4770023536
 21
-39.0
 31
0.0
  0
LINE
  5
14B
330
1F
100
AcDbEntity
  8
0
  6
Continuous
 62
     7
370
    25
100
AcDbLine
 10
-86.3305199351
 20
11.7766814384
 30
0.0
 11
-86.1930277574
 21
11.538538001
 31
0.0
  0
LINE
  5
14C
330
1F
100
AcDbEntity
  8
0
  6
Continuous
 62
     7
370
    25
100
AcDbLine
 10
-86.1930277574
 20
11.538538001
 30
0.0
 11
-84.4609769498
 21
12.538538001
 31
0.0
  0
LINE
  5
14D
330
1F
100
AcDbEntity
  8
0
  6
Continuous
 62
     7
370
    25
100
AcDbLine
 10
-84.4609769498
 20
12.538538001
 30
0.0
 11
-84.5984691276
 21
12.7766814384
 31
0.0
  0
LINE
  5
14E
330
1F
100
AcDbEntity
  8
0
  6
Continuous
 62
     7
370
    25
100
AcDbLine
 10
-14.4063731606
 20
46.3426018397
 30
0.0
 11
-14.3759912161
 21
46.2529751036
 31
0.0
  0
LINE
  5
14F
330
1F
100
AcDbEntity
  8
0
  6
Continuous
 62
     7
370
    25
100
AcDbLine
 10
-7.0958681721
 20
47.4784538695
 30
0.0
 11
-7.344240568
 21
46.9718349459
 31
0.0
  0
LINE
  5
150
330
1F
100
AcDbEntity
  8
0
  6
Continuous
 62
     7
370
    25
100
AcDbLine
 10
-5.662599943
 20
47.6797342514
 30
0.0
 11
-7.0958681721
 21
47.4784538695
 31
0.0
  0
LINE
  5
151
330
1F
100
AcDbEntity
  8
0
  6
Continuous
 62
     7
370
    25
100
AcDbLine
 10
-5.4491667832
 20
48.1498948417
 30
0.0
 11
-5.662599943
 21
47.6797342514
 31
0.0
  0
LINE
  5
152
330
1F
100
AcDbEntity
  8
0
  6
Continuous
 62
     7
370
    25
100
AcDbLine
 10
-7.156632061
 20
47.9098774806
 30
0.0
 11
-5.4491667832
 21
48.1498948417
 31
0.0
  0
LINE
  5
153
330
1F
100
AcDbEntity
  8
0
  6
Continuous
 62
     7
370
    25
100
AcDbLine
 10
-78.4770023536
 20
-2.0221624536
 30
0.0
 11
-78.4770023536
 21
-8.0221624536
 31
0.0
  0
LINE
  5
154
330
1F
100
AcDbEntity
  8
0
  6
Continuous
 62
     7
370
    25
100
AcDbLine
 10
-78.4770023536
 20
-8.0221624536
 30
0.0
 11
-72.4770023536
 21
-8.0221624536
 31
0.0
  0
LINE
  5
155
330
1F
100
AcDbEntity
  8
0
  6
Continuous
 62
     7
370
    25
100
AcDbLine
 10
-72.4770023536
 20
-8.0221624536
 30
0.0
 11
-72.4770023536
 21
-2.0221624536
 31
0.0
  0
LINE
  5
156
330
1F
100
AcDbEntity
  8
0
  6
Continuous
 62
     7
370
    25
100
AcDbLine
 10
-72.4770023536
 20
-2.0221624536
 30
0.0
 11
-78.4770023536
 21
-2.0221624536
 31
0.0
  0
LINE
  5
157
330
1F
100
AcDbEntity
  8
0
  6
Continuous
 62
     7
370
    25
100
AcDbLine
 10
3.0
 20
-3.0
 30
0.0
 11
3.0
 21
3.0
 31
0.0
  0
LINE
  5
158
330
1F
100
AcDbEntity
  8
0
  6
Continuous
 62
     7
370
    25
100
AcDbLine
 10
3.0
 20
3.0
 30
0.0
 11
-3.0
 21
3.0
 31
0.0
  0
LINE
  5
159
330
1F
100
AcDbEntity
  8
0
  6
Continuous
 62
     7
370
    25
100
AcDbLine
 10
-3.0
 20
3.0
 30
0.0
 11
-3.0
 21
-3.0
 31
0.0
  0
LINE
  5
15A
330
1F
100
AcDbEntity
  8
0
  6
Continuous
 62
     7
370
    25
100
AcDbLine
 10
-3.0
 20
-3.0
 30
0.0
 11
3.0
 21
-3.0
 31
0.0
  0
LINE
  5
15B
330
1F
100
AcDbEntity
  8
0
  6
Continuous
 62
     7
370
    25
100
AcDbLine
 10
-63.9233839073
 20
-29.3935378322
 30
0.0
 11
-63.9233839073
 21
-35.3935378322
 31
0.0
  0
LINE
  5
15C
330
1F
100
AcDbEntity
  8
0
  6
Continuous
 62
     7
370
    25
100
AcDbLine
 10
-63.9233839073
 20
-35.3935378322
 30
0.0
 11
-57.9233839073
 21
-35.3935378322
 31
0.0
  0
LINE
  5
15D
330
1F
100
AcDbEntity
  8
0
  6
Continuous
 62
     7
370
    25
100
AcDbLine
 10
-57.9233839073
 20
-35.3935378322
 30
0.0
 11
-57.9233839073
 21
-29.3935378322
 31
0.0
  0
LINE
  5
15E
330
1F
100
AcDbEntity
  8
0
  6
Continuous
 62
     7
370
    25
100
AcDbLine
 10
-57.9233839073
 20
-29.3935378322
 30
0.0
 11
-63.9233839073
 21
-29.3935378322
 31
0.0
  0
LINE
  5
15F
330
1F
100
AcDbEntity
  8
0
  6
Continuous
 62
     7
370
    25
100
AcDbLine
 10
-83.3482309502
 20
-39.7219122135
 30
0.0
 11
-83.3482309502
 21
-45.7219122135
 31
0.0
  0
LINE
  5
160
330
1F
100
AcDbEntity
  8
0
  6
Continuous
 62
     7
370
    25
100
AcDbLine
 10
-83.3482309502
 20
-45.7219122135
 30
0.0
 11
-77.3482309502
 21
-45.7219122135
 31
0.0
  0
LINE
  5
161
330
1F
100
AcDbEntity
  8
0
  6
Continuous
 62
     7
370
    25
100
AcDbLine
 10
-77.3482309502
 20
-45.7219122135
 30
0.0
 11
-77.3482309502
 21
-39.7219122135
 31
0.0
  0
LINE
  5
162
330
1F
100
AcDbEntity
  8
0
  6
Continuous
 62
     7
370
    25
100
AcDbLine
 10
-77.3482309502
 20
-39.7219122135
 30
0.0
 11
-83.3482309502
 21
-39.7219122135
 31
0.0
  0
LINE
  5
163
330
1F
100
AcDbEntity
  8
0
  6
Continuous
 62
     7
370
    25
100
AcDbLine
 10
-36.1708590351
 20
26.627130537
 30
0.0
 11
-36.245294799
 21
26.6856157801
 31
0.0
  0
LINE
  5
164
330
1F
100
AcDbEntity
  8
0
  6
Continuous
 62
     7
370
    25
100
AcDbLine
 10
18.1938978795
 20
41.5493975836
 30
0.0
 11
19.3370185392
 21
41.0215112989
 31
0.0
  0
LINE
  5
165
330
1F
100
AcDbEntity
  8
0
  6
Continuous
 62
     7
370
    25
100
AcDbLine
 10
-36.0455335142
 20
26.7866357454
 30
0.0
 11
-36.1708590351
 21
26.627130537
 31
0.0
  0
LINE
  5
166
330
1F
100
AcDbEntity
  8
0
  6
Continuous
 62
     7
370
    25
100
AcDbLine
 10
2.6509650117
 20
45.8065559547
 30
0.0
 11
0.6206915742
 21
45.9090950172
 31
0.0
  0
LINE
  5
167
330
1F
100
AcDbEntity
  8
0
  6
Continuous
 62
     7
370
    25
100
AcDbLine
 10
17.3447225322
 20
41.5167369933
 30
0.0
 11
17.38421906
 21
41.6025659864
 31
0.0
  0
LINE
  5
168
330
1F
100
AcDbEntity
  8
0
  6
Continuous
 62
     7
370
    25
100
AcDbLine
 10
3.1879658798
 20
44.8593988367
 30
0.0
 11
2.6046325465
 21
44.8890212325
 31
0.0
  0
LINE
  5
169
330
1F
100
AcDbEntity
  8
0
  6
Continuous
 62
     7
370
    25
100
AcDbLine
 10
18.665577567
 20
43.7315807433
 30
0.0
 11
18.546328435
 21
43.787027792
 31
0.0
  0
LINE
  5
16A
330
1F
100
AcDbEntity
  8
0
  6
Continuous
 62
     7
370
    25
100
AcDbLine
 10
3.2342983451
 20
45.7769335589
 30
0.0
 11
3.1879658798
 21
44.8593988367
 31
0.0
  0
LINE
  5
16B
330
1F
100
AcDbEntity
  8
0
  6
Continuous
 62
     7
370
    25
100
AcDbLine
 10
-78.4770023536
 20
-56.0
 30
0.0
 11
38.0
 21
-56.0
 31
0.0
  0
LINE
  5
16C
330
1F
100
AcDbEntity
  8
0
  6
Continuous
 62
     7
370
    25
100
AcDbLine
 10
-14.6023367022
 20
46.2750020133
 30
0.0
 11
-14.4063731606
 21
46.3426018397
 31
0.0
  0
LINE
  5
16D
330
1F
100
AcDbEntity
  8
0
  6
Continuous
 62
     7
370
    25
100
AcDbLine
 10
3.3679789006
 20
48.4072503992
 30
0.0
 11
3.2532870603
 21
46.1415168922
 31
0.0
  0
LINE
  5
16E
330
1F
100
AcDbEntity
  8
0
  6
Continuous
 62
     7
370
    25
100
AcDbLine
 10
20.5143188864
 20
40.7883298753
 30
0.0
 11
19.92718781
 21
40.3227265767
 31
0.0
  0
LINE
  5
16F
330
1F
100
AcDbEntity
  8
0
  6
Continuous
 62
     7
370
    25
100
AcDbLine
 10
20.3950697545
 20
40.8430173753
 30
0.0
 11
20.5143188864
 21
40.7883298753
 31
0.0
  0
LINE
  5
170
330
1F
100
AcDbEntity
  8
0
  6
Continuous
 62
     7
370
    25
100
AcDbLine
 10
-24.996049657
 20
40.5328154562
 30
0.0
 11
-25.1001078167
 21
40.5054717062
 31
0.0
  0
LINE
  5
171
330
1F
100
AcDbEntity
  8
0
  6
Continuous
 62
     7
370
    25
100
AcDbLine
 10
10.1328311258
 20
46.6714121543
 30
0.0
 11
10.0287729661
 21
46.7397715293
 31
0.0
  0
LINE
  5
172
330
1F
100
AcDbEntity
  8
0
  6
Continuous
 62
     7
370
    25
100
AcDbLine
 10
55.0
 20
-39.0
 30
0.0
 11
55.0
 21
0.0
 31
0.0
  0
LINE
  5
173
330
1F
100
AcDbEntity
  8
0
  6
Continuous
 62
     7
370
    25
100
AcDbLine
 10
-7.8827605332
 20
46.4431891125
 30
0.0
 11
-7.156632061
 21
47.9098774806
 31
0.0
  0
LINE
  5
174
330
1F
100
AcDbEntity
  8
0
  6
Continuous
 62
     7
370
    25
100
AcDbLine
 10
-31.3225589385
 20
35.5109363945
 30
0.0
 11
-30.6526370635
 21
35.6263877834
 31
0.0
  0
LINE
  5
175
330
1F
100
AcDbEntity
  8
0
  6
Continuous
 62
     7
370
    25
100
AcDbLine
 10
2.7573018173
 20
47.8960741839
 30
0.0
 11
0.9860344562
 21
46.2562087325
 31
0.0
  0
LINE
  5
176
330
1F
100
AcDbEntity
  8
0
  6
Continuous
 62
     7
370
    25
100
AcDbLine
 10
2.669953727
 20
46.1711392881
 30
0.0
 11
2.7573018173
 21
47.8960741839
 31
0.0
  0
LINE
  5
177
330
1F
100
AcDbEntity
  8
0
  6
Continuous
 62
     7
370
    25
100
AcDbLine
 10
0.9860344562
 20
46.2562087325
 30
0.0
 11
2.669953727
 21
46.1711392881
 31
0.0
  0
ARC
  5
178
330
1F
100
AcDbEntity
  8
0
  6
Continuous
 62
     7
370
    25
100
AcDbCircle
 10
-75.4770023536
 20
-5.0221624536
 30
0.0
 40
20.00000000000007
100
AcDbArc
 50
77.5211730939
 51
117.1340160174
  0
ARC
  5
179
330
1F
100
AcDbEntity
  8
0
  6
Continuous
 62
     7
370
    25
100
AcDbCircle
 10
-66.8338496118
 20
34.0328744902
 30
0.0
 40
19.99999999999999
100
AcDbArc
 50
257.5211730939
 51
333.0140715205
  0
ARC
  5
17A
330
1F
100
AcDbEntity
  8
0
  6
Continuous
 62
     7
370
    25
100
AcDbCircle
 10
0.0
 20
0.0
 30
0.0
 40
55.00000000000003
100
AcDbArc
 50
0.0
 51
153.0140715205
  0
ARC
  5
17B
330
1F
100
AcDbEntity
  8
0
  6
Continuous
 62
     7
370
    25
100
AcDbCircle
 10
-78.4770023536
 20
-39.0
 30
0.0
 40
16.99999999999997
100
AcDbArc
 50
180.0
 51
270.0
  0
ARC
  5
17C
330
1F
100
AcDbEntity
  8
0
  6
Continuous
 62
     7
370
    25
100
AcDbCircle
 10
-75.4770023536
 20
-5.0221624536
 30
0.0
 40
20.00000000000004
100
AcDbArc
 50
122.8659839826
 51
180.0
  0
ARC
  5
17D
330
1F
100
AcDbEntity
  8
0
  6
Continuous
 62
     7
370
    25
100
AcDbCircle
 10
38.0
 20
-39.0
 30
0.0
 40
16.99999999999996
100
AcDbArc
 50
270.0
 51
0.0
  0
ENDSEC
  0
SECTION
  2
OBJECTS
  0
DICTIONARY
  5
C
330
0
100
AcDbDictionary
281
     1
  3
ACAD_GROUP
350
D
  3
ACAD_LAYOUT
350
1A
  3
ACAD_MLINESTYLE
350
17
  3
ACAD_PLOTSETTINGS
350
19
  3
ACAD_PLOTSTYLENAME
350
E
  3
ACAD_SCALELIST
350
47
  0
DICTIONARY
  5
D
102
{ACAD_REACTORS
330
C
102
}
330
C
100
AcDbDictionary
281
     1
  0
DICTIONARY
  5
1A
102
{ACAD_REACTORS
330
C
102
}
330
C
100
AcDbDictionary
281
     1
  3
Layout1
350
1E
  3
Layout2
350
26
  3
Model
350
22
  0
DICTIONARY
  5
17
102
{ACAD_REACTORS
330
C
102
}
330
C
100
AcDbDictionary
281
     1
  3
Standard
350
18
  0
DICTIONARY
  5
19
102
{ACAD_REACTORS
330
C
102
}
330
C
100
AcDbDictionary
281
     1
  0
ACDBDICTIONARYWDFLT
  5
E
102
{ACAD_REACTORS
330
C
102
}
330
C
100
AcDbDictionary
281
     1
  3
Normal
350
F
100
AcDbDictionaryWithDefault
340
F
  0
DICTIONARY
  5
47
102
{ACAD_REACTORS
330
C
102
}
330
C
100
AcDbDictionary
281
     1
  3
A0
350
48
  3
A1
350
49
  3
A2
350
4A
  3
A3
350
4B
  3
A4
350
4C
  3
A5
350
4D
  3
A6
350
4E
  3
A7
350
4F
  3
A8
350
50
  3
A9
350
51
  3
B0
350
52
  3
B1
350
53
  3
B2
350
54
  3
B3
350
55
  3
B4
350
56
  3
B5
350
57
  3
B6
350
58
  3
B7
350
59
  3
B8
350
5A
  3
B9
350
5B
  3
C0
350
5C
  3
C1
350
5D
  3
C2
350
5E
  3
C3
350
5F
  3
C4
350
60
  3
C5
350
61
  3
C6
350
62
  3
C7
350
63
  3
C8
350
64
  3
C9
350
65
  3
D0
350
66
  3
D1
350
67
  3
D2
350
68
  0
LAYOUT
  5
1E
102
{ACAD_REACTORS
330
1A
102
}
330
1A
100
AcDbPlotSettings
  1

  2
none_device
  4

  6

 40
0.0
 41
0.0
 42
0.0
 43
0.0
 44
0.0
 45
0.0
 46
0.0
 47
0.0
 48
0.0
 49
0.0
140
0.0
141
0.0
142
1.0
143
1.0
 70
   688
 72
     1
 73
     0
 74
     5
  7

 75
    16
147
1.0
148
0.0
149
0.0
100
AcDbLayout
  1
Layout1
 70
     1
 71
     1
 10
0.0
 20
0.0
 11
420.0
 21
297.0
 12
0.0
 22
0.0
 32
0.0
 14
1.0000000000E+20
 24
1.0000000000E+20
 34
1.0000000000E+20
 15
-1.0000000000E+20
 25
-1.0000000000E+20
 35
-1.0000000000E+20
146
0.0
 13
0.0
 23
0.0
 33
0.0
 16
1.0
 26
0.0
 36
0.0
 17
0.0
 27
1.0
 37
0.0
 76
     0
330
1B
  0
LAYOUT
  5
26
102
{ACAD_REACTORS
330
1A
102
}
330
1A
100
AcDbPlotSettings
  1

  2
none_device
  4

  6

 40
0.0
 41
0.0
 42
0.0
 43
0.0
 44
0.0
 45
0.0
 46
0.0
 47
0.0
 48
0.0
 49
0.0
140
0.0
141
0.0
142
1.0
143
1.0
 70
   688
 72
     1
 73
     0
 74
     5
  7

 75
    16
147
1.0
148
0.0
149
0.0
100
AcDbLayout
  1
Layout2
 70
     1
 71
     2
 10
0.0
 20
0.0
 11
0.0
 21
0.0
 12
0.0
 22
0.0
 32
0.0
 14
0.0
 24
0.0
 34
0.0
 15
0.0
 25
0.0
 35
0.0
146
0.0
 13
0.0
 23
0.0
 33
0.0
 16
1.0
 26
0.0
 36
0.0
 17
0.0
 27
1.0
 37
0.0
 76
     0
330
23
  0
LAYOUT
  5
22
102
{ACAD_REACTORS
330
1A
102
}
330
1A
100
AcDbPlotSettings
  1

  2
none_device
  4
ANSI_A_(11.00_x_8.50_Inches)
  6

 40
6.35
 41
19.05
 42
6.35000508
 43
19.05000254
 44
279.4
 45
215.9
 46
170.5522992666
 47
89.8190959863
 48
0.0
 49
0.0
140
0.0
141
0.0
142
0.0723698627
143
1.0
 70
  1696
 72
     0
 73
     0
 74
     0
  7

 75
     0
147
0.0179189148
148
-1300.4909072572
149
0.0
100
AcDbLayout
  1
Model
 70
     1
 71
     0
 10
0.0
 20
0.0
 11
420.0
 21
297.0
 12
0.0
 22
0.0
 32
0.0
 14
-95.4770023536
 24
-56.0
 34
0.0
 15
55.0
 25
55.0
 35
0.0
146
0.0
 13
0.0
 23
0.0
 33
0.0
 16
1.0
 26
0.0
 36
0.0
 17
0.0
 27
1.0
 37
0.0
 76
     0
330
1F
331
29
  0
MLINESTYLE
  5
18
102
{ACAD_REACTORS
330
17
102
}
330
17
100
AcDbMlineStyle
  2
Standard
 70
     0
  3

 62
   256
 51
90.0
 52
90.0
 71
     2
 49
0.5
 62
   256
  6
BYLAYER
 49
-0.5
 62
   256
  6
BYLAYER
  0
ACDBPLACEHOLDER
  5
F
102
{ACAD_REACTORS
330
E
102
}
330
E
  0
SCALE
  5
48
102
{ACAD_REACTORS
330
47
102
}
330
47
100
AcDbScale
 70
     0
300
1:1
140
1.0
141
1.0
290
     1
  0
SCALE
  5
49
102
{ACAD_REACTORS
330
47
102
}
330
47
100
AcDbScale
 70
     0
300
1:2
140
1.0
141
2.0
290
     0
  0
SCALE
  5
4A
102
{ACAD_REACTORS
330
47
102
}
330
47
100
AcDbScale
 70
     0
300
1:4
140
1.0
141
4.0
290
     0
  0
SCALE
  5
4B
102
{ACAD_REACTORS
330
47
102
}
330
47
100
AcDbScale
 70
     0
300
1:5
140
1.0
141
5.0
290
     0
  0
SCALE
  5
4C
102
{ACAD_REACTORS
330
47
102
}
330
47
100
AcDbScale
 70
     0
300
1:8
140
1.0
141
8.0
290
     0
  0
SCALE
  5
4D
102
{ACAD_REACTORS
330
47
102
}
330
47
100
AcDbScale
 70
     0
300
1:10
140
1.0
141
10.0
290
     0
  0
SCALE
  5
4E
102
{ACAD_REACTORS
330
47
102
}
330
47
100
AcDbScale
 70
     0
300
1:16
140
1.0
141
16.0
290
     0
  0
SCALE
  5
4F
102
{ACAD_REACTORS
330
47
102
}
330
47
100
AcDbScale
 70
     0
300
1:20
140
1.0
141
20.0
290
     0
  0
SCALE
  5
50
102
{ACAD_REACTORS
330
47
102
}
330
47
100
AcDbScale
 70
     0
300
1:30
140
1.0
141
30.0
290
     0
  0
SCALE
  5
51
102
{ACAD_REACTORS
330
47
102
}
330
47
100
AcDbScale
 70
     0
300
1:40
140
1.0
141
40.0
290
     0
  0
SCALE
  5
52
102
{ACAD_REACTORS
330
47
102
}
330
47
100
AcDbScale
 70
     0
300
1:50
140
1.0
141
50.0
290
     0
  0
SCALE
  5
53
102
{ACAD_REACTORS
330
47
102
}
330
47
100
AcDbScale
 70
     0
300
1:100
140
1.0
141
100.0
290
     0
  0
SCALE
  5
54
102
{ACAD_REACTORS
330
47
102
}
330
47
100
AcDbScale
 70
     0
300
2:1
140
2.0
141
1.0
290
     0
  0
SCALE
  5
55
102
{ACAD_REACTORS
330
47
102
}
330
47
100
AcDbScale
 70
     0
300
4:1
140
4.0
141
1.0
290
     0
  0
SCALE
  5
56
102
{ACAD_REACTORS
330
47
102
}
330
47
100
AcDbScale
 70
     0
300
8:1
140
8.0
141
1.0
290
     0
  0
SCALE
  5
57
102
{ACAD_REACTORS
330
47
102
}
330
47
100
AcDbScale
 70
     0
300
10:1
140
10.0
141
1.0
290
     0
  0
SCALE
  5
58
102
{ACAD_REACTORS
330
47
102
}
330
47
100
AcDbScale
 70
     0
300
100:1
140
100.0
141
1.0
290
     0
  0
SCALE
  5
59
102
{ACAD_REACTORS
330
47
102
}
330
47
100
AcDbScale
 70
     0
300
1/128" = 1'-0"
140
0.0078125
141
12.0
290
     0
  0
SCALE
  5
5A
102
{ACAD_REACTORS
330
47
102
}
330
47
100
AcDbScale
 70
     0
300
1/64" = 1'-0"
140
0.015625
141
12.0
290
     0
  0
SCALE
  5
5B
102
{ACAD_REACTORS
330
47
102
}
330
47
100
AcDbScale
 70
     0
300
1/32" = 1'-0"
140
0.03125
141
12.0
290
     0
  0
SCALE
  5
5C
102
{ACAD_REACTORS
330
47
102
}
330
47
100
AcDbScale
 70
     0
300
1/16" = 1'-0"
140
0.0625
141
12.0
290
     0
  0
SCALE
  5
5D
102
{ACAD_REACTORS
330
47
102
}
330
47
100
AcDbScale
 70
     0
300
3/32" = 1'-0"
140
0.09375
141
12.0
290
     0
  0
SCALE
  5
5E
102
{ACAD_REACTORS
330
47
102
}
330
47
100
AcDbScale
 70
     0
300
1/8" = 1'-0"
140
0.125
141
12.0
290
     0
  0
SCALE
  5
5F
102
{ACAD_REACTORS
330
47
102
}
330
47
100
AcDbScale
 70
     0
300
3/16" = 1'-0"
140
0.1875
141
12.0
290
     0
  0
SCALE
  5
60
102
{ACAD_REACTORS
330
47
102
}
330
47
100
AcDbScale
 70
     0
300
1/4" = 1'-0"
140
0.25
141
12.0
290
     0
  0
SCALE
  5
61
102
{ACAD_REACTORS
330
47
102
}
330
47
100
AcDbScale
 70
     0
300
3/8" = 1'-0"
140
0.375
141
12.0
290
     0
  0
SCALE
  5
62
102
{ACAD_REACTORS
330
47
102
}
330
47
100
AcDbScale
 70
     0
300
1/2" = 1'-0"
140
0.5
141
12.0
290
     0
  0
SCALE
  5
63
102
{ACAD_REACTORS
330
47
102
}
330
47
100
AcDbScale
 70
     0
300
3/4" = 1'-0"
140
0.75
141
12.0
290
     0
  0
SCALE
  5
64
102
{ACAD_REACTORS
330
47
102
}
330
47
100
AcDbScale
 70
     0
300
1" = 1'-0"
140
1.0
141
12.0
290
     0
  0
SCALE
  5
65
102
{ACAD_REACTORS
330
47
102
}
330
47
100
AcDbScale
 70
     0
300
1-1/2" = 1'-0"
140
1.5
141
12.0
290
     0
  0
SCALE
  5
66
102
{ACAD_REACTORS
330
47
102
}
330
47
100
AcDbScale
 70
     0
300
3" = 1'-0"
140
3.0
141
12.0
290
     0
  0
SCALE
  5
67
102
{ACAD_REACTORS
330
47
102
}
330
47
100
AcDbScale
 70
     0
300
6" = 1'-0"
140
6.0
141
12.0
290
     0
  0
SCALE
  5
68
102
{ACAD_REACTORS
330
47
102
}
330
47
100
AcDbScale
 70
     0
300
1'-0" = 1'-0"
140
12.0
141
12.0
290
     0
  0
ENDSEC
  0
EOF
