  0
SECTION
  2
HEADER
  9
$ACADVER
  1
AC1014
  9
$HANDSEED
  5
FFFF
  9
$MEASUREMENT
 70
     1
  0
ENDSEC
  0
SECTION
  2
TABLES
  0
TABLE
  2
VPORT
  5
8
330
0
100
AcDbSymbolTable
 70
     4
  0
VPORT
  5
2E
330
8
100
AcDbSymbolTableRecord
100
AcDbViewportTableRecord
  2
*ACTIVE
 70
     0
 10
0.0
 20
0.0
 11
1.0
 21
1.0
 12
210.0
 22
148.5
 13
0.0
 23
0.0
 14
10.0
 24
10.0
 15
10.0
 25
10.0
 16
0.0
 26
0.0
 36
1.0
 17
0.0
 27
0.0
 37
0.0
 40
341.0
 41
1.24
 42
50.0
 43
0.0
 44
0.0
 50
0.0
 51
0.0
 71
     0
 72
   100
 73
     1
 74
     3
 75
     0
 76
     0
 77
     0
 78
     0
  0
ENDTAB
  0
TABLE
  2
LTYPE
  5
5
330
0
100
AcDbSymbolTable
 70
     1
  0
LTYPE
  5
14
330
5
100
AcDbSymbolTableRecord
100
AcDbLinetypeTableRecord
  2
BYBLOCK
 70
     0
  3

 72
    65
 73
     0
 40
0.0
  0
LTYPE
  5
15
330
5
100
AcDbSymbolTableRecord
100
AcDbLinetypeTableRecord
  2
BYLAYER
 70
     0
  3

 72
    65
 73
     0
 40
0.0
  0
LTYPE
  5
16
330
5
100
AcDbSymbolTableRecord
100
AcDbLinetypeTableRecord
  2
CONTINUOUS
 70
     0
  3
Solid line
 72
    65
 73
     0
 40
0.0
  0
ENDTAB
  0
TABLE
  2
LAYER
  5
2
100
AcDbSymbolTable
 70
2
  0
LAYER
  5
50
100
AcDbSymbolTableRecord
100
AcDbLayerTableRecord
  2
0
 70
0
  6
CONTINUOUS
  0
LAYER
  5
51
100
AcDbSymbolTableRecord
100
AcDbLayerTableRecord
  2
Calque_1
 70
0
  6
CONTINUOUS
  0
ENDTAB
  0
TABLE
  2
STYLE
  5
3
330
0
100
AcDbSymbolTable
 70
     1
  0
STYLE
  5
11
330
3
100
AcDbSymbolTableRecord
100
AcDbTextStyleTableRecord
  2
STANDARD
 70
     0
 40
0.0
 41
1.0
 50
0.0
 71
     0
 42
2.5
  3
txt
  4

  0
ENDTAB
  0
TABLE
  2
VIEW
  5
6
330
0
100
AcDbSymbolTable
 70
     0
  0
ENDTAB
  0
TABLE
  2
UCS
  5
7
330
0
100
AcDbSymbolTable
 70
     0
  0
ENDTAB
  0
TABLE
  2
APPID
  5
9
330
0
100
AcDbSymbolTable
 70
     2
  0
APPID
  5
12
330
9
100
AcDbSymbolTableRecord
100
AcDbRegAppTableRecord
  2
ACAD
 70
     0
  0
ENDTAB
  0
TABLE
  2
DIMSTYLE
  5
A
330
0
100
AcDbSymbolTable
 70
     1
  0
DIMSTYLE
105
27
330
A
100
AcDbSymbolTableRecord
100
AcDbDimStyleTableRecord
  2
ISO-25
 70
     0
  3

  4

  5

  6

  7

 40
1.0
 41
2.5
 42
0.625
 43
3.75
 44
1.25
 45
0.0
 46
0.0
 47
0.0
 48
0.0
140
2.5
141
2.5
142
0.0
143
0.03937007874016
144
1.0
145
0.0
146
1.0
147
0.625
 71
     0
 72
     0
 73
     0
 74
     0
 75
     0
 76
     0
 77
     1
 78
     8
170
     0
171
     3
172
     1
173
     0
174
     0
175
     0
176
     0
177
     0
178
     0
270
     2
271
     2
272
     2
273
     2
274
     3
340
11
275
     0
280
     0
281
     0
282
     0
283
     0
284
     8
285
     0
286
     0
287
     3
288
     0
  0
ENDTAB
  0
TABLE
  2
BLOCK_RECORD
  5
1
330
0
100
AcDbSymbolTable
 70
     1
  0
BLOCK_RECORD
  5
1F
330
1
100
AcDbSymbolTableRecord
100
AcDbBlockTableRecord
  2
*MODEL_SPACE
  0
BLOCK_RECORD
  5
1B
330
1
100
AcDbSymbolTableRecord
100
AcDbBlockTableRecord
  2
*PAPER_SPACE
  0
ENDTAB
  0
ENDSEC
  0
SECTION
  2
BLOCKS
  0
BLOCK
  5
20
330
1F
100
AcDbEntity
  8
0
100
AcDbBlockBegin
  2
*MODEL_SPACE
 70
     0
 10
0.0
 20
0.0
 30
0.0
  3
*MODEL_SPACE
  1

  0
ENDBLK
  5
21
330
1F
100
AcDbEntity
  8
0
100
AcDbBlockEnd
  0
BLOCK
  5
1C
330
1B
100
AcDbEntity
 67
     1
  8
0
100
AcDbBlockBegin
  2
*PAPER_SPACE
  1

  0
ENDBLK
  5
1D
330
1B
100
AcDbEntity
 67
     1
  8
0
100
AcDbBlockEnd
  0
ENDSEC
  0
SECTION
  2
ENTITIES
  0
SPLINE
  5
100
100
AcDbEntity
  8
Calque_1
 62
7
100
AcDbSpline
 70
8
 71
3
 72
8
 73
4
 74
0
 40
0
 40
0
 40
0
 40
0
 40
1
 40
1
 40
1
 40
1
 10
297.671079
 20
368.107544
 30
0.0
 10
293.528347
 20
368.107544
 30
0.0
 10
290.169999
 20
364.749196
 30
0.0
 10
290.169999
 20
360.606464
 30
0.0
  0
SPLINE
  5
101
100
AcDbEntity
  8
Calque_1
 62
7
100
AcDbSpline
 70
8
 71
3
 72
8
 73
4
 74
0
 40
0
 40
0
 40
0
 40
0
 40
1
 40
1
 40
1
 40
1
 10
669.700489
 20
347.841387
 30
0.0
 10
681.618042
 20
347.841387
 30
0.0
 10
691.878891
 20
356.253196
 30
0.0
 10
694.216216
 20
367.939299
 30
0.0
  0
LWPOLYLINE
  5
102
100
AcDbEntity
  8
Calque_1
 62
7
100
AcDbPolyline
 90
2
 70
0
 10
311.153200
 20
368.105995
 30
0.0
 10
297.671854
 20
368.105995
 30
0.0
  0
LWPOLYLINE
  5
103
100
AcDbEntity
  8
Calque_1
 62
7
100
AcDbPolyline
 90
2
 70
0
 10
460.039611
 20
347.839838
 30
0.0
 10
669.701263
 20
347.839838
 30
0.0
  0
LWPOLYLINE
  5
104
100
AcDbEntity
  8
Calque_1
 62
7
100
AcDbPolyline
 90
2
 70
0
 10
326.344300
 20
365.889820
 30
0.0
 10
326.365982
 20
352.832815
 30
0.0
  0
LWPOLYLINE
  5
105
100
AcDbEntity
  8
Calque_1
 62
7
100
AcDbPolyline
 90
2
 70
0
 10
336.365873
 20
352.851399
 30
0.0
 10
336.342643
 20
364.430954
 30
0.0
  0
LWPOLYLINE
  5
106
100
AcDbEntity
  8
Calque_1
 62
7
100
AcDbPolyline
 90
2
 70
0
 10
326.344300
 20
365.889820
 30
0.0
 10
311.153200
 20
368.105995
 30
0.0
  0
SPLINE
  5
107
100
AcDbEntity
  8
Calque_1
 62
7
100
AcDbSpline
 70
8
 71
3
 72
8
 73
4
 74
0
 40
0
 40
0
 40
0
 40
0
 40
1
 40
1
 40
1
 40
1
 10
326.365982
 20
352.833182
 30
0.0
 10
326.368894
 20
351.046589
 30
0.0
 10
327.324871
 20
349.397307
 30
0.0
 10
328.873705
 20
348.506779
 30
0.0
  0
SPLINE
  5
108
100
AcDbEntity
  8
Calque_1
 62
7
100
AcDbSpline
 70
8
 71
3
 72
8
 73
4
 74
0
 40
0
 40
0
 40
0
 40
0
 40
1
 40
1
 40
1
 40
1
 10
328.873705
 20
348.506779
 30
0.0
 10
330.422540
 20
347.616252
 30
0.0
 10
332.328848
 20
347.619816
 30
0.0
 10
333.874341
 20
348.516129
 30
0.0
  0
SPLINE
  5
109
100
AcDbEntity
  8
Calque_1
 62
7
100
AcDbSpline
 70
8
 71
3
 72
8
 73
4
 74
0
 40
0
 40
0
 40
0
 40
0
 40
1
 40
1
 40
1
 40
1
 10
333.874341
 20
348.516129
 30
0.0
 10
335.419834
 20
349.412442
 30
0.0
 10
336.369638
 20
351.065287
 30
0.0
 10
336.365869
 20
352.851879
 30
0.0
  0
LWPOLYLINE
  5
10a
100
AcDbEntity
  8
Calque_1
 62
7
100
AcDbPolyline
 90
2
 70
0
 10
349.226195
 20
362.550844
 30
0.0
 10
336.342643
 20
364.430954
 30
0.0
  0
LWPOLYLINE
  5
10b
100
AcDbEntity
  8
Calque_1
 62
7
100
AcDbPolyline
 90
2
 70
0
 10
349.226195
 20
362.550844
 30
0.0
 10
349.226195
 20
352.840558
 30
0.0
  0
SPLINE
  5
10c
100
AcDbEntity
  8
Calque_1
 62
7
100
AcDbSpline
 70
8
 71
3
 72
8
 73
4
 74
0
 40
0
 40
0
 40
0
 40
0
 40
1
 40
1
 40
1
 40
1
 10
349.226195
 20
352.841332
 30
0.0
 10
349.226195
 20
350.079938
 30
0.0
 10
351.464747
 20
347.841387
 30
0.0
 10
354.226141
 20
347.841387
 30
0.0
  0
SPLINE
  5
10d
100
AcDbEntity
  8
Calque_1
 62
7
100
AcDbSpline
 70
8
 71
3
 72
8
 73
4
 74
0
 40
0
 40
0
 40
0
 40
0
 40
1
 40
1
 40
1
 40
1
 10
354.226141
 20
347.841387
 30
0.0
 10
356.987535
 20
347.841387
 30
0.0
 10
359.226086
 20
350.079938
 30
0.0
 10
359.226086
 20
352.841332
 30
0.0
  0
LWPOLYLINE
  5
10e
100
AcDbEntity
  8
Calque_1
 62
7
100
AcDbPolyline
 90
3
 70
0
 10
359.227635
 20
352.840558
 30
0.0
 10
359.227635
 20
361.091978
 30
0.0
 10
376.915224
 20
358.510312
 30
0.0
  0
LWPOLYLINE
  5
10f
100
AcDbEntity
  8
Calque_1
 62
7
100
AcDbPolyline
 90
2
 70
0
 10
386.088114
 20
352.118868
 30
0.0
 10
386.809804
 20
357.066933
 30
0.0
  0
LWPOLYLINE
  5
110
100
AcDbEntity
  8
Calque_1
 62
7
100
AcDbPolyline
 90
2
 70
0
 10
376.915224
 20
358.510312
 30
0.0
 10
376.191985
 20
353.562248
 30
0.0
  0
SPLINE
  5
111
100
AcDbEntity
  8
Calque_1
 62
7
100
AcDbSpline
 70
8
 71
3
 72
8
 73
4
 74
0
 40
0
 40
0
 40
0
 40
0
 40
1
 40
1
 40
1
 40
1
 10
376.191679
 20
353.563124
 30
0.0
 10
375.793045
 20
350.830642
 30
0.0
 10
377.685001
 20
348.292371
 30
0.0
 10
380.417483
 20
347.893736
 30
0.0
  0
SPLINE
  5
112
100
AcDbEntity
  8
Calque_1
 62
7
100
AcDbSpline
 70
8
 71
3
 72
8
 73
4
 74
0
 40
0
 40
0
 40
0
 40
0
 40
1
 40
1
 40
1
 40
1
 10
380.417483
 20
347.893736
 30
0.0
 10
383.149965
 20
347.495101
 30
0.0
 10
385.688237
 20
349.387058
 30
0.0
 10
386.086872
 20
352.119540
 30
0.0
  0
LWPOLYLINE
  5
113
100
AcDbEntity
  8
Calque_1
 62
7
100
AcDbPolyline
 90
2
 70
0
 10
450.038171
 20
347.839838
 30
0.0
 10
386.809804
 20
357.066933
 30
0.0
  0
LWPOLYLINE
  5
114
100
AcDbEntity
  8
Calque_1
 62
7
100
AcDbPolyline
 90
4
 70
1
 10
820.206054
 20
380.842422
 30
0.0
 10
810.206163
 20
380.842422
 30
0.0
 10
810.206163
 20
420.845085
 30
0.0
 10
820.206054
 20
420.845085
 30
0.0
  0
LWPOLYLINE
  5
115
100
AcDbEntity
  8
Calque_1
 62
7
100
AcDbPolyline
 90
4
 70
0
 10
694.217026
 20
367.938737
 30
0.0
 10
710.199506
 20
447.848043
 30
0.0
 10
710.199506
 20
450.847856
 30
0.0
 10
890.211489
 20
450.847856
 30
0.0
  0
SPLINE
  5
116
100
AcDbEntity
  8
Calque_1
 62
7
100
AcDbSpline
 70
8
 71
3
 72
8
 73
4
 74
0
 40
0
 40
0
 40
0
 40
0
 40
1
 40
1
 40
1
 40
1
 10
450.038171
 20
347.840612
 30
0.0
 10
450.038171
 20
345.079218
 30
0.0
 10
452.276722
 20
342.840667
 30
0.0
 10
455.038116
 20
342.840667
 30
0.0
  0
SPLINE
  5
117
100
AcDbEntity
  8
Calque_1
 62
7
100
AcDbSpline
 70
8
 71
3
 72
8
 73
4
 74
0
 40
0
 40
0
 40
0
 40
0
 40
1
 40
1
 40
1
 40
1
 10
455.038116
 20
342.840667
 30
0.0
 10
457.799510
 20
342.840667
 30
0.0
 10
460.038062
 20
345.079218
 30
0.0
 10
460.038062
 20
347.840612
 30
0.0
  0
LWPOLYLINE
  5
118
100
AcDbEntity
  8
Calque_1
 62
7
100
AcDbPolyline
 90
4
 70
0
 10
290.171548
 20
360.605690
 30
0.0
 10
290.171548
 20
307.837175
 30
0.0
 10
890.211489
 20
307.837175
 30
0.0
 10
890.211489
 20
450.847856
 30
0.0
  0
SPLINE
  5
119
100
AcDbEntity
  8
Calque_1
 62
7
100
AcDbSpline
 70
8
 71
3
 72
8
 73
4
 74
0
 40
0
 40
0
 40
0
 40
0
 40
1
 40
1
 40
1
 40
1
 10
580.585112
 20
304.783458
 30
0.0
 10
570.919642
 20
304.770330
 30
0.0
 10
563.094874
 20
296.924278
 30
0.0
 10
563.108001
 20
287.258808
 30
0.0
  0
SPLINE
  5
11a
100
AcDbEntity
  8
Calque_1
 62
7
100
AcDbSpline
 70
8
 71
3
 72
8
 73
4
 74
0
 40
0
 40
0
 40
0
 40
0
 40
1
 40
1
 40
1
 40
1
 10
563.108001
 20
287.258808
 30
0.0
 10
563.121129
 20
277.593338
 30
0.0
 10
570.967181
 20
269.768570
 30
0.0
 10
580.632651
 20
269.781697
 30
0.0
  0
LWPOLYLINE
  5
11b
100
AcDbEntity
  8
Calque_1
 62
7
100
AcDbPolyline
 90
4
 70
1
 10
674.043015
 20
292.406089
 30
0.0
 10
709.045607
 20
292.452519
 30
0.0
 10
709.059304
 20
282.452329
 30
0.0
 10
674.056713
 20
282.405899
 30
0.0
  0
SPLINE
  5
11c
100
AcDbEntity
  8
Calque_1
 62
7
100
AcDbSpline
 70
8
 71
3
 72
8
 73
4
 74
0
 40
0
 40
0
 40
0
 40
0
 40
1
 40
1
 40
1
 40
1
 10
800.808605
 20
282.869960
 30
0.0
 10
803.408685
 20
281.939969
 30
0.0
 10
806.270372
 20
283.293844
 30
0.0
 10
807.200362
 20
285.893924
 30
0.0
  0
SPLINE
  5
11d
100
AcDbEntity
  8
Calque_1
 62
7
100
AcDbSpline
 70
8
 71
3
 72
8
 73
4
 74
0
 40
0
 40
0
 40
0
 40
0
 40
1
 40
1
 40
1
 40
1
 10
807.200362
 20
285.893924
 30
0.0
 10
808.130352
 20
288.494004
 30
0.0
 10
806.776477
 20
291.355690
 30
0.0
 10
804.176398
 20
292.285681
 30
0.0
  0
SPLINE
  5
11e
100
AcDbEntity
  8
Calque_1
 62
7
100
AcDbSpline
 70
8
 71
3
 72
8
 73
4
 74
0
 40
0
 40
0
 40
0
 40
0
 40
1
 40
1
 40
1
 40
1
 10
804.176398
 20
292.285681
 30
0.0
 10
801.576318
 20
293.215671
 30
0.0
 10
798.714631
 20
291.861796
 30
0.0
 10
797.784641
 20
289.261716
 30
0.0
  0
SPLINE
  5
11f
100
AcDbEntity
  8
Calque_1
 62
7
100
AcDbSpline
 70
8
 71
3
 72
8
 73
4
 74
0
 40
0
 40
0
 40
0
 40
0
 40
1
 40
1
 40
1
 40
1
 10
797.784641
 20
289.261716
 30
0.0
 10
796.854651
 20
286.661637
 30
0.0
 10
798.208525
 20
283.799950
 30
0.0
 10
800.808605
 20
282.869960
 30
0.0
  0
SPLINE
  5
120
100
AcDbEntity
  8
Calque_1
 62
7
100
AcDbSpline
 70
8
 71
3
 72
8
 73
4
 74
0
 40
0
 40
0
 40
0
 40
0
 40
1
 40
1
 40
1
 40
1
 10
578.924985
 20
282.574717
 30
0.0
 10
581.525065
 20
281.644727
 30
0.0
 10
584.386752
 20
282.998602
 30
0.0
 10
585.316742
 20
285.598681
 30
0.0
  0
SPLINE
  5
121
100
AcDbEntity
  8
Calque_1
 62
7
100
AcDbSpline
 70
8
 71
3
 72
8
 73
4
 74
0
 40
0
 40
0
 40
0
 40
0
 40
1
 40
1
 40
1
 40
1
 10
585.316742
 20
285.598681
 30
0.0
 10
586.246732
 20
288.198761
 30
0.0
 10
584.892857
 20
291.060448
 30
0.0
 10
582.292778
 20
291.990438
 30
0.0
  0
SPLINE
  5
122
100
AcDbEntity
  8
Calque_1
 62
7
100
AcDbSpline
 70
8
 71
3
 72
8
 73
4
 74
0
 40
0
 40
0
 40
0
 40
0
 40
1
 40
1
 40
1
 40
1
 10
582.292778
 20
291.990438
 30
0.0
 10
579.692698
 20
292.920428
 30
0.0
 10
576.831011
 20
291.566553
 30
0.0
 10
575.901021
 20
288.966474
 30
0.0
  0
SPLINE
  5
123
100
AcDbEntity
  8
Calque_1
 62
7
100
AcDbSpline
 70
8
 71
3
 72
8
 73
4
 74
0
 40
0
 40
0
 40
0
 40
0
 40
1
 40
1
 40
1
 40
1
 10
575.901021
 20
288.966474
 30
0.0
 10
574.971031
 20
286.366394
 30
0.0
 10
576.324905
 20
283.504707
 30
0.0
 10
578.924985
 20
282.574717
 30
0.0
  0
SPLINE
  5
124
100
AcDbEntity
  8
Calque_1
 62
7
100
AcDbSpline
 70
8
 71
3
 72
8
 73
4
 74
0
 40
0
 40
0
 40
0
 40
0
 40
1
 40
1
 40
1
 40
1
 10
802.516271
 20
270.076940
 30
0.0
 10
812.181741
 20
270.090068
 30
0.0
 10
820.006509
 20
277.936120
 30
0.0
 10
819.993381
 20
287.601590
 30
0.0
  0
SPLINE
  5
125
100
AcDbEntity
  8
Calque_1
 62
7
100
AcDbSpline
 70
8
 71
3
 72
8
 73
4
 74
0
 40
0
 40
0
 40
0
 40
0
 40
1
 40
1
 40
1
 40
1
 10
819.993381
 20
287.601590
 30
0.0
 10
819.980254
 20
297.267060
 30
0.0
 10
812.134201
 20
305.091828
 30
0.0
 10
802.468732
 20
305.078700
 30
0.0
  0
LWPOLYLINE
  5
126
100
AcDbEntity
  8
Calque_1
 62
7
100
AcDbPolyline
 90
2
 70
0
 10
802.470016
 20
305.078855
 30
0.0
 10
580.585874
 20
304.782154
 30
0.0
  0
LWPOLYLINE
  5
127
100
AcDbEntity
  8
Calque_1
 62
7
100
AcDbPolyline
 90
2
 70
0
 10
580.632304
 20
269.779563
 30
0.0
 10
802.516445
 20
270.076264
 30
0.0
  0
LWPOLYLINE
  5
128
100
AcDbEntity
  8
Calque_1
 62
7
100
AcDbPolyline
 90
2
 70
0
 10
104.054924
 20
234.729731
 30
0.0
 10
94.053484
 20
234.729731
 30
0.0
  0
LWPOLYLINE
  5
129
100
AcDbEntity
  8
Calque_1
 62
7
100
AcDbPolyline
 90
3
 70
0
 10
104.054924
 20
274.732393
 30
0.0
 10
94.053484
 20
274.732393
 30
0.0
 10
94.053484
 20
234.729731
 30
0.0
  0
LWPOLYLINE
  5
12a
100
AcDbEntity
  8
Calque_1
 62
7
100
AcDbPolyline
 90
2
 70
0
 10
104.054924
 20
234.729731
 30
0.0
 10
104.054924
 20
204.726959
 30
0.0
  0
LWPOLYLINE
  5
12b
100
AcDbEntity
  8
Calque_1
 62
7
100
AcDbPolyline
 90
2
 70
0
 10
104.054924
 20
304.735165
 30
0.0
 10
104.054924
 20
274.732393
 30
0.0
  0
LWPOLYLINE
  5
12c
100
AcDbEntity
  8
Calque_1
 62
7
100
AcDbPolyline
 90
2
 70
0
 10
554.084105
 20
234.729731
 30
0.0
 10
564.085545
 20
234.729731
 30
0.0
  0
LWPOLYLINE
  5
12d
100
AcDbEntity
  8
Calque_1
 62
7
100
AcDbPolyline
 90
3
 70
0
 10
554.084105
 20
274.732393
 30
0.0
 10
564.085545
 20
274.732393
 30
0.0
 10
564.085545
 20
234.729731
 30
0.0
  0
LWPOLYLINE
  5
12e
100
AcDbEntity
  8
Calque_1
 62
7
100
AcDbPolyline
 90
2
 70
0
 10
554.084105
 20
234.729731
 30
0.0
 10
554.084105
 20
204.726959
 30
0.0
  0
LWPOLYLINE
  5
12f
100
AcDbEntity
  8
Calque_1
 62
7
100
AcDbPolyline
 90
2
 70
0
 10
554.084105
 20
304.735165
 30
0.0
 10
554.084105
 20
274.732393
 30
0.0
  0
LWPOLYLINE
  5
130
100
AcDbEntity
  8
Calque_1
 62
7
100
AcDbPolyline
 90
2
 70
0
 10
104.054924
 20
204.726959
 30
0.0
 10
554.084105
 20
204.726959
 30
0.0
  0
SPLINE
  5
131
100
AcDbEntity
  8
Calque_1
 62
7
100
AcDbSpline
 70
8
 71
3
 72
8
 73
4
 74
0
 40
0
 40
0
 40
0
 40
0
 40
1
 40
1
 40
1
 40
1
 10
410.570100
 20
185.231275
 30
0.0
 10
410.570100
 20
168.660774
 30
0.0
 10
424.002451
 20
155.227729
 30
0.0
 10
440.572097
 20
155.227729
 30
0.0
  0
LWPOLYLINE
  5
132
100
AcDbEntity
  8
Calque_1
 62
7
100
AcDbPolyline
 90
2
 70
0
 10
104.054924
 20
304.735165
 30
0.0
 10
554.084105
 20
304.735165
 30
0.0
  0
SPLINE
  5
133
100
AcDbEntity
  8
Calque_1
 62
7
100
AcDbSpline
 70
8
 71
3
 72
8
 73
4
 74
0
 40
0
 40
0
 40
0
 40
0
 40
1
 40
1
 40
1
 40
1
 10
680.586525
 20
155.229278
 30
0.0
 10
697.157026
 20
155.229278
 30
0.0
 10
710.590070
 20
168.661629
 30
0.0
 10
710.590070
 20
185.231275
 30
0.0
  0
SPLINE
  5
134
100
AcDbEntity
  8
Calque_1
 62
7
100
AcDbSpline
 70
8
 71
3
 72
8
 73
4
 74
0
 40
0
 40
0
 40
0
 40
0
 40
1
 40
1
 40
1
 40
1
 10
560.580085
 20
180.229781
 30
0.0
 10
557.818691
 20
180.229781
 30
0.0
 10
555.580140
 20
177.991229
 30
0.0
 10
555.580140
 20
175.229835
 30
0.0
  0
SPLINE
  5
135
100
AcDbEntity
  8
Calque_1
 62
7
100
AcDbSpline
 70
8
 71
3
 72
8
 73
4
 74
0
 40
0
 40
0
 40
0
 40
0
 40
1
 40
1
 40
1
 40
1
 10
555.580140
 20
175.229835
 30
0.0
 10
555.580140
 20
172.468441
 30
0.0
 10
557.818691
 20
170.229889
 30
0.0
 10
560.580085
 20
170.229889
 30
0.0
  0
SPLINE
  5
136
100
AcDbEntity
  8
Calque_1
 62
7
100
AcDbSpline
 70
8
 71
3
 72
8
 73
4
 74
0
 40
0
 40
0
 40
0
 40
0
 40
1
 40
1
 40
1
 40
1
 10
560.580085
 20
170.229889
 30
0.0
 10
563.341479
 20
170.229889
 30
0.0
 10
565.580031
 20
172.468441
 30
0.0
 10
565.580031
 20
175.229835
 30
0.0
  0
SPLINE
  5
137
100
AcDbEntity
  8
Calque_1
 62
7
100
AcDbSpline
 70
8
 71
3
 72
8
 73
4
 74
0
 40
0
 40
0
 40
0
 40
0
 40
1
 40
1
 40
1
 40
1
 10
565.580031
 20
175.229835
 30
0.0
 10
565.580031
 20
177.991229
 30
0.0
 10
563.341479
 20
180.229781
 30
0.0
 10
560.580085
 20
180.229781
 30
0.0
  0
LWPOLYLINE
  5
138
100
AcDbEntity
  8
Calque_1
 62
7
100
AcDbPolyline
 90
2
 70
0
 10
440.572872
 20
155.226181
 30
0.0
 10
680.587299
 20
155.226181
 30
0.0
  0
LWPOLYLINE
  5
139
100
AcDbEntity
  8
Calque_1
 62
7
100
AcDbPolyline
 90
4
 70
0
 10
410.570100
 20
185.230501
 30
0.0
 10
410.570100
 20
198.231753
 30
0.0
 10
710.590070
 20
198.231753
 30
0.0
 10
710.590070
 20
185.230501
 30
0.0
  0
LWPOLYLINE
  5
13a
100
AcDbEntity
  8
Calque_1
 62
7
100
AcDbPolyline
 90
2
 70
0
 10
587.110689
 20
97.707989
 30
0.0
 10
577.109249
 20
97.707989
 30
0.0
  0
LWPOLYLINE
  5
13b
100
AcDbEntity
  8
Calque_1
 62
7
100
AcDbPolyline
 90
2
 70
0
 10
577.109249
 20
80.206243
 30
0.0
 10
107.078737
 20
80.206243
 30
0.0
  0
LWPOLYLINE
  5
13c
100
AcDbEntity
  8
Calque_1
 62
7
100
AcDbPolyline
 90
2
 70
0
 10
107.078737
 20
97.707989
 30
0.0
 10
97.077297
 20
97.707989
 30
0.0
  0
LWPOLYLINE
  5
13d
100
AcDbEntity
  8
Calque_1
 62
7
100
AcDbPolyline
 90
5
 70
0
 10
587.110689
 20
97.707989
 30
0.0
 10
587.110689
 20
97.794716
 30
0.0
 10
587.110689
 20
132.796658
 30
0.0
 10
577.109249
 20
132.796658
 30
0.0
 10
577.109249
 20
150.298404
 30
0.0
  0
LWPOLYLINE
  5
13e
100
AcDbEntity
  8
Calque_1
 62
7
100
AcDbPolyline
 90
4
 70
0
 10
577.109249
 20
80.206243
 30
0.0
 10
577.109249
 20
80.294519
 30
0.0
 10
577.109249
 20
97.794716
 30
0.0
 10
587.110689
 20
97.794716
 30
0.0
  0
LWPOLYLINE
  5
13f
100
AcDbEntity
  8
Calque_1
 62
7
100
AcDbPolyline
 90
3
 70
0
 10
107.078737
 20
80.206243
 30
0.0
 10
107.078737
 20
80.294519
 30
0.0
 10
577.109249
 20
80.294519
 30
0.0
  0
LWPOLYLINE
  5
140
100
AcDbEntity
  8
Calque_1
 62
7
100
AcDbPolyline
 90
4
 70
0
 10
97.077297
 20
97.707989
 30
0.0
 10
97.077297
 20
97.794716
 30
0.0
 10
107.078737
 20
97.794716
 30
0.0
 10
107.078737
 20
80.294519
 30
0.0
  0
LWPOLYLINE
  5
141
100
AcDbEntity
  8
Calque_1
 62
7
100
AcDbPolyline
 90
5
 70
0
 10
577.109249
 20
150.298404
 30
0.0
 10
107.078737
 20
150.298404
 30
0.0
 10
107.078737
 20
132.796658
 30
0.0
 10
97.077297
 20
132.796658
 30
0.0
 10
97.077297
 20
97.794716
 30
0.0
  0
SPLINE
  5
142
100
AcDbEntity
  8
Calque_1
 62
7
100
AcDbSpline
 70
8
 71
3
 72
8
 73
4
 74
0
 40
0
 40
0
 40
0
 40
0
 40
1
 40
1
 40
1
 40
1
 10
873.963407
 20
304.589588
 30
0.0
 10
857.393761
 20
304.589588
 30
0.0
 10
843.961410
 20
291.157237
 30
0.0
 10
843.961410
 20
274.587591
 30
0.0
  0
SPLINE
  5
143
100
AcDbEntity
  8
Calque_1
 62
7
100
AcDbSpline
 70
8
 71
3
 72
8
 73
4
 74
0
 40
0
 40
0
 40
0
 40
0
 40
1
 40
1
 40
1
 40
1
 10
683.346290
 20
390.723080
 30
0.0
 10
687.489022
 20
390.723080
 30
0.0
 10
690.847370
 20
394.081427
 30
0.0
 10
690.847370
 20
398.224160
 30
0.0
  0
LWPOLYLINE
  5
144
100
AcDbEntity
  8
Calque_1
 62
7
100
AcDbPolyline
 90
6
 70
0
 10
843.959862
 20
274.586816
 30
0.0
 10
843.959862
 20
262.037781
 30
0.0
 10
872.695805
 20
182.034005
 30
0.0
 10
886.963886
 20
182.034005
 30
0.0
 10
886.963886
 20
304.589588
 30
0.0
 10
873.962633
 20
304.589588
 30
0.0
  0
SPLINE
  5
145
100
AcDbEntity
  8
Calque_1
 62
7
100
AcDbSpline
 70
8
 71
3
 72
8
 73
4
 74
0
 40
0
 40
0
 40
0
 40
0
 40
1
 40
1
 40
1
 40
1
 10
311.316881
 20
410.989237
 30
0.0
 10
299.399328
 20
410.989237
 30
0.0
 10
289.138479
 20
402.577428
 30
0.0
 10
286.801154
 20
390.891325
 30
0.0
  0
LWPOLYLINE
  5
146
100
AcDbEntity
  8
Calque_1
 62
7
100
AcDbPolyline
 90
2
 70
0
 10
669.864170
 20
390.724628
 30
0.0
 10
683.345516
 20
390.724628
 30
0.0
  0
LWPOLYLINE
  5
147
100
AcDbEntity
  8
Calque_1
 62
7
100
AcDbPolyline
 90
2
 70
0
 10
520.977759
 20
410.990786
 30
0.0
 10
311.316107
 20
410.990786
 30
0.0
  0
LWPOLYLINE
  5
148
100
AcDbEntity
  8
Calque_1
 62
7
100
AcDbPolyline
 90
2
 70
0
 10
654.673069
 20
392.940804
 30
0.0
 10
654.651388
 20
405.997809
 30
0.0
  0
LWPOLYLINE
  5
149
100
AcDbEntity
  8
Calque_1
 62
7
100
AcDbPolyline
 90
2
 70
0
 10
644.651496
 20
405.979225
 30
0.0
 10
644.674727
 20
394.399670
 30
0.0
  0
LWPOLYLINE
  5
14a
100
AcDbEntity
  8
Calque_1
 62
7
100
AcDbPolyline
 90
2
 70
0
 10
654.673069
 20
392.940804
 30
0.0
 10
669.864170
 20
390.724628
 30
0.0
  0
SPLINE
  5
14b
100
AcDbEntity
  8
Calque_1
 62
7
100
AcDbSpline
 70
8
 71
3
 72
8
 73
4
 74
0
 40
0
 40
0
 40
0
 40
0
 40
1
 40
1
 40
1
 40
1
 10
654.651388
 20
405.997441
 30
0.0
 10
654.648476
 20
407.784035
 30
0.0
 10
653.692498
 20
409.433317
 30
0.0
 10
652.143664
 20
410.323845
 30
0.0
  0
SPLINE
  5
14c
100
AcDbEntity
  8
Calque_1
 62
7
100
AcDbSpline
 70
8
 71
3
 72
8
 73
4
 74
0
 40
0
 40
0
 40
0
 40
0
 40
1
 40
1
 40
1
 40
1
 10
652.143664
 20
410.323845
 30
0.0
 10
650.594830
 20
411.214372
 30
0.0
 10
648.688522
 20
411.210808
 30
0.0
 10
647.143029
 20
410.314495
 30
0.0
  0
SPLINE
  5
14d
100
AcDbEntity
  8
Calque_1
 62
7
100
AcDbSpline
 70
8
 71
3
 72
8
 73
4
 74
0
 40
0
 40
0
 40
0
 40
0
 40
1
 40
1
 40
1
 40
1
 10
647.143029
 20
410.314495
 30
0.0
 10
645.597536
 20
409.418182
 30
0.0
 10
644.647732
 20
407.765337
 30
0.0
 10
644.651501
 20
405.978744
 30
0.0
  0
LWPOLYLINE
  5
14e
100
AcDbEntity
  8
Calque_1
 62
7
100
AcDbPolyline
 90
2
 70
0
 10
631.791175
 20
396.279779
 30
0.0
 10
644.674727
 20
394.399670
 30
0.0
  0
LWPOLYLINE
  5
14f
100
AcDbEntity
  8
Calque_1
 62
7
100
AcDbPolyline
 90
2
 70
0
 10
631.791175
 20
396.279779
 30
0.0
 10
631.791175
 20
405.990066
 30
0.0
  0
SPLINE
  5
150
100
AcDbEntity
  8
Calque_1
 62
7
100
AcDbSpline
 70
8
 71
3
 72
8
 73
4
 74
0
 40
0
 40
0
 40
0
 40
0
 40
1
 40
1
 40
1
 40
1
 10
631.791175
 20
405.989291
 30
0.0
 10
631.791175
 20
408.750685
 30
0.0
 10
629.552623
 20
410.989237
 30
0.0
 10
626.791229
 20
410.989237
 30
0.0
  0
SPLINE
  5
151
100
AcDbEntity
  8
Calque_1
 62
7
100
AcDbSpline
 70
8
 71
3
 72
8
 73
4
 74
0
 40
0
 40
0
 40
0
 40
0
 40
1
 40
1
 40
1
 40
1
 10
626.791229
 20
410.989237
 30
0.0
 10
624.029835
 20
410.989237
 30
0.0
 10
621.791283
 20
408.750685
 30
0.0
 10
621.791283
 20
405.989291
 30
0.0
  0
LWPOLYLINE
  5
152
100
AcDbEntity
  8
Calque_1
 62
7
100
AcDbPolyline
 90
3
 70
0
 10
621.789735
 20
405.990066
 30
0.0
 10
621.789735
 20
397.738645
 30
0.0
 10
604.102146
 20
400.320311
 30
0.0
  0
LWPOLYLINE
  5
153
100
AcDbEntity
  8
Calque_1
 62
7
100
AcDbPolyline
 90
2
 70
0
 10
594.929255
 20
406.711755
 30
0.0
 10
594.207566
 20
401.763691
 30
0.0
  0
LWPOLYLINE
  5
154
100
AcDbEntity
  8
Calque_1
 62
7
100
AcDbPolyline
 90
2
 70
0
 10
604.102146
 20
400.320311
 30
0.0
 10
604.825384
 20
405.268376
 30
0.0
  0
SPLINE
  5
155
100
AcDbEntity
  8
Calque_1
 62
7
100
AcDbSpline
 70
8
 71
3
 72
8
 73
4
 74
0
 40
0
 40
0
 40
0
 40
0
 40
1
 40
1
 40
1
 40
1
 10
604.825690
 20
405.267499
 30
0.0
 10
605.224325
 20
407.999981
 30
0.0
 10
603.332368
 20
410.538253
 30
0.0
 10
600.599886
 20
410.936887
 30
0.0
  0
SPLINE
  5
156
100
AcDbEntity
  8
Calque_1
 62
7
100
AcDbSpline
 70
8
 71
3
 72
8
 73
4
 74
0
 40
0
 40
0
 40
0
 40
0
 40
1
 40
1
 40
1
 40
1
 10
600.599886
 20
410.936887
 30
0.0
 10
597.867404
 20
411.335522
 30
0.0
 10
595.329133
 20
409.443565
 30
0.0
 10
594.930498
 20
406.711083
 30
0.0
  0
LWPOLYLINE
  5
157
100
AcDbEntity
  8
Calque_1
 62
7
100
AcDbPolyline
 90
2
 70
0
 10
530.979199
 20
410.990786
 30
0.0
 10
594.207566
 20
401.763691
 30
0.0
  0
LWPOLYLINE
  5
158
100
AcDbEntity
  8
Calque_1
 62
7
100
AcDbPolyline
 90
4
 70
1
 10
160.811315
 20
377.988202
 30
0.0
 10
170.811207
 20
377.988202
 30
0.0
 10
170.811207
 20
337.985539
 30
0.0
 10
160.811315
 20
337.985539
 30
0.0
  0
LWPOLYLINE
  5
159
100
AcDbEntity
  8
Calque_1
 62
7
100
AcDbPolyline
 90
4
 70
0
 10
286.800344
 20
390.891887
 30
0.0
 10
270.817863
 20
310.982580
 30
0.0
 10
270.817863
 20
307.982768
 30
0.0
 10
90.805881
 20
307.982768
 30
0.0
  0
SPLINE
  5
15a
100
AcDbEntity
  8
Calque_1
 62
7
100
AcDbSpline
 70
8
 71
3
 72
8
 73
4
 74
0
 40
0
 40
0
 40
0
 40
0
 40
1
 40
1
 40
1
 40
1
 10
530.979199
 20
410.990011
 30
0.0
 10
530.979199
 20
413.751405
 30
0.0
 10
528.740647
 20
415.989957
 30
0.0
 10
525.979253
 20
415.989957
 30
0.0
  0
SPLINE
  5
15b
100
AcDbEntity
  8
Calque_1
 62
7
100
AcDbSpline
 70
8
 71
3
 72
8
 73
4
 74
0
 40
0
 40
0
 40
0
 40
0
 40
1
 40
1
 40
1
 40
1
 10
525.979253
 20
415.989957
 30
0.0
 10
523.217860
 20
415.989957
 30
0.0
 10
520.979308
 20
413.751405
 30
0.0
 10
520.979308
 20
410.990011
 30
0.0
  0
SPLINE
  5
15c
100
AcDbEntity
  8
Calque_1
 62
7
100
AcDbSpline
 70
8
 71
3
 72
8
 73
4
 74
0
 40
0
 40
0
 40
0
 40
0
 40
1
 40
1
 40
1
 40
1
 10
107.302527
 20
188.478878
 30
0.0
 10
107.302527
 20
171.908377
 30
0.0
 10
120.734878
 20
158.475332
 30
0.0
 10
137.304524
 20
158.475332
 30
0.0
  0
LWPOLYLINE
  5
15d
100
AcDbEntity
  8
Calque_1
 62
7
100
AcDbPolyline
 90
4
 70
0
 10
690.845822
 20
398.224934
 30
0.0
 10
690.845822
 20
450.993448
 30
0.0
 10
90.805881
 20
450.993448
 30
0.0
 10
90.805881
 20
307.982768
 30
0.0
  0
SPLINE
  5
15e
100
AcDbEntity
  8
Calque_1
 62
7
100
AcDbSpline
 70
8
 71
3
 72
8
 73
4
 74
0
 40
0
 40
0
 40
0
 40
0
 40
1
 40
1
 40
1
 40
1
 10
377.318952
 20
158.476881
 30
0.0
 10
393.889453
 20
158.476881
 30
0.0
 10
407.322497
 20
171.909232
 30
0.0
 10
407.322497
 20
188.478878
 30
0.0
  0
SPLINE
  5
15f
100
AcDbEntity
  8
Calque_1
 62
7
100
AcDbSpline
 70
8
 71
3
 72
8
 73
4
 74
0
 40
0
 40
0
 40
0
 40
0
 40
1
 40
1
 40
1
 40
1
 10
257.312512
 20
183.477384
 30
0.0
 10
254.551118
 20
183.477384
 30
0.0
 10
252.312567
 20
181.238832
 30
0.0
 10
252.312567
 20
178.477438
 30
0.0
  0
SPLINE
  5
160
100
AcDbEntity
  8
Calque_1
 62
7
100
AcDbSpline
 70
8
 71
3
 72
8
 73
4
 74
0
 40
0
 40
0
 40
0
 40
0
 40
1
 40
1
 40
1
 40
1
 10
252.312567
 20
178.477438
 30
0.0
 10
252.312567
 20
175.716044
 30
0.0
 10
254.551118
 20
173.477492
 30
0.0
 10
257.312512
 20
173.477492
 30
0.0
  0
SPLINE
  5
161
100
AcDbEntity
  8
Calque_1
 62
7
100
AcDbSpline
 70
8
 71
3
 72
8
 73
4
 74
0
 40
0
 40
0
 40
0
 40
0
 40
1
 40
1
 40
1
 40
1
 10
257.312512
 20
173.477492
 30
0.0
 10
260.073906
 20
173.477492
 30
0.0
 10
262.312458
 20
175.716044
 30
0.0
 10
262.312458
 20
178.477438
 30
0.0
  0
SPLINE
  5
162
100
AcDbEntity
  8
Calque_1
 62
7
100
AcDbSpline
 70
8
 71
3
 72
8
 73
4
 74
0
 40
0
 40
0
 40
0
 40
0
 40
1
 40
1
 40
1
 40
1
 10
262.312458
 20
178.477438
 30
0.0
 10
262.312458
 20
181.238832
 30
0.0
 10
260.073906
 20
183.477384
 30
0.0
 10
257.312512
 20
183.477384
 30
0.0
  0
LWPOLYLINE
  5
163
100
AcDbEntity
  8
Calque_1
 62
7
100
AcDbPolyline
 90
2
 70
0
 10
137.305298
 20
158.473784
 30
0.0
 10
377.319726
 20
158.473784
 30
0.0
  0
LWPOLYLINE
  5
164
100
AcDbEntity
  8
Calque_1
 62
7
100
AcDbPolyline
 90
4
 70
0
 10
107.302527
 20
188.478104
 30
0.0
 10
107.302527
 20
201.479356
 30
0.0
 10
407.322497
 20
201.479356
 30
0.0
 10
407.322497
 20
188.478104
 30
0.0
  0
SPLINE
  5
165
100
AcDbEntity
  8
Calque_1
 62
7
100
AcDbSpline
 70
8
 71
3
 72
8
 73
4
 74
0
 40
0
 40
0
 40
0
 40
0
 40
1
 40
1
 40
1
 40
1
 10
590.586564
 20
264.780780
 30
0.0
 10
580.921095
 20
264.767657
 30
0.0
 10
573.096323
 20
256.921608
 30
0.0
 10
573.109446
 20
247.256139
 30
0.0
  0
SPLINE
  5
166
100
AcDbEntity
  8
Calque_1
 62
7
100
AcDbSpline
 70
8
 71
3
 72
8
 73
4
 74
0
 40
0
 40
0
 40
0
 40
0
 40
1
 40
1
 40
1
 40
1
 10
573.109446
 20
247.256139
 30
0.0
 10
573.122569
 20
237.590669
 30
0.0
 10
580.968618
 20
229.765897
 30
0.0
 10
590.634088
 20
229.779020
 30
0.0
  0
LWPOLYLINE
  5
167
100
AcDbEntity
  8
Calque_1
 62
7
100
AcDbPolyline
 90
4
 70
1
 10
684.044462
 20
252.403370
 30
0.0
 10
719.047054
 20
252.449783
 30
0.0
 10
719.060747
 20
242.449593
 30
0.0
 10
684.058155
 20
242.403180
 30
0.0
  0
SPLINE
  5
168
100
AcDbEntity
  8
Calque_1
 62
7
100
AcDbSpline
 70
8
 71
3
 72
8
 73
4
 74
0
 40
0
 40
0
 40
0
 40
0
 40
1
 40
1
 40
1
 40
1
 10
810.810048
 20
242.867183
 30
0.0
 10
813.410127
 20
241.937191
 30
0.0
 10
816.271815
 20
243.291065
 30
0.0
 10
817.201806
 20
245.891144
 30
0.0
  0
SPLINE
  5
169
100
AcDbEntity
  8
Calque_1
 62
7
100
AcDbSpline
 70
8
 71
3
 72
8
 73
4
 74
0
 40
0
 40
0
 40
0
 40
0
 40
1
 40
1
 40
1
 40
1
 10
817.201806
 20
245.891144
 30
0.0
 10
818.131797
 20
248.491223
 30
0.0
 10
816.777924
 20
251.352911
 30
0.0
 10
814.177845
 20
252.282902
 30
0.0
  0
SPLINE
  5
16a
100
AcDbEntity
  8
Calque_1
 62
7
100
AcDbSpline
 70
8
 71
3
 72
8
 73
4
 74
0
 40
0
 40
0
 40
0
 40
0
 40
1
 40
1
 40
1
 40
1
 10
814.177845
 20
252.282902
 30
0.0
 10
811.577765
 20
253.212893
 30
0.0
 10
808.716078
 20
251.859020
 30
0.0
 10
807.786087
 20
249.258941
 30
0.0
  0
SPLINE
  5
16b
100
AcDbEntity
  8
Calque_1
 62
7
100
AcDbSpline
 70
8
 71
3
 72
8
 73
4
 74
0
 40
0
 40
0
 40
0
 40
0
 40
1
 40
1
 40
1
 40
1
 10
807.786087
 20
249.258941
 30
0.0
 10
806.856095
 20
246.658861
 30
0.0
 10
808.209969
 20
243.797174
 30
0.0
 10
810.810048
 20
242.867183
 30
0.0
  0
SPLINE
  5
16c
100
AcDbEntity
  8
Calque_1
 62
7
100
AcDbSpline
 70
8
 71
3
 72
8
 73
4
 74
0
 40
0
 40
0
 40
0
 40
0
 40
1
 40
1
 40
1
 40
1
 10
588.926428
 20
242.572041
 30
0.0
 10
591.526507
 20
241.642049
 30
0.0
 10
594.388194
 20
242.995923
 30
0.0
 10
595.318186
 20
245.596002
 30
0.0
  0
SPLINE
  5
16d
100
AcDbEntity
  8
Calque_1
 62
7
100
AcDbSpline
 70
8
 71
3
 72
8
 73
4
 74
0
 40
0
 40
0
 40
0
 40
0
 40
1
 40
1
 40
1
 40
1
 10
595.318186
 20
245.596002
 30
0.0
 10
596.248177
 20
248.196081
 30
0.0
 10
594.894304
 20
251.057769
 30
0.0
 10
592.294224
 20
251.987760
 30
0.0
  0
SPLINE
  5
16e
100
AcDbEntity
  8
Calque_1
 62
7
100
AcDbSpline
 70
8
 71
3
 72
8
 73
4
 74
0
 40
0
 40
0
 40
0
 40
0
 40
1
 40
1
 40
1
 40
1
 10
592.294224
 20
251.987760
 30
0.0
 10
589.694145
 20
252.917751
 30
0.0
 10
586.832458
 20
251.563878
 30
0.0
 10
585.902466
 20
248.963799
 30
0.0
  0
SPLINE
  5
16f
100
AcDbEntity
  8
Calque_1
 62
7
100
AcDbSpline
 70
8
 71
3
 72
8
 73
4
 74
0
 40
0
 40
0
 40
0
 40
0
 40
1
 40
1
 40
1
 40
1
 10
585.902466
 20
248.963799
 30
0.0
 10
584.972475
 20
246.363719
 30
0.0
 10
586.326348
 20
243.502032
 30
0.0
 10
588.926428
 20
242.572041
 30
0.0
  0
SPLINE
  5
170
100
AcDbEntity
  8
Calque_1
 62
7
100
AcDbSpline
 70
8
 71
3
 72
8
 73
4
 74
0
 40
0
 40
0
 40
0
 40
0
 40
1
 40
1
 40
1
 40
1
 10
812.517708
 20
230.074162
 30
0.0
 10
822.183178
 20
230.087285
 30
0.0
 10
830.007950
 20
237.933334
 30
0.0
 10
829.994826
 20
247.598804
 30
0.0
  0
SPLINE
  5
171
100
AcDbEntity
  8
Calque_1
 62
7
100
AcDbSpline
 70
8
 71
3
 72
8
 73
4
 74
0
 40
0
 40
0
 40
0
 40
0
 40
1
 40
1
 40
1
 40
1
 10
829.994826
 20
247.598804
 30
0.0
 10
829.981703
 20
257.264274
 30
0.0
 10
822.135654
 20
265.089046
 30
0.0
 10
812.470185
 20
265.075922
 30
0.0
  0
LWPOLYLINE
  5
172
100
AcDbEntity
  8
Calque_1
 62
7
100
AcDbPolyline
 90
2
 70
0
 10
812.471469
 20
265.076077
 30
0.0
 10
590.587327
 20
264.779477
 30
0.0
  0
LWPOLYLINE
  5
173
100
AcDbEntity
  8
Calque_1
 62
7
100
AcDbPolyline
 90
2
 70
0
 10
590.633740
 20
229.776886
 30
0.0
 10
812.517882
 20
230.073486
 30
0.0
  0
SPLINE
  5
174
100
AcDbEntity
  8
Calque_1
 62
7
100
AcDbSpline
 70
8
 71
3
 72
8
 73
4
 74
0
 40
0
 40
0
 40
0
 40
0
 40
1
 40
1
 40
1
 40
1
 10
849.778027
 20
184.950885
 30
0.0
 10
849.778027
 20
201.520531
 30
0.0
 10
836.345676
 20
214.952882
 30
0.0
 10
819.776030
 20
214.952882
 30
0.0
  0
LWPOLYLINE
  5
175
100
AcDbEntity
  8
Calque_1
 62
7
100
AcDbPolyline
 90
6
 70
0
 10
819.775255
 20
214.954431
 30
0.0
 10
807.226220
 20
214.954431
 30
0.0
 10
727.222444
 20
186.218488
 30
0.0
 10
727.222444
 20
171.950407
 30
0.0
 10
849.778027
 20
171.950407
 30
0.0
 10
849.778027
 20
184.951659
 30
0.0
  0
ENDSEC
  0
SECTION
  2
OBJECTS
  0
DICTIONARY
  5
C
330
0
100
AcDbDictionary
  3
ACAD_GROUP
350
D
  3
ACAD_MLINESTYLE
350
17
  0
DICTIONARY
  5
D
330
C
100
AcDbDictionary
  0
DICTIONARY
  5
1A
330
C
100
AcDbDictionary
  0
DICTIONARY
  5
17
330
C
100
AcDbDictionary
  3
STANDARD
350
18
  0
DICTIONARY
  5
19
330
C
100
AcDbDictionary
  0
ENDSEC
  0
EOF
