  0
SECTION
  2
HEADER
  9
$ACADVER
  1
AC1018
  9
$ACADMAINTVER
 70
     0
  9
$DWGCODEPAGE
  3
ANSI_1252
  9
$INSBASE
 10
0.0
 20
0.0
 30
0.0
  9
$EXTMIN
 10
1.000000000000000E+20
 20
1.000000000000000E+20
 30
1.000000000000000E+20
  9
$EXTMAX
 10
-1.000000000000000E+20
 20
-1.000000000000000E+20
 30
-1.000000000000000E+20
  9
$LIMMIN
 10
0.0
 20
0.0
  9
$LIMMAX
 10
12.0
 20
9.0
  9
$ORTHOMODE
 70
     0
  9
$REGENMODE
 70
     1
  9
$FILLMODE
 70
     1
  9
$QTEXTMODE
 70
     0
  9
$MIRRTEXT
 70
     1
  9
$LTSCALE
 40
1.0
  9
$ATTMODE
 70
     1
  9
$TEXTSIZE
 40
0.2
  9
$TRACEWID
 40
0.05
  9
$TEXTSTYLE
  7
Standard
  9
$CLAYER
  8
0
  9
$CELTYPE
  6
ByLayer
  9
$CECOLOR
 62
   256
  9
$CELTSCALE
 40
1.0
  9
$DISPSILH
 70
     0
  9
$DIMSCALE
 40
1.0
  9
$DIMASZ
 40
0.18
  9
$DIMEXO
 40
0.0625
  9
$DIMDLI
 40
0.38
  9
$DIMRND
 40
0.0
  9
$DIMDLE
 40
0.0
  9
$DIMEXE
 40
0.18
  9
$DIMTP
 40
0.0
  9
$DIMTM
 40
0.0
  9
$DIMTXT
 40
0.18
  9
$DIMCEN
 40
0.09
  9
$DIMTSZ
 40
0.0
  9
$DIMTOL
 70
     0
  9
$DIMLIM
 70
     0
  9
$DIMTIH
 70
     1
  9
$DIMTOH
 70
     1
  9
$DIMSE1
 70
     0
  9
$DIMSE2
 70
     0
  9
$DIMTAD
 70
     0
  9
$DIMZIN
 70
     0
  9
$DIMBLK
  1

  9
$DIMASO
 70
     1
  9
$DIMSHO
 70
     1
  9
$DIMPOST
  1

  9
$DIMAPOST
  1

  9
$DIMALT
 70
     0
  9
$DIMALTD
 70
     2
  9
$DIMALTF
 40
25.4
  9
$DIMLFAC
 40
1.0
  9
$DIMTOFL
 70
     0
  9
$DIMTVP
 40
0.0
  9
$DIMTIX
 70
     0
  9
$DIMSOXD
 70
     0
  9
$DIMSAH
 70
     0
  9
$DIMBLK1
  1

  9
$DIMBLK2
  1

  9
$DIMSTYLE
  2
Standard
  9
$DIMCLRD
 70
     0
  9
$DIMCLRE
 70
     0
  9
$DIMCLRT
 70
     0
  9
$DIMTFAC
 40
1.0
  9
$DIMGAP
 40
0.09
  9
$DIMJUST
 70
     0
  9
$DIMSD1
 70
     0
  9
$DIMSD2
 70
     0
  9
$DIMTOLJ
 70
     1
  9
$DIMTZIN
 70
     0
  9
$DIMALTZ
 70
     0
  9
$DIMALTTZ
 70
     0
  9
$DIMUPT
 70
     0
  9
$DIMDEC
 70
     4
  9
$DIMTDEC
 70
     4
  9
$DIMALTU
 70
     2
  9
$DIMALTTD
 70
     2
  9
$DIMTXSTY
  7
Standard
  9
$DIMAUNIT
 70
     0
  9
$DIMADEC
 70
     0
  9
$DIMALTRND
 40
0.0
  9
$DIMAZIN
 70
     0
  9
$DIMDSEP
 70
    46
  9
$DIMATFIT
 70
     3
  9
$DIMFRAC
 70
     0
  9
$DIMLDRBLK
  1

  9
$DIMLUNIT
 70
     2
  9
$DIMLWD
 70
    -2
  9
$DIMLWE
 70
    -2
  9
$DIMTMOVE
 70
     0
  9
$LUNITS
 70
     2
  9
$LUPREC
 70
     4
  9
$SKETCHINC
 40
0.1
  9
$FILLETRAD
 40
0.5
  9
$AUNITS
 70
     0
  9
$AUPREC
 70
     0
  9
$MENU
  1
.
  9
$ELEVATION
 40
0.0
  9
$PELEVATION
 40
0.0
  9
$THICKNESS
 40
0.0
  9
$LIMCHECK
 70
     0
  9
$CHAMFERA
 40
0.5
  9
$CHAMFERB
 40
0.5
  9
$CHAMFERC
 40
1.0
  9
$CHAMFERD
 40
0.0
  9
$SKPOLY
 70
     0
  9
$TDCREATE
 40
2458902.465822419
  9
$TDUCREATE
 40
2458902.424155752
  9
$TDUPDATE
 40
2458902.46582243
  9
$TDUUPDATE
 40
2458902.424155764
  9
$TDINDWG
 40
0.0000000116
  9
$TDUSRTIMER
 40
0.0000000116
  9
$USRTIMER
 70
     1
  9
$ANGBASE
 50
0.0
  9
$ANGDIR
 70
     0
  9
$PDMODE
 70
     0
  9
$PDSIZE
 40
0.0
  9
$PLINEWID
 40
0.0
  9
$SPLFRAME
 70
     0
  9
$SPLINETYPE
 70
     6
  9
$SPLINESEGS
 70
     8
  9
$HANDSEED
  5
85
  9
$SURFTAB1
 70
     6
  9
$SURFTAB2
 70
     6
  9
$SURFTYPE
 70
     6
  9
$SURFU
 70
     6
  9
$SURFV
 70
     6
  9
$UCSBASE
  2

  9
$UCSNAME
  2

  9
$UCSORG
 10
0.0
 20
0.0
 30
0.0
  9
$UCSXDIR
 10
1.0
 20
0.0
 30
0.0
  9
$UCSYDIR
 10
0.0
 20
1.0
 30
0.0
  9
$UCSORTHOREF
  2

  9
$UCSORTHOVIEW
 70
     0
  9
$UCSORGTOP
 10
0.0
 20
0.0
 30
0.0
  9
$UCSORGBOTTOM
 10
0.0
 20
0.0
 30
0.0
  9
$UCSORGLEFT
 10
0.0
 20
0.0
 30
0.0
  9
$UCSORGRIGHT
 10
0.0
 20
0.0
 30
0.0
  9
$UCSORGFRONT
 10
0.0
 20
0.0
 30
0.0
  9
$UCSORGBACK
 10
0.0
 20
0.0
 30
0.0
  9
$PUCSBASE
  2

  9
$PUCSNAME
  2

  9
$PUCSORG
 10
0.0
 20
0.0
 30
0.0
  9
$PUCSXDIR
 10
1.0
 20
0.0
 30
0.0
  9
$PUCSYDIR
 10
0.0
 20
1.0
 30
0.0
  9
$PUCSORTHOREF
  2

  9
$PUCSORTHOVIEW
 70
     0
  9
$PUCSORGTOP
 10
0.0
 20
0.0
 30
0.0
  9
$PUCSORGBOTTOM
 10
0.0
 20
0.0
 30
0.0
  9
$PUCSORGLEFT
 10
0.0
 20
0.0
 30
0.0
  9
$PUCSORGRIGHT
 10
0.0
 20
0.0
 30
0.0
  9
$PUCSORGFRONT
 10
0.0
 20
0.0
 30
0.0
  9
$PUCSORGBACK
 10
0.0
 20
0.0
 30
0.0
  9
$USERI1
 70
     0
  9
$USERI2
 70
     0
  9
$USERI3
 70
     0
  9
$USERI4
 70
     0
  9
$USERI5
 70
     0
  9
$USERR1
 40
0.0
  9
$USERR2
 40
0.0
  9
$USERR3
 40
0.0
  9
$USERR4
 40
0.0
  9
$USERR5
 40
0.0
  9
$WORLDVIEW
 70
     1
  9
$SHADEDGE
 70
     3
  9
$SHADEDIF
 70
    70
  9
$TILEMODE
 70
     1
  9
$MAXACTVP
 70
    64
  9
$PINSBASE
 10
0.0
 20
0.0
 30
0.0
  9
$PLIMCHECK
 70
     0
  9
$PEXTMIN
 10
1.000000000000000E+20
 20
1.000000000000000E+20
 30
1.000000000000000E+20
  9
$PEXTMAX
 10
-1.000000000000000E+20
 20
-1.000000000000000E+20
 30
-1.000000000000000E+20
  9
$PLIMMIN
 10
0.0
 20
0.0
  9
$PLIMMAX
 10
12.0
 20
9.0
  9
$UNITMODE
 70
     0
  9
$VISRETAIN
 70
     1
  9
$PLINEGEN
 70
     0
  9
$PSLTSCALE
 70
     1
  9
$TREEDEPTH
 70
  3020
  9
$CMLSTYLE
  2
Standard
  9
$CMLJUST
 70
     0
  9
$CMLSCALE
 40
1.0
  9
$PROXYGRAPHICS
 70
     1
  9
$MEASUREMENT
 70
     0
  9
$CELWEIGHT
370
    -1
  9
$ENDCAPS
280
     0
  9
$JOINSTYLE
280
     0
  9
$LWDISPLAY
290
     1
  9
$INSUNITS
 70
     1
  9
$HYPERLINKBASE
  1

  9
$STYLESHEET
  1

  9
$XEDIT
290
     1
  9
$CEPSNTYPE
380
     0
  9
$PSTYLEMODE
290
     1
  9
$FINGERPRINTGUID
  2
{84D771FC-4854-45BB-8176-0050FFB61D75}
  9
$VERSIONGUID
  2
{FAEB1C32-E019-11D5-929B-00C0DF256EC4}
  9
$EXTNAMES
290
     1
  9
$PSVPSCALE
 40
0.0
  9
$OLESTARTUP
290
     0
  9
$SORTENTS
280
   127
  9
$INDEXCTL
280
     0
  9
$HIDETEXT
280
     1
  9
$XCLIPFRAME
290
     0
  9
$HALOGAP
280
     0
  9
$OBSCOLOR
 70
   257
  9
$OBSLTYPE
280
     0
  9
$INTERSECTIONDISPLAY
280
     0
  9
$INTERSECTIONCOLOR
 70
   257
  9
$DIMASSOC
280
     2
  9
$PROJECTNAME
  1

  0
ENDSEC
  0
SECTION
  2
CLASSES
  0
CLASS
  1
ACDBDICTIONARYWDFLT
  2
AcDbDictionaryWithDefault
  3
ObjectDBX Classes
 90
        0
 91
        3
280
     0
281
     0
  0
CLASS
  1
VISUALSTYLE
  2
AcDbVisualStyle
  3
ObjectDBX Classes
 90
     4095
 91
        3
280
     0
281
     0
  0
ENDSEC
  0
SECTION
  2
TABLES
  0
TABLE
  2
VPORT
  5
8
330
0
100
AcDbSymbolTable
 70
     1
  0
VPORT
  5
29
330
8
100
AcDbSymbolTableRecord
100
AcDbViewportTableRecord
  2
*Active
 70
     0
 10
0.0
 20
0.0
 11
1.0
 21
1.0
 12
0.0
 22
0.0
 13
0.0
 23
0.0
 14
0.5
 24
0.5
 15
0.5
 25
0.5
 16
0.0
 26
0.0
 36
1.0
 17
148.3431416458569
 27
210.0791666141469
 37
0.0
 40
419.9998588359722
 41
0.7071434078895995
 42
50.0
 43
0.0
 44
0.0
 50
0.0
 51
0.0
 71
     0
 72
   100
 73
     1
 74
     3
 75
     0
 76
     0
 77
     0
 78
     0
281
     0
 65
     1
110
0.0
120
0.0
130
0.0
111
1.0
121
0.0
131
0.0
112
0.0
122
1.0
132
0.0
 79
     0
146
0.0
  0
ENDTAB
  0
TABLE
  2
LTYPE
  5
5
330
0
100
AcDbSymbolTable
 70
     1
  0
LTYPE
  5
14
330
5
100
AcDbSymbolTableRecord
100
AcDbLinetypeTableRecord
  2
ByBlock
 70
     0
  3

 72
    65
 73
     0
 40
0.0
  0
LTYPE
  5
15
330
5
100
AcDbSymbolTableRecord
100
AcDbLinetypeTableRecord
  2
ByLayer
 70
     0
  3

 72
    65
 73
     0
 40
0.0
  0
LTYPE
  5
16
330
5
100
AcDbSymbolTableRecord
100
AcDbLinetypeTableRecord
  2
Continuous
 70
     0
  3
Solid line
 72
    65
 73
     0
 40
0.0
  0
ENDTAB
  0
TABLE
  2
LAYER
  5
2
330
0
100
AcDbSymbolTable
 70
     2
  0
LAYER
  5
10
330
2
100
AcDbSymbolTableRecord
100
AcDbLayerTableRecord
  2
0
 70
     0
 62
     7
  6
Continuous
370
    -3
390
F
  0
LAYER
  5
3B
330
2
100
AcDbSymbolTableRecord
100
AcDbLayerTableRecord
  2
Calque 1
 70
     0
 62
     7
  6
Continuous
370
    -3
390
F
  0
ENDTAB
  0
TABLE
  2
STYLE
  5
3
330
0
100
AcDbSymbolTable
 70
     1
  0
STYLE
  5
11
330
3
100
AcDbSymbolTableRecord
100
AcDbTextStyleTableRecord
  2
Standard
 70
     0
 40
0.0
 41
1.0
 50
0.0
 71
     0
 42
0.2
  3
txt
  4

  0
ENDTAB
  0
TABLE
  2
VIEW
  5
6
330
0
100
AcDbSymbolTable
 70
     0
  0
ENDTAB
  0
TABLE
  2
UCS
  5
7
330
0
100
AcDbSymbolTable
 70
     0
  0
ENDTAB
  0
TABLE
  2
APPID
  5
9
330
0
100
AcDbSymbolTable
 70
     1
  0
APPID
  5
12
330
9
100
AcDbSymbolTableRecord
100
AcDbRegAppTableRecord
  2
ACAD
 70
     0
  0
ENDTAB
  0
TABLE
  2
DIMSTYLE
  5
A
330
0
100
AcDbSymbolTable
 70
     1
100
AcDbDimStyleTable
  0
DIMSTYLE
105
27
330
A
100
AcDbSymbolTableRecord
100
AcDbDimStyleTableRecord
  2
Standard
 70
     0
340
11
  0
ENDTAB
  0
TABLE
  2
BLOCK_RECORD
  5
1
330
0
100
AcDbSymbolTable
 70
     4
  0
BLOCK_RECORD
  5
1F
330
1
100
AcDbSymbolTableRecord
100
AcDbBlockTableRecord
  2
*Model_Space
340
22
  0
BLOCK_RECORD
  5
1B
330
1
100
AcDbSymbolTableRecord
100
AcDbBlockTableRecord
  2
*Paper_Space
340
1E
  0
BLOCK_RECORD
  5
23
330
1
100
AcDbSymbolTableRecord
100
AcDbBlockTableRecord
  2
*Paper_Space0
340
26
  0
BLOCK_RECORD
  5
47
330
1
100
AcDbSymbolTableRecord
100
AcDbBlockTableRecord
  2
block 2
340
0
102
{BLKREFS
331
48
102
}
  0
BLOCK_RECORD
  5
4C
330
1
100
AcDbSymbolTableRecord
100
AcDbBlockTableRecord
  2
block 3
340
0
102
{BLKREFS
331
4D
102
}
  0
BLOCK_RECORD
  5
60
330
1
100
AcDbSymbolTableRecord
100
AcDbBlockTableRecord
  2
block 4
340
0
102
{BLKREFS
331
61
102
}
  0
ENDTAB
  0
ENDSEC
  0
SECTION
  2
BLOCKS
  0
BLOCK
  5
20
330
1F
100
AcDbEntity
  8
0
100
AcDbBlockBegin
  2
*Model_Space
 70
     0
 71
     0
 10
0.0
 20
0.0
 30
0.0
  3
*Model_Space
  1

  0
ENDBLK
  5
21
330
1F
100
AcDbEntity
  8
0
100
AcDbBlockEnd
  0
BLOCK
  5
1C
330
1B
100
AcDbEntity
 67
     1
  8
0
100
AcDbBlockBegin
  2
*Paper_Space
 70
     0
 71
     0
 10
0.0
 20
0.0
 30
0.0
  3
*Paper_Space
  1

  0
ENDBLK
  5
1D
330
1B
100
AcDbEntity
 67
     1
  8
0
100
AcDbBlockEnd
  0
BLOCK
  5
24
330
23
100
AcDbEntity
  8
0
100
AcDbBlockBegin
  2
*Paper_Space0
 70
     0
 71
     0
 10
0.0
 20
0.0
 30
0.0
  3
*Paper_Space0
  1

  0
ENDBLK
  5
25
330
23
100
AcDbEntity
  8
0
100
AcDbBlockEnd
  0
BLOCK
  5
49
330
47
100
AcDbEntity
  8
0
100
AcDbBlockBegin
  2
block 2
 70
     0
 71
     0
 10
0.0
 20
0.0
 30
0.0
  3
block 2
  1

  0
SPLINE
  5
4B
330
47
100
AcDbEntity
  8
Calque 1
 62
    18
420
    65793
370
     9
100
AcDbSpline
210
0.0
220
0.0
230
1.0
 70
    11
 71
     3
 72
   410
 73
   406
 74
     0
 42
0.0000000001
 43
0.0000000001
 40
0.0
 40
0.0
 40
0.0
 40
0.0
 40
1.0
 40
1.0
 40
1.0
 40
2.0
 40
2.0
 40
2.0
 40
3.0
 40
3.0
 40
3.0
 40
4.0
 40
4.0
 40
4.0
 40
5.0
 40
5.0
 40
5.0
 40
6.0
 40
6.0
 40
6.0
 40
7.0
 40
7.0
 40
7.0
 40
8.0
 40
8.0
 40
8.0
 40
9.0
 40
9.0
 40
9.0
 40
10.0
 40
10.0
 40
10.0
 40
11.0
 40
11.0
 40
11.0
 40
12.0
 40
12.0
 40
12.0
 40
13.0
 40
13.0
 40
13.0
 40
14.0
 40
14.0
 40
14.0
 40
15.0
 40
15.0
 40
15.0
 40
16.0
 40
16.0
 40
16.0
 40
17.0
 40
17.0
 40
17.0
 40
18.0
 40
18.0
 40
18.0
 40
19.0
 40
19.0
 40
19.0
 40
20.0
 40
20.0
 40
20.0
 40
21.0
 40
21.0
 40
21.0
 40
22.0
 40
22.0
 40
22.0
 40
23.0
 40
23.0
 40
23.0
 40
24.0
 40
24.0
 40
24.0
 40
25.0
 40
25.0
 40
25.0
 40
26.0
 40
26.0
 40
26.0
 40
27.0
 40
27.0
 40
27.0
 40
28.0
 40
28.0
 40
28.0
 40
29.0
 40
29.0
 40
29.0
 40
30.0
 40
30.0
 40
30.0
 40
31.0
 40
31.0
 40
31.0
 40
32.0
 40
32.0
 40
32.0
 40
33.0
 40
33.0
 40
33.0
 40
34.0
 40
34.0
 40
34.0
 40
35.0
 40
35.0
 40
35.0
 40
36.0
 40
36.0
 40
36.0
 40
37.0
 40
37.0
 40
37.0
 40
38.0
 40
38.0
 40
38.0
 40
39.0
 40
39.0
 40
39.0
 40
40.0
 40
40.0
 40
40.0
 40
41.0
 40
41.0
 40
41.0
 40
42.0
 40
42.0
 40
42.0
 40
43.0
 40
43.0
 40
43.0
 40
44.0
 40
44.0
 40
44.0
 40
45.0
 40
45.0
 40
45.0
 40
46.0
 40
46.0
 40
46.0
 40
47.0
 40
47.0
 40
47.0
 40
48.0
 40
48.0
 40
48.0
 40
49.0
 40
49.0
 40
49.0
 40
50.0
 40
50.0
 40
50.0
 40
51.0
 40
51.0
 40
51.0
 40
52.0
 40
52.0
 40
52.0
 40
53.0
 40
53.0
 40
53.0
 40
54.0
 40
54.0
 40
54.0
 40
55.0
 40
55.0
 40
55.0
 40
56.0
 40
56.0
 40
56.0
 40
57.0
 40
57.0
 40
57.0
 40
58.0
 40
58.0
 40
58.0
 40
59.0
 40
59.0
 40
59.0
 40
60.0
 40
60.0
 40
60.0
 40
61.0
 40
61.0
 40
61.0
 40
62.0
 40
62.0
 40
62.0
 40
63.0
 40
63.0
 40
63.0
 40
64.0
 40
64.0
 40
64.0
 40
65.0
 40
65.0
 40
65.0
 40
66.0
 40
66.0
 40
66.0
 40
67.0
 40
67.0
 40
67.0
 40
68.0
 40
68.0
 40
68.0
 40
69.0
 40
69.0
 40
69.0
 40
70.0
 40
70.0
 40
70.0
 40
71.0
 40
71.0
 40
71.0
 40
72.0
 40
72.0
 40
72.0
 40
73.0
 40
73.0
 40
73.0
 40
74.0
 40
74.0
 40
74.0
 40
75.0
 40
75.0
 40
75.0
 40
76.0
 40
76.0
 40
76.0
 40
77.0
 40
77.0
 40
77.0
 40
78.0
 40
78.0
 40
78.0
 40
79.0
 40
79.0
 40
79.0
 40
80.0
 40
80.0
 40
80.0
 40
81.0
 40
81.0
 40
81.0
 40
82.0
 40
82.0
 40
82.0
 40
83.0
 40
83.0
 40
83.0
 40
84.0
 40
84.0
 40
84.0
 40
85.0
 40
85.0
 40
85.0
 40
86.0
 40
86.0
 40
86.0
 40
87.0
 40
87.0
 40
87.0
 40
88.0
 40
88.0
 40
88.0
 40
89.0
 40
89.0
 40
89.0
 40
90.0
 40
90.0
 40
90.0
 40
91.0
 40
91.0
 40
91.0
 40
92.0
 40
92.0
 40
92.0
 40
93.0
 40
93.0
 40
93.0
 40
94.0
 40
94.0
 40
94.0
 40
95.0
 40
95.0
 40
95.0
 40
96.0
 40
96.0
 40
96.0
 40
97.0
 40
97.0
 40
97.0
 40
98.0
 40
98.0
 40
98.0
 40
99.0
 40
99.0
 40
99.0
 40
100.0
 40
100.0
 40
100.0
 40
101.0
 40
101.0
 40
101.0
 40
102.0
 40
102.0
 40
102.0
 40
103.0
 40
103.0
 40
103.0
 40
104.0
 40
104.0
 40
104.0
 40
105.0
 40
105.0
 40
105.0
 40
106.0
 40
106.0
 40
106.0
 40
107.0
 40
107.0
 40
107.0
 40
108.0
 40
108.0
 40
108.0
 40
109.0
 40
109.0
 40
109.0
 40
110.0
 40
110.0
 40
110.0
 40
111.0
 40
111.0
 40
111.0
 40
112.0
 40
112.0
 40
112.0
 40
113.0
 40
113.0
 40
113.0
 40
114.0
 40
114.0
 40
114.0
 40
115.0
 40
115.0
 40
115.0
 40
116.0
 40
116.0
 40
116.0
 40
117.0
 40
117.0
 40
117.0
 40
118.0
 40
118.0
 40
118.0
 40
119.0
 40
119.0
 40
119.0
 40
120.0
 40
120.0
 40
120.0
 40
121.0
 40
121.0
 40
121.0
 40
122.0
 40
122.0
 40
122.0
 40
123.0
 40
123.0
 40
123.0
 40
124.0
 40
124.0
 40
124.0
 40
125.0
 40
125.0
 40
125.0
 40
126.0
 40
126.0
 40
126.0
 40
127.0
 40
127.0
 40
127.0
 40
128.0
 40
128.0
 40
128.0
 40
129.0
 40
129.0
 40
129.0
 40
130.0
 40
130.0
 40
130.0
 40
131.0
 40
131.0
 40
131.0
 40
132.0
 40
132.0
 40
132.0
 40
133.0
 40
133.0
 40
133.0
 40
134.0
 40
134.0
 40
134.0
 40
135.0
 40
135.0
 40
135.0
 40
135.0
 10
30.40107285481293
 20
63.32154403798906
 30
0.0
 10
30.40107285481293
 20
63.32154403798906
 30
0.0
 10
36.40105115192404
 20
63.32154403798906
 30
0.0
 10
36.40105115192404
 20
63.32154403798906
 30
0.0
 10
36.45582817013952
 20
63.32154403798906
 30
0.0
 10
36.50268146873891
 20
63.36495224110321
 30
0.0
 10
36.50268146873891
 20
63.42351886435246
 30
0.0
 10
36.50268146873891
 20
63.42351886435246
 30
0.0
 10
36.50268146873891
 20
66.42350801290802
 30
0.0
 10
36.50268146873891
 20
66.42350801290802
 30
0.0
 10
36.50268146873891
 20
66.36838648514401
 30
0.0
 10
36.45961777517329
 20
66.32153318654461
 30
0.0
 10
36.40105115192404
 20
66.32153318654461
 30
0.0
 10
36.40105115192404
 20
66.32153318654461
 30
0.0
 10
42.40120170380943
 20
66.32153318654461
 30
0.0
 10
42.40120170380943
 20
66.32153318654461
 30
0.0
 10
42.34676919514248
 20
66.32153318654461
 30
0.0
 10
42.29991589654308
 20
66.36494138965877
 30
0.0
 10
42.29991589654308
 20
66.42350801290802
 30
0.0
 10
42.29991589654308
 20
66.42350801290802
 30
0.0
 10
42.29991589654308
 20
63.42351886435246
 30
0.0
 10
42.29991589654308
 20
63.42351886435246
 30
0.0
 10
42.29991589654308
 20
63.36839733658846
 30
0.0
 10
42.34263508056018
 20
63.32154403798906
 30
0.0
 10
42.40120170380943
 20
63.32154403798906
 30
0.0
 10
42.40120170380943
 20
63.32154403798906
 30
0.0
 10
48.40118000092054
 20
63.32154403798906
 30
0.0
 10
48.40118000092054
 20
63.32154403798906
 30
0.0
 10
48.45578476436175
 20
63.32154403798906
 30
0.0
 10
48.50281031773541
 20
63.36495224110321
 30
0.0
 10
48.50281031773541
 20
63.42351886435246
 30
0.0
 10
48.50281031773541
 20
63.42351886435246
 30
0.0
 10
48.50281031773541
 20
66.42350801290802
 30
0.0
 10
48.50281031773541
 20
66.42350801290802
 30
0.0
 10
48.50281031773541
 20
66.36838648514401
 30
0.0
 10
48.46009113371831
 20
66.32153318654461
 30
0.0
 10
48.40118000092054
 20
66.32153318654461
 30
0.0
 10
48.40118000092054
 20
66.32153318654461
 30
0.0
 10
54.40115829803166
 20
66.32153318654461
 30
0.0
 10
54.40115829803166
 20
66.32153318654461
 30
0.0
 10
54.34689804413897
 20
66.32153318654461
 30
0.0
 10
54.30004474553957
 20
66.36494138965877
 30
0.0
 10
54.30004474553957
 20
66.42350801290802
 30
0.0
 10
54.30004474553957
 20
66.42350801290802
 30
0.0
 10
54.30004474553957
 20
63.42351886435246
 30
0.0
 10
54.30004474553957
 20
63.42351886435246
 30
0.0
 10
54.30004474553957
 20
63.36839733658846
 30
0.0
 10
54.34259167478241
 20
63.32154403798906
 30
0.0
 10
54.40115829803166
 20
63.32154403798906
 30
0.0
 10
54.40115829803166
 20
63.32154403798906
 30
0.0
 10
60.40199786901409
 20
63.32154403798906
 30
0.0
 10
60.40199786901409
 20
63.32154403798906
 30
0.0
 10
60.45625812290677
 20
63.32154403798906
 30
0.0
 10
60.50328367628043
 20
63.36495224110321
 30
0.0
 10
60.50328367628043
 20
63.42351886435246
 30
0.0
 10
60.50328367628043
 20
63.42351886435246
 30
0.0
 10
60.50328367628043
 20
66.42350801290802
 30
0.0
 10
60.50328367628043
 20
66.42350801290802
 30
0.0
 10
60.50328367628043
 20
66.36838648514401
 30
0.0
 10
60.46056449226334
 20
66.32153318654461
 30
0.0
 10
60.40199786901409
 20
66.32153318654461
 30
0.0
 10
60.40199786901409
 20
66.32153318654461
 30
0.0
 10
66.40197616612521
 20
66.32153318654461
 30
0.0
 10
66.40197616612521
 20
66.32153318654461
 30
0.0
 10
66.34702689313546
 20
66.32153318654461
 30
0.0
 10
66.3000013397618
 20
66.36494138965877
 30
0.0
 10
66.3000013397618
 20
66.42350801290802
 30
0.0
 10
66.3000013397618
 20
66.42350801290802
 30
0.0
 10
66.3000013397618
 20
63.42351886435246
 30
0.0
 10
66.3000013397618
 20
63.42351886435246
 30
0.0
 10
66.3000013397618
 20
63.36839733658846
 30
0.0
 10
66.34340954287596
 20
63.32154403798906
 30
0.0
 10
66.40197616612521
 20
63.32154403798906
 30
0.0
 10
66.40197616612521
 20
63.32154403798906
 30
0.0
 10
72.40195446323632
 20
63.32154403798906
 30
0.0
 10
72.40195446323632
 20
63.32154403798906
 30
0.0
 10
72.45638697190327
 20
63.32154403798906
 30
0.0
 10
72.50324027050266
 20
63.36495224110321
 30
0.0
 10
72.50324027050266
 20
63.42351886435246
 30
0.0
 10
72.50324027050266
 20
63.42351886435246
 30
0.0
 10
72.50324027050266
 20
66.42350801290802
 30
0.0
 10
72.50324027050266
 20
66.42350801290802
 30
0.0
 10
72.50324027050266
 20
66.36838648514401
 30
0.0
 10
72.46052108648557
 20
66.32153318654461
 30
0.0
 10
72.40195446323632
 20
66.32153318654461
 30
0.0
 10
72.40195446323632
 20
66.32153318654461
 30
0.0
 10
78.40176050557318
 20
66.32153318654461
 30
0.0
 10
78.40176050557318
 20
66.32153318654461
 30
0.0
 10
78.3469834873577
 20
66.32153318654461
 30
0.0
 10
78.3001301887583
 20
66.36494138965877
 30
0.0
 10
78.3001301887583
 20
66.42350801290802
 30
0.0
 10
78.3001301887583
 20
66.42350801290802
 30
0.0
 10
78.3001301887583
 20
63.42351886435246
 30
0.0
 10
78.3001301887583
 20
63.42351886435246
 30
0.0
 10
78.3001301887583
 20
63.36839733658846
 30
0.0
 10
78.34319388232393
 20
63.32154403798906
 30
0.0
 10
78.40176050557318
 20
63.32154403798906
 30
0.0
 10
78.40176050557318
 20
63.32154403798906
 30
0.0
 10
84.40173880268429
 20
63.32154403798906
 30
0.0
 10
84.40173880268429
 20
63.32154403798906
 30
0.0
 10
84.45651582089977
 20
63.32154403798906
 30
0.0
 10
84.50336911949915
 20
63.36495224110321
 30
0.0
 10
84.50336911949915
 20
63.42351886435246
 30
0.0
 10
84.50336911949915
 20
63.42351886435246
 30
0.0
 10
84.50336911949915
 20
66.42350801290802
 30
0.0
 10
84.50336911949915
 20
66.42350801290802
 30
0.0
 10
84.50336911949915
 20
66.36838648514401
 30
0.0
 10
84.46030542593354
 20
66.32153318654461
 30
0.0
 10
84.40173880268429
 20
66.32153318654461
 30
0.0
 10
84.40173880268429
 20
66.32153318654461
 30
0.0
 10
90.40120033547262
 20
66.32153318654461
 30
0.0
 10
90.40120033547262
 20
66.32153318654461
 30
0.0
 10
90.34642331725715
 20
66.32153318654461
 30
0.0
 10
90.29957001865775
 20
66.36494138965877
 30
0.0
 10
90.29957001865775
 20
66.42350801290802
 30
0.0
 10
90.29957001865775
 20
66.42350801290802
 30
0.0
 10
90.29957001865775
 20
63.42351886435246
 30
0.0
 10
90.29957001865775
 20
63.42351886435246
 30
0.0
 10
90.29957001865775
 20
63.36839733658846
 30
0.0
 10
90.34263371222337
 20
63.32154403798906
 30
0.0
 10
90.40120033547262
 20
63.32154403798906
 30
0.0
 10
90.40120033547262
 20
63.32154403798906
 30
0.0
 10
96.40117863258374
 20
63.32154403798906
 30
0.0
 10
96.40117863258374
 20
63.32154403798906
 30
0.0
 10
96.45578339602494
 20
63.32154403798906
 30
0.0
 10
96.50280894939861
 20
63.36495224110321
 30
0.0
 10
96.50280894939861
 20
63.42351886435246
 30
0.0
 10
96.50280894939861
 20
63.42351886435246
 30
0.0
 10
96.50280894939861
 20
66.42350801290802
 30
0.0
 10
96.50280894939861
 20
66.42350801290802
 30
0.0
 10
96.50280894939861
 20
66.36838648514401
 30
0.0
 10
96.45974525583298
 20
66.32153318654461
 30
0.0
 10
96.40117863258374
 20
66.32153318654461
 30
0.0
 10
96.40117863258374
 20
66.32153318654461
 30
0.0
 10
102.4011569296948
 20
66.32153318654461
 30
0.0
 10
102.4011569296948
 20
66.32153318654461
 30
0.0
 10
102.3465521662536
 20
66.32153318654461
 30
0.0
 10
102.2996988676542
 20
66.36494138965877
 30
0.0
 10
102.2996988676542
 20
66.42350801290802
 30
0.0
 10
102.2996988676542
 20
66.42350801290802
 30
0.0
 10
102.2996988676542
 20
63.42351886435246
 30
0.0
 10
102.2996988676542
 20
63.42351886435246
 30
0.0
 10
102.2996988676542
 20
63.36839733658846
 30
0.0
 10
102.3425903064456
 20
63.32154403798906
 30
0.0
 10
102.4011569296948
 20
63.32154403798906
 30
0.0
 10
102.4011569296948
 20
63.32154403798906
 30
0.0
 10
108.401135226806
 20
63.32154403798906
 30
0.0
 10
108.401135226806
 20
63.32154403798906
 30
0.0
 10
108.4559122450214
 20
63.32154403798906
 30
0.0
 10
108.5027655436208
 20
63.36495224110321
 30
0.0
 10
108.5027655436208
 20
63.42351886435246
 30
0.0
 10
108.5027655436208
 20
63.42351886435246
 30
0.0
 10
108.5027655436208
 20
66.42350801290802
 30
0.0
 10
108.5027655436208
 20
66.42350801290802
 30
0.0
 10
108.5027655436208
 20
66.36838648514401
 30
0.0
 10
108.4597018500552
 20
66.32153318654461
 30
0.0
 10
108.401135226806
 20
66.32153318654461
 30
0.0
 10
108.401135226806
 20
66.32153318654461
 30
0.0
 10
114.4014580334656
 20
66.32153318654461
 30
0.0
 10
114.4014580334656
 20
66.32153318654461
 30
0.0
 10
114.3466810152501
 20
66.32153318654461
 30
0.0
 10
114.2998277166507
 20
66.36494138965877
 30
0.0
 10
114.2998277166507
 20
66.42350801290802
 30
0.0
 10
114.2998277166507
 20
66.42350801290802
 30
0.0
 10
114.2998277166507
 20
63.42351886435246
 30
0.0
 10
114.2998277166507
 20
63.42351886435246
 30
0.0
 10
114.2998277166507
 20
63.36839733658846
 30
0.0
 10
114.3428914102164
 20
63.32154403798906
 30
0.0
 10
114.4014580334656
 20
63.32154403798906
 30
0.0
 10
114.4014580334656
 20
63.32154403798906
 30
0.0
 10
120.4014363305767
 20
63.32154403798906
 30
0.0
 10
120.4014363305767
 20
63.32154403798906
 30
0.0
 10
120.4558688392437
 20
63.32154403798906
 30
0.0
 10
120.5030666473916
 20
63.36495224110321
 30
0.0
 10
120.5030666473916
 20
63.42351886435246
 30
0.0
 10
120.5030666473916
 20
63.42351886435246
 30
0.0
 10
120.5030666473916
 20
66.42350801290802
 30
0.0
 10
120.5030666473916
 20
66.42350801290802
 30
0.0
 10
120.5030666473916
 20
66.36838648514401
 30
0.0
 10
120.460002953826
 20
66.32153318654461
 30
0.0
 10
120.4014363305767
 20
66.32153318654461
 30
0.0
 10
120.4014363305767
 20
66.32153318654461
 30
0.0
 10
126.4014146276878
 20
66.32153318654461
 30
0.0
 10
126.4014146276878
 20
66.32153318654461
 30
0.0
 10
126.3469821190209
 20
66.32153318654461
 30
0.0
 10
126.299784310873
 20
66.36494138965877
 30
0.0
 10
126.299784310873
 20
66.42350801290802
 30
0.0
 10
126.299784310873
 20
66.42350801290802
 30
0.0
 10
126.299784310873
 20
63.42351886435246
 30
0.0
 10
126.299784310873
 20
63.42351886435246
 30
0.0
 10
126.299784310873
 20
63.36839733658846
 30
0.0
 10
126.3428480044386
 20
63.32154403798906
 30
0.0
 10
126.4014146276878
 20
63.32154403798906
 30
0.0
 10
126.4014146276878
 20
63.32154403798906
 30
0.0
 10
132.401392924799
 20
63.32154403798906
 30
0.0
 10
132.401392924799
 20
63.32154403798906
 30
0.0
 10
132.4561699430144
 20
63.32154403798906
 30
0.0
 10
132.5030232416138
 20
63.36495224110321
 30
0.0
 10
132.5030232416138
 20
63.42351886435246
 30
0.0
 10
132.5030232416138
 20
63.42351886435246
 30
0.0
 10
132.5030232416138
 20
66.42350801290802
 30
0.0
 10
132.5030232416138
 20
66.42350801290802
 30
0.0
 10
132.5030232416138
 20
66.36838648514401
 30
0.0
 10
132.4599595480482
 20
66.32153318654461
 30
0.0
 10
132.401392924799
 20
66.32153318654461
 30
0.0
 10
132.401392924799
 20
66.32153318654461
 30
0.0
 10
138.4013712219101
 20
66.32153318654461
 30
0.0
 10
138.4013712219101
 20
66.32153318654461
 30
0.0
 10
138.3472832227916
 20
66.32153318654461
 30
0.0
 10
138.3000854146437
 20
66.36494138965877
 30
0.0
 10
138.3000854146437
 20
66.42350801290802
 30
0.0
 10
138.3000854146437
 20
66.42350801290802
 30
0.0
 10
138.3000854146437
 20
63.42351886435246
 30
0.0
 10
138.3000854146437
 20
63.42351886435246
 30
0.0
 10
138.3000854146437
 20
63.36839733658846
 30
0.0
 10
138.3428045986608
 20
63.32154403798906
 30
0.0
 10
138.4013712219101
 20
63.32154403798906
 30
0.0
 10
138.4013712219101
 20
63.32154403798906
 30
0.0
 10
144.4016940285697
 20
63.32154403798906
 30
0.0
 10
144.4016940285697
 20
63.32154403798906
 30
0.0
 10
144.4016940285697
 20
63.32154403798906
 30
0.0
 10
147.4016831771253
 20
63.32154403798906
 30
0.0
 10
147.4016831771253
 20
63.32154403798906
 30
0.0
 10
147.4561156857922
 20
63.32154403798906
 30
0.0
 10
147.5029689843916
 20
63.36495224110321
 30
0.0
 10
147.5029689843916
 20
63.42351886435246
 30
0.0
 10
147.5029689843916
 20
63.42351886435246
 30
0.0
 10
147.5029689843916
 20
66.42350801290802
 30
0.0
 10
147.5029689843916
 20
66.42350801290802
 30
0.0
 10
147.5029689843916
 20
66.42350801290802
 30
0.0
 10
147.5029689843916
 20
73.42325301983864
 30
0.0
 10
147.5029689843916
 20
73.42325301983864
 30
0.0
 10
147.5029689843916
 20
73.47768552850559
 30
0.0
 10
147.460594309923
 20
73.52453882710498
 30
0.0
 10
147.4016831771253
 20
73.52453882710498
 30
0.0
 10
147.4016831771253
 20
73.52453882710498
 30
0.0
 10
144.4016940285697
 20
73.52453882710498
 30
0.0
 10
144.4016940285697
 20
73.52453882710498
 30
0.0
 10
144.4561265372367
 20
73.52453882710498
 30
0.0
 10
144.5029798358361
 20
73.48181964308789
 30
0.0
 10
144.5029798358361
 20
73.42325301983864
 30
0.0
 10
144.5029798358361
 20
73.42325301983864
 30
0.0
 10
144.5029798358361
 20
79.42323131694975
 30
0.0
 10
144.5029798358361
 20
79.42323131694975
 30
0.0
 10
144.5029798358361
 20
79.3687988082828
 30
0.0
 10
144.460260651819
 20
79.3219455096834
 30
0.0
 10
144.4016940285697
 20
79.3219455096834
 30
0.0
 10
144.4016940285697
 20
79.3219455096834
 30
0.0
 10
147.4020276866738
 20
79.3219455096834
 30
0.0
 10
147.4020276866738
 20
79.3219455096834
 30
0.0
 10
147.4561156857922
 20
79.3219455096834
 30
0.0
 10
147.5029689843916
 20
79.3646646937005
 30
0.0
 10
147.5029689843916
 20
79.42323131694975
 30
0.0
 10
147.5029689843916
 20
79.42323131694975
 30
0.0
 10
147.5029689843916
 20
85.42320961406087
 30
0.0
 10
147.5029689843916
 20
85.42320961406087
 30
0.0
 10
147.5029689843916
 20
85.47764212272781
 30
0.0
 10
147.460594309923
 20
85.52449542132722
 30
0.0
 10
147.4020276866738
 20
85.52449542132722
 30
0.0
 10
147.4020276866738
 20
85.52449542132722
 30
0.0
 10
144.4016940285697
 20
85.52449542132722
 30
0.0
 10
144.4016940285697
 20
85.52449542132722
 30
0.0
 10
144.4561265372367
 20
85.52449542132722
 30
0.0
 10
144.5029798358361
 20
85.48177623731011
 30
0.0
 10
144.5029798358361
 20
85.42320961406087
 30
0.0
 10
144.5029798358361
 20
85.42320961406087
 30
0.0
 10
144.5029798358361
 20
91.4235324207205
 30
0.0
 10
144.5029798358361
 20
91.4235324207205
 30
0.0
 10
144.5029798358361
 20
91.36909991205356
 30
0.0
 10
144.460260651819
 20
91.32224661345417
 30
0.0
 10
144.4016940285697
 20
91.32224661345417
 30
0.0
 10
144.4016940285697
 20
91.32224661345417
 30
0.0
 10
147.4020276866738
 20
91.32224661345417
 30
0.0
 10
147.4020276866738
 20
91.32224661345417
 30
0.0
 10
147.4561156857922
 20
91.32224661345417
 30
0.0
 10
147.5029689843916
 20
91.36496579747126
 30
0.0
 10
147.5029689843916
 20
91.4235324207205
 30
0.0
 10
147.5029689843916
 20
91.4235324207205
 30
0.0
 10
147.5029689843916
 20
97.42351071783163
 30
0.0
 10
147.5029689843916
 20
97.42351071783163
 30
0.0
 10
147.5029689843916
 20
97.47759871695006
 30
0.0
 10
147.460594309923
 20
97.52479652509797
 30
0.0
 10
147.4020276866738
 20
97.52479652509797
 30
0.0
 10
147.4020276866738
 20
97.52479652509797
 30
0.0
 10
144.4016940285697
 20
97.52479652509797
 30
0.0
 10
144.4016940285697
 20
97.52479652509797
 30
0.0
 10
144.4561265372367
 20
97.52479652509797
 30
0.0
 10
144.5029798358361
 20
97.48207734108087
 30
0.0
 10
144.5029798358361
 20
97.42351071783163
 30
0.0
 10
144.5029798358361
 20
97.42351071783163
 30
0.0
 10
144.5029798358361
 20
103.4234890149427
 30
0.0
 10
144.5029798358361
 20
103.4234890149427
 30
0.0
 10
144.5029798358361
 20
103.3690565062758
 30
0.0
 10
144.460260651819
 20
103.3222032076764
 30
0.0
 10
144.4016940285697
 20
103.3222032076764
 30
0.0
 10
144.4016940285697
 20
103.3222032076764
 30
0.0
 10
147.4020276866738
 20
103.3222032076764
 30
0.0
 10
147.4020276866738
 20
103.3222032076764
 30
0.0
 10
147.4561156857922
 20
103.3222032076764
 30
0.0
 10
147.5029689843916
 20
103.3649223916935
 30
0.0
 10
147.5029689843916
 20
103.4234890149427
 30
0.0
 10
147.5029689843916
 20
103.4234890149427
 30
0.0
 10
147.5029689843916
 20
110.4232340218734
 30
0.0
 10
147.5029689843916
 20
110.4232340218734
 30
0.0
 10
147.5029689843916
 20
110.4783555496374
 30
0.0
 10
147.460594309923
 20
110.5252088482368
 30
0.0
 10
147.4020276866738
 20
110.5252088482368
 30
0.0
 10
147.4020276866738
 20
110.5252088482368
 30
0.0
 10
144.4016940285697
 20
110.5252088482368
 30
0.0
 10
144.4016940285697
 20
110.5252088482368
 30
0.0
 10
144.4016940285697
 20
110.5252088482368
 30
0.0
 10
30.40107285481293
 20
110.5252088482368
 30
0.0
 10
30.40107285481293
 20
110.5252088482368
 30
0.0
 10
30.40107285481293
 20
110.5252088482368
 30
0.0
 10
27.40108370625737
 20
110.5252088482368
 30
0.0
 10
27.40108370625737
 20
110.5252088482368
 30
0.0
 10
27.3463066880419
 20
110.5252088482368
 30
0.0
 10
27.2994533894425
 20
110.4824896642197
 30
0.0
 10
27.2994533894425
 20
110.4232340218734
 30
0.0
 10
27.2994533894425
 20
110.4232340218734
 30
0.0
 10
27.2994533894425
 20
110.4232340218734
 30
0.0
 10
27.2994533894425
 20
110.4232340218734
 30
0.0
 10
27.2994533894425
 20
110.4232340218734
 30
0.0
 10
27.2994533894425
 20
103.4234890149427
 30
0.0
 10
27.2994533894425
 20
103.4234890149427
 30
0.0
 10
27.2994533894425
 20
103.3690565062758
 30
0.0
 10
27.34251708300812
 20
103.3222032076764
 30
0.0
 10
27.40108370625737
 20
103.3222032076764
 30
0.0
 10
27.40108370625737
 20
103.3222032076764
 30
0.0
 10
30.40107285481293
 20
103.3222032076764
 30
0.0
 10
30.40107285481293
 20
103.3222032076764
 30
0.0
 10
30.34664034614598
 20
103.3222032076764
 30
0.0
 10
30.29944253799806
 20
103.3649223916935
 30
0.0
 10
30.29944253799806
 20
103.4234890149427
 30
0.0
 10
30.29944253799806
 20
103.4234890149427
 30
0.0
 10
30.29944253799806
 20
97.42351071783163
 30
0.0
 10
30.29944253799806
 20
97.42351071783163
 30
0.0
 10
30.29944253799806
 20
97.47759871695006
 30
0.0
 10
30.34250623156368
 20
97.52479652509797
 30
0.0
 10
30.40107285481293
 20
97.52479652509797
 30
0.0
 10
30.40107285481293
 20
97.52479652509797
 30
0.0
 10
27.40108370625737
 20
97.52479652509797
 30
0.0
 10
27.40108370625737
 20
97.52479652509797
 30
0.0
 10
27.3463066880419
 20
97.52479652509797
 30
0.0
 10
27.2994533894425
 20
97.48207734108087
 30
0.0
 10
27.2994533894425
 20
97.42351071783163
 30
0.0
 10
27.2994533894425
 20
97.42351071783163
 30
0.0
 10
27.2994533894425
 20
91.4235324207205
 30
0.0
 10
27.2994533894425
 20
91.4235324207205
 30
0.0
 10
27.2994533894425
 20
91.36909991205356
 30
0.0
 10
27.34251708300812
 20
91.32224661345417
 30
0.0
 10
27.40108370625737
 20
91.32224661345417
 30
0.0
 10
27.40108370625737
 20
91.32224661345417
 30
0.0
 10
30.40107285481293
 20
91.32224661345417
 30
0.0
 10
30.40107285481293
 20
91.32224661345417
 30
0.0
 10
30.34664034614598
 20
91.32224661345417
 30
0.0
 10
30.29944253799806
 20
91.36496579747126
 30
0.0
 10
30.29944253799806
 20
91.4235324207205
 30
0.0
 10
30.29944253799806
 20
91.4235324207205
 30
0.0
 10
30.29944253799806
 20
85.42320961406087
 30
0.0
 10
30.29944253799806
 20
85.42320961406087
 30
0.0
 10
30.29944253799806
 20
85.47764212272781
 30
0.0
 10
30.34250623156368
 20
85.52449542132722
 30
0.0
 10
30.40107285481293
 20
85.52449542132722
 30
0.0
 10
30.40107285481293
 20
85.52449542132722
 30
0.0
 10
27.40108370625737
 20
85.52449542132722
 30
0.0
 10
27.40108370625737
 20
85.52449542132722
 30
0.0
 10
27.3463066880419
 20
85.52449542132722
 30
0.0
 10
27.2994533894425
 20
85.48177623731011
 30
0.0
 10
27.2994533894425
 20
85.42320961406087
 30
0.0
 10
27.2994533894425
 20
85.42320961406087
 30
0.0
 10
27.2994533894425
 20
79.42323131694975
 30
0.0
 10
27.2994533894425
 20
79.42323131694975
 30
0.0
 10
27.2994533894425
 20
79.3687988082828
 30
0.0
 10
27.34251708300812
 20
79.3219455096834
 30
0.0
 10
27.40108370625737
 20
79.3219455096834
 30
0.0
 10
27.40108370625737
 20
79.3219455096834
 30
0.0
 10
30.40107285481293
 20
79.3219455096834
 30
0.0
 10
30.40107285481293
 20
79.3219455096834
 30
0.0
 10
30.34664034614598
 20
79.3219455096834
 30
0.0
 10
30.29944253799806
 20
79.3646646937005
 30
0.0
 10
30.29944253799806
 20
79.42323131694975
 30
0.0
 10
30.29944253799806
 20
79.42323131694975
 30
0.0
 10
30.29944253799806
 20
73.42325301983864
 30
0.0
 10
30.29944253799806
 20
73.42325301983864
 30
0.0
 10
30.29944253799806
 20
73.47768552850559
 30
0.0
 10
30.34250623156368
 20
73.52453882710498
 30
0.0
 10
30.40107285481293
 20
73.52453882710498
 30
0.0
 10
30.40107285481293
 20
73.52453882710498
 30
0.0
 10
27.40108370625737
 20
73.52453882710498
 30
0.0
 10
27.40108370625737
 20
73.52453882710498
 30
0.0
 10
27.3463066880419
 20
73.52453882710498
 30
0.0
 10
27.2994533894425
 20
73.48181964308789
 30
0.0
 10
27.2994533894425
 20
73.42325301983864
 30
0.0
 10
27.2994533894425
 20
73.42325301983864
 30
0.0
 10
27.2994533894425
 20
66.42350801290802
 30
0.0
 10
27.2994533894425
 20
66.42350801290802
 30
0.0
 10
27.2994533894425
 20
66.42350801290802
 30
0.0
 10
27.2994533894425
 20
63.42351886435246
 30
0.0
 10
27.2994533894425
 20
63.42351886435246
 30
0.0
 10
27.2994533894425
 20
63.36839733658846
 30
0.0
 10
27.34251708300812
 20
63.32154403798906
 30
0.0
 10
27.40108370625737
 20
63.32154403798906
 30
0.0
 10
27.40108370625737
 20
63.32154403798906
 30
0.0
 10
30.40107285481293
 20
63.32154403798906
 30
0.0
 10
30.40107285481293
 20
63.32154403798906
 30
0.0
  0
INSERT
  5
4D
330
47
100
AcDbEntity
  8
Calque 1
100
AcDbBlockReference
  2
block 3
 10
0.0
 20
0.0
 30
0.0
  0
SPLINE
  5
52
330
47
100
AcDbEntity
  8
Calque 1
 62
    18
420
    65793
370
     9
100
AcDbSpline
210
0.0
220
0.0
230
1.0
 70
    11
 71
     3
 72
    32
 73
    28
 74
     0
 42
0.0000000001
 43
0.0000000001
 40
0.0
 40
0.0
 40
0.0
 40
0.0
 40
1.0
 40
1.0
 40
1.0
 40
2.0
 40
2.0
 40
2.0
 40
3.0
 40
3.0
 40
3.0
 40
4.0
 40
4.0
 40
4.0
 40
5.0
 40
5.0
 40
5.0
 40
6.0
 40
6.0
 40
6.0
 40
7.0
 40
7.0
 40
7.0
 40
8.0
 40
8.0
 40
8.0
 40
9.0
 40
9.0
 40
9.0
 40
9.0
 10
118.4012138918407
 20
81.25671113419972
 30
0.0
 10
118.4012138918407
 20
79.56930336552435
 30
0.0
 10
117.0472913661375
 20
78.20160045788016
 30
0.0
 10
115.3767645653398
 20
78.20160045788016
 30
0.0
 10
115.3767645653398
 20
78.20160045788016
 30
0.0
 10
59.42583006326854
 20
78.20160045788016
 30
0.0
 10
59.42583006326854
 20
78.20160045788016
 30
0.0
 10
57.75547551724516
 20
78.20160045788016
 30
0.0
 10
56.40155299154198
 20
79.56930336552435
 30
0.0
 10
56.40155299154198
 20
81.25671113419972
 30
0.0
 10
56.40155299154198
 20
81.25671113419972
 30
0.0
 10
56.40155299154198
 20
102.6459309639219
 30
0.0
 10
56.40155299154198
 20
102.6459309639219
 30
0.0
 10
56.40155299154198
 20
104.3333387325972
 30
0.0
 10
57.75547551724516
 20
105.7010416402414
 30
0.0
 10
59.42583006326854
 20
105.7010416402414
 30
0.0
 10
59.42583006326854
 20
105.7010416402414
 30
0.0
 10
115.3771090748884
 20
105.7010416402414
 30
0.0
 10
115.3771090748884
 20
105.7010416402414
 30
0.0
 10
117.047635875686
 20
105.7010416402414
 30
0.0
 10
118.4015584013892
 20
104.3333387325972
 30
0.0
 10
118.4015584013892
 20
102.6459309639219
 30
0.0
 10
118.4015584013892
 20
102.6459309639219
 30
0.0
 10
118.4015584013892
 20
81.25671113419972
 30
0.0
 10
118.4015584013892
 20
81.25671113419972
 30
0.0
 10
118.4015584013892
 20
81.25671113419972
 30
0.0
 10
118.4012138918407
 20
81.25671113419972
 30
0.0
 10
118.4012138918407
 20
81.25671113419972
 30
0.0
  0
POLYLINE
  5
53
330
47
100
AcDbEntity
  8
Calque 1
 62
    18
420
    65793
370
     9
100
AcDb2dPolyline
 66
     1
 10
0.0
 20
0.0
 30
0.0
  0
VERTEX
  5
54
330
53
100
AcDbEntity
  8
Calque 1
 62
    18
420
    65793
370
     9
100
AcDbVertex
100
AcDb2dVertex
 10
130.4965996310043
 20
77.33929305792212
 30
0.0
  0
VERTEX
  5
55
330
53
100
AcDbEntity
  8
Calque 1
 62
    18
420
    65793
370
     9
100
AcDbVertex
100
AcDb2dVertex
 10
135.4964667087474
 20
77.33929305792212
 30
0.0
  0
VERTEX
  5
56
330
53
100
AcDbEntity
  8
Calque 1
 62
    18
420
    65793
370
     9
100
AcDbVertex
100
AcDb2dVertex
 10
135.4964667087474
 20
72.33977048972756
 30
0.0
  0
VERTEX
  5
57
330
53
100
AcDbEntity
  8
Calque 1
 62
    18
420
    65793
370
     9
100
AcDbVertex
100
AcDb2dVertex
 10
130.4965996310043
 20
72.33977048972756
 30
0.0
  0
VERTEX
  5
58
330
53
100
AcDbEntity
  8
Calque 1
 62
    18
420
    65793
370
     9
100
AcDbVertex
100
AcDb2dVertex
 10
130.4965996310043
 20
77.33929305792212
 30
0.0
  0
SEQEND
  5
59
330
53
100
AcDbEntity
  8
Calque 1
370
     9
  0
ENDBLK
  5
4A
330
47
100
AcDbEntity
  8
0
100
AcDbBlockEnd
  0
BLOCK
  5
4E
330
4C
100
AcDbEntity
  8
0
100
AcDbBlockBegin
  2
block 3
 70
     0
 71
     0
 10
0.0
 20
0.0
 30
0.0
  3
block 3
  1

  0
SPLINE
  5
50
330
4C
100
AcDbEntity
  8
Calque 1
 62
    18
420
    65793
370
     9
100
AcDbSpline
210
0.0
220
0.0
230
1.0
 70
    11
 71
     3
 72
    17
 73
    13
 74
     0
 42
0.0000000001
 43
0.0000000001
 40
0.0
 40
0.0
 40
0.0
 40
0.0
 40
1.0
 40
1.0
 40
1.0
 40
2.0
 40
2.0
 40
2.0
 40
3.0
 40
3.0
 40
3.0
 40
4.0
 40
4.0
 40
4.0
 40
4.0
 10
80.40129392521219
 20
77.25109861349974
 30
0.0
 10
81.22966713464051
 20
77.25109861349974
 30
0.0
 10
81.90128849948997
 20
76.57964950342453
 30
0.0
 10
81.90128849948997
 20
75.75110403922194
 30
0.0
 10
81.90128849948997
 20
74.92290308456789
 30
0.0
 10
81.22966713464051
 20
74.25110946494416
 30
0.0
 10
80.40129392521219
 20
74.25110946494416
 30
0.0
 10
79.57292071578385
 20
74.25110946494416
 30
0.0
 10
78.9012993509344
 20
74.92290308456789
 30
0.0
 10
78.9012993509344
 20
75.75110403922194
 30
0.0
 10
78.9012993509344
 20
76.57964950342453
 30
0.0
 10
79.57292071578385
 20
77.25109861349974
 30
0.0
 10
80.40129392521219
 20
77.25109861349974
 30
0.0
  0
SPLINE
  5
51
330
4C
100
AcDbEntity
  8
Calque 1
 62
    18
420
    65793
370
     9
100
AcDbSpline
210
0.0
220
0.0
230
1.0
 70
    11
 71
     3
 72
    17
 73
    13
 74
     0
 42
0.0000000001
 43
0.0000000001
 40
0.0
 40
0.0
 40
0.0
 40
0.0
 40
1.0
 40
1.0
 40
1.0
 40
2.0
 40
2.0
 40
2.0
 40
3.0
 40
3.0
 40
3.0
 40
4.0
 40
4.0
 40
4.0
 40
4.0
 10
94.40095619384768
 20
77.25109861349974
 30
0.0
 10
95.22932940327601
 20
77.25109861349974
 30
0.0
 10
95.90095076812545
 20
76.57964950342453
 30
0.0
 10
95.90095076812545
 20
75.75110403922194
 30
0.0
 10
95.90095076812545
 20
74.92290308456789
 30
0.0
 10
95.22932940327601
 20
74.25110946494416
 30
0.0
 10
94.40095619384768
 20
74.25110946494416
 30
0.0
 10
93.5724107296451
 20
74.25110946494416
 30
0.0
 10
92.9009616195699
 20
74.92290308456789
 30
0.0
 10
92.9009616195699
 20
75.75110403922194
 30
0.0
 10
92.9009616195699
 20
76.57964950342453
 30
0.0
 10
93.5724107296451
 20
77.25109861349974
 30
0.0
 10
94.40095619384768
 20
77.25109861349974
 30
0.0
  0
ENDBLK
  5
4F
330
4C
100
AcDbEntity
  8
0
100
AcDbBlockEnd
  0
BLOCK
  5
62
330
60
100
AcDbEntity
  8
0
100
AcDbBlockBegin
  2
block 4
 70
     0
 71
     0
 10
0.0
 20
0.0
 30
0.0
  3
block 4
  1

  0
POLYLINE
  5
64
330
60
100
AcDbEntity
  8
Calque 1
 62
     7
420
 16777215
370
     5
100
AcDb2dPolyline
 66
     1
 10
0.0
 20
0.0
 30
0.0
  0
VERTEX
  5
65
330
64
100
AcDbEntity
  8
Calque 1
 62
     7
420
 16777215
370
     5
100
AcDbVertex
100
AcDb2dVertex
 10
56.88231606650859
 20
240.5634385249286
 30
0.0
  0
VERTEX
  5
66
330
64
100
AcDbEntity
  8
Calque 1
 62
     7
420
 16777215
370
     5
100
AcDbVertex
100
AcDb2dVertex
 10
117.4999769128993
 20
240.5634385249286
 30
0.0
  0
VERTEX
  5
67
330
64
100
AcDbEntity
  8
Calque 1
 62
     7
420
 16777215
370
     5
100
AcDbVertex
100
AcDb2dVertex
 10
117.4999769128993
 20
232.5635822986299
 30
0.0
  0
VERTEX
  5
68
330
64
100
AcDbEntity
  8
Calque 1
 62
     7
420
 16777215
370
     5
100
AcDbVertex
100
AcDb2dVertex
 10
56.88231606650859
 20
232.5635822986299
 30
0.0
  0
VERTEX
  5
69
330
64
100
AcDbEntity
  8
Calque 1
 62
     7
420
 16777215
370
     5
100
AcDbVertex
100
AcDb2dVertex
 10
56.88231606650859
 20
240.5634385249286
 30
0.0
  0
SEQEND
  5
6A
330
64
100
AcDbEntity
  8
Calque 1
370
     5
  0
POLYLINE
  5
6B
330
60
100
AcDbEntity
  8
Calque 1
 62
     7
420
 16777215
370
     5
100
AcDb2dPolyline
 66
     1
 10
0.0
 20
0.0
 30
0.0
  0
VERTEX
  5
6C
330
6B
100
AcDbEntity
  8
Calque 1
 62
     7
420
 16777215
370
     5
100
AcDbVertex
100
AcDb2dVertex
 10
56.88231606650859
 20
328.1053818624181
 30
0.0
  0
VERTEX
  5
6D
330
6B
100
AcDbEntity
  8
Calque 1
 62
     7
420
 16777215
370
     5
100
AcDbVertex
100
AcDb2dVertex
 10
117.4999769128993
 20
328.1053818624181
 30
0.0
  0
VERTEX
  5
6E
330
6B
100
AcDbEntity
  8
Calque 1
 62
     7
420
 16777215
370
     5
100
AcDbVertex
100
AcDb2dVertex
 10
117.4999769128993
 20
320.1051811265709
 30
0.0
  0
VERTEX
  5
6F
330
6B
100
AcDbEntity
  8
Calque 1
 62
     7
420
 16777215
370
     5
100
AcDbVertex
100
AcDb2dVertex
 10
56.88231606650859
 20
320.1051811265709
 30
0.0
  0
VERTEX
  5
70
330
6B
100
AcDbEntity
  8
Calque 1
 62
     7
420
 16777215
370
     5
100
AcDbVertex
100
AcDb2dVertex
 10
56.88231606650859
 20
328.1053818624181
 30
0.0
  0
SEQEND
  5
71
330
6B
100
AcDbEntity
  8
Calque 1
370
     5
  0
POLYLINE
  5
72
330
60
100
AcDbEntity
  8
Calque 1
 62
     7
420
 16777215
370
     5
100
AcDb2dPolyline
 66
     1
 10
0.0
 20
0.0
 30
0.0
  0
VERTEX
  5
73
330
72
100
AcDbEntity
  8
Calque 1
 62
     7
420
 16777215
370
     5
100
AcDbVertex
100
AcDb2dVertex
 10
39.42050508997126
 20
310.6435708858808
 30
0.0
  0
VERTEX
  5
74
330
72
100
AcDbEntity
  8
Calque 1
 62
     7
420
 16777215
370
     5
100
AcDbVertex
100
AcDb2dVertex
 10
47.42053357104417
 20
310.6435708858808
 30
0.0
  0
VERTEX
  5
75
330
72
100
AcDbEntity
  8
Calque 1
 62
     7
420
 16777215
370
     5
100
AcDbVertex
100
AcDb2dVertex
 10
47.42053357104417
 20
250.0257377847158
 30
0.0
  0
VERTEX
  5
76
330
72
100
AcDbEntity
  8
Calque 1
 62
     7
420
 16777215
370
     5
100
AcDbVertex
100
AcDb2dVertex
 10
39.42050508997126
 20
250.0257377847158
 30
0.0
  0
VERTEX
  5
77
330
72
100
AcDbEntity
  8
Calque 1
 62
     7
420
 16777215
370
     5
100
AcDbVertex
100
AcDb2dVertex
 10
39.42050508997126
 20
310.6435708858808
 30
0.0
  0
SEQEND
  5
78
330
72
100
AcDbEntity
  8
Calque 1
370
     5
  0
POLYLINE
  5
79
330
60
100
AcDbEntity
  8
Calque 1
 62
     7
420
 16777215
370
     5
100
AcDb2dPolyline
 66
     1
 10
0.0
 20
0.0
 30
0.0
  0
VERTEX
  5
7A
330
79
100
AcDbEntity
  8
Calque 1
 62
     7
420
 16777215
370
     5
100
AcDbVertex
100
AcDb2dVertex
 10
126.961242644041
 20
310.6435708858808
 30
0.0
  0
VERTEX
  5
7B
330
79
100
AcDbEntity
  8
Calque 1
 62
     7
420
 16777215
370
     5
100
AcDbVertex
100
AcDb2dVertex
 10
134.9614433798881
 20
310.6435708858808
 30
0.0
  0
VERTEX
  5
7C
330
79
100
AcDbEntity
  8
Calque 1
 62
     7
420
 16777215
370
     5
100
AcDbVertex
100
AcDb2dVertex
 10
134.9614433798881
 20
250.0257377847158
 30
0.0
  0
VERTEX
  5
7D
330
79
100
AcDbEntity
  8
Calque 1
 62
     7
420
 16777215
370
     5
100
AcDbVertex
100
AcDb2dVertex
 10
126.961242644041
 20
250.0257377847158
 30
0.0
  0
VERTEX
  5
7E
330
79
100
AcDbEntity
  8
Calque 1
 62
     7
420
 16777215
370
     5
100
AcDbVertex
100
AcDb2dVertex
 10
126.961242644041
 20
310.6435708858808
 30
0.0
  0
SEQEND
  5
7F
330
79
100
AcDbEntity
  8
Calque 1
370
     5
  0
SPLINE
  5
80
330
60
100
AcDbEntity
  8
Calque 1
 62
     7
420
 16777215
370
     5
100
AcDbSpline
210
0.0
220
0.0
230
1.0
 70
    11
 71
     3
 72
    17
 73
    13
 74
     0
 42
0.0000000001
 43
0.0000000001
 40
0.0
 40
0.0
 40
0.0
 40
0.0
 40
1.0
 40
1.0
 40
1.0
 40
2.0
 40
2.0
 40
2.0
 40
3.0
 40
3.0
 40
3.0
 40
4.0
 40
4.0
 40
4.0
 40
4.0
 10
42.05927597689838
 20
327.5104138721155
 30
0.0
 10
43.57804632157077
 20
327.5104138721155
 30
0.0
 10
44.8091511932248
 20
326.2791367456872
 30
0.0
 10
44.8091511932248
 20
324.760538655789
 30
0.0
 10
44.8091511932248
 20
323.2419405658909
 30
0.0
 10
43.57804632157077
 20
322.0106634394626
 30
0.0
 10
42.05927597689838
 20
322.0106634394626
 30
0.0
 10
40.54050563222599
 20
322.0106634394626
 30
0.0
 10
39.30940076057195
 20
323.2419405658909
 30
0.0
 10
39.30940076057195
 20
324.760538655789
 30
0.0
 10
39.30940076057195
 20
326.2791367456872
 30
0.0
 10
40.54050563222599
 20
327.5104138721155
 30
0.0
 10
42.05927597689838
 20
327.5104138721155
 30
0.0
  0
SPLINE
  5
81
330
60
100
AcDbEntity
  8
Calque 1
 62
     7
420
 16777215
370
     5
100
AcDbSpline
210
0.0
220
0.0
230
1.0
 70
    11
 71
     3
 72
    17
 73
    13
 74
     0
 42
0.0000000001
 43
0.0000000001
 40
0.0
 40
0.0
 40
0.0
 40
0.0
 40
1.0
 40
1.0
 40
1.0
 40
2.0
 40
2.0
 40
2.0
 40
3.0
 40
3.0
 40
3.0
 40
4.0
 40
4.0
 40
4.0
 40
4.0
 10
131.6172891923561
 20
328.2159694274947
 30
0.0
 10
133.1358872822542
 20
328.2159694274947
 30
0.0
 10
134.3671644086825
 20
326.9846923010663
 30
0.0
 10
134.3671644086825
 20
325.4660942111682
 30
0.0
 10
134.3671644086825
 20
323.9474961212701
 30
0.0
 10
133.1358872822542
 20
322.7162189948418
 30
0.0
 10
131.6172891923561
 20
322.7162189948418
 30
0.0
 10
130.0983465929095
 20
322.7162189948418
 30
0.0
 10
128.8674139760297
 20
323.9474961212701
 30
0.0
 10
128.8674139760297
 20
325.4660942111682
 30
0.0
 10
128.8674139760297
 20
326.9846923010663
 30
0.0
 10
130.0983465929095
 20
328.2159694274947
 30
0.0
 10
131.6172891923561
 20
328.2159694274947
 30
0.0
  0
SPLINE
  5
82
330
60
100
AcDbEntity
  8
Calque 1
 62
     7
420
 16777215
370
     5
100
AcDbSpline
210
0.0
220
0.0
230
1.0
 70
    11
 71
     3
 72
    17
 73
    13
 74
     0
 42
0.0000000001
 43
0.0000000001
 40
0.0
 40
0.0
 40
0.0
 40
0.0
 40
1.0
 40
1.0
 40
1.0
 40
2.0
 40
2.0
 40
2.0
 40
3.0
 40
3.0
 40
3.0
 40
4.0
 40
4.0
 40
4.0
 40
4.0
 10
132.3228447477353
 20
238.6583007215854
 30
0.0
 10
133.8417873471819
 20
238.6583007215854
 30
0.0
 10
135.0730644736102
 20
237.4270235951572
 30
0.0
 10
135.0730644736102
 20
235.9080809957105
 30
0.0
 10
135.0730644736102
 20
234.3891383962638
 30
0.0
 10
133.8417873471819
 20
233.1578612698355
 30
0.0
 10
132.3228447477353
 20
233.1578612698355
 30
0.0
 10
130.8039021482886
 20
233.1578612698355
 30
0.0
 10
129.5726250218603
 20
234.3891383962638
 30
0.0
 10
129.5726250218603
 20
235.9080809957105
 30
0.0
 10
129.5726250218603
 20
237.4270235951572
 30
0.0
 10
130.8039021482886
 20
238.6583007215854
 30
0.0
 10
132.3228447477353
 20
238.6583007215854
 30
0.0
  0
SPLINE
  5
83
330
60
100
AcDbEntity
  8
Calque 1
 62
     7
420
 16777215
370
     5
100
AcDbSpline
210
0.0
220
0.0
230
1.0
 70
    11
 71
     3
 72
    17
 73
    13
 74
     0
 42
0.0000000001
 43
0.0000000001
 40
0.0
 40
0.0
 40
0.0
 40
0.0
 40
1.0
 40
1.0
 40
1.0
 40
2.0
 40
2.0
 40
2.0
 40
3.0
 40
3.0
 40
3.0
 40
4.0
 40
4.0
 40
4.0
 40
4.0
 10
42.76483153227755
 20
237.9524006566577
 30
0.0
 10
44.28360187694994
 20
237.9524006566577
 30
0.0
 10
45.51470674860396
 20
236.7211235302294
 30
0.0
 10
45.51470674860396
 20
235.2025254403313
 30
0.0
 10
45.51470674860396
 20
233.6839273504332
 30
0.0
 10
44.28360187694994
 20
232.4526502240049
 30
0.0
 10
42.76483153227755
 20
232.4526502240049
 30
0.0
 10
41.24606118760515
 20
232.4526502240049
 30
0.0
 10
40.01495631595112
 20
233.6839273504332
 30
0.0
 10
40.01495631595112
 20
235.2025254403313
 30
0.0
 10
40.01495631595112
 20
236.7211235302294
 30
0.0
 10
41.24606118760515
 20
237.9524006566577
 30
0.0
 10
42.76483153227755
 20
237.9524006566577
 30
0.0
  0
ENDBLK
  5
63
330
60
100
AcDbEntity
  8
0
100
AcDbBlockEnd
  0
ENDSEC
  0
SECTION
  2
ENTITIES
  0
SPLINE
  5
3C
330
1F
100
AcDbEntity
  8
Calque 1
 62
    18
420
    65793
370
     9
100
AcDbSpline
210
0.0
220
0.0
230
1.0
 70
     8
 71
     3
 72
   287
 73
   283
 74
     0
 42
0.0000000001
 43
0.0000000001
 40
0.0
 40
0.0
 40
0.0
 40
0.0
 40
1.0
 40
1.0
 40
1.0
 40
2.0
 40
2.0
 40
2.0
 40
3.0
 40
3.0
 40
3.0
 40
4.0
 40
4.0
 40
4.0
 40
5.0
 40
5.0
 40
5.0
 40
6.0
 40
6.0
 40
6.0
 40
7.0
 40
7.0
 40
7.0
 40
8.0
 40
8.0
 40
8.0
 40
9.0
 40
9.0
 40
9.0
 40
10.0
 40
10.0
 40
10.0
 40
11.0
 40
11.0
 40
11.0
 40
12.0
 40
12.0
 40
12.0
 40
13.0
 40
13.0
 40
13.0
 40
14.0
 40
14.0
 40
14.0
 40
15.0
 40
15.0
 40
15.0
 40
16.0
 40
16.0
 40
16.0
 40
17.0
 40
17.0
 40
17.0
 40
18.0
 40
18.0
 40
18.0
 40
19.0
 40
19.0
 40
19.0
 40
20.0
 40
20.0
 40
20.0
 40
21.0
 40
21.0
 40
21.0
 40
22.0
 40
22.0
 40
22.0
 40
23.0
 40
23.0
 40
23.0
 40
24.0
 40
24.0
 40
24.0
 40
25.0
 40
25.0
 40
25.0
 40
26.0
 40
26.0
 40
26.0
 40
27.0
 40
27.0
 40
27.0
 40
28.0
 40
28.0
 40
28.0
 40
29.0
 40
29.0
 40
29.0
 40
30.0
 40
30.0
 40
30.0
 40
31.0
 40
31.0
 40
31.0
 40
32.0
 40
32.0
 40
32.0
 40
33.0
 40
33.0
 40
33.0
 40
34.0
 40
34.0
 40
34.0
 40
35.0
 40
35.0
 40
35.0
 40
36.0
 40
36.0
 40
36.0
 40
37.0
 40
37.0
 40
37.0
 40
38.0
 40
38.0
 40
38.0
 40
39.0
 40
39.0
 40
39.0
 40
40.0
 40
40.0
 40
40.0
 40
41.0
 40
41.0
 40
41.0
 40
42.0
 40
42.0
 40
42.0
 40
43.0
 40
43.0
 40
43.0
 40
44.0
 40
44.0
 40
44.0
 40
45.0
 40
45.0
 40
45.0
 40
46.0
 40
46.0
 40
46.0
 40
47.0
 40
47.0
 40
47.0
 40
48.0
 40
48.0
 40
48.0
 40
49.0
 40
49.0
 40
49.0
 40
50.0
 40
50.0
 40
50.0
 40
51.0
 40
51.0
 40
51.0
 40
52.0
 40
52.0
 40
52.0
 40
53.0
 40
53.0
 40
53.0
 40
54.0
 40
54.0
 40
54.0
 40
55.0
 40
55.0
 40
55.0
 40
56.0
 40
56.0
 40
56.0
 40
57.0
 40
57.0
 40
57.0
 40
58.0
 40
58.0
 40
58.0
 40
59.0
 40
59.0
 40
59.0
 40
60.0
 40
60.0
 40
60.0
 40
61.0
 40
61.0
 40
61.0
 40
62.0
 40
62.0
 40
62.0
 40
63.0
 40
63.0
 40
63.0
 40
64.0
 40
64.0
 40
64.0
 40
65.0
 40
65.0
 40
65.0
 40
66.0
 40
66.0
 40
66.0
 40
67.0
 40
67.0
 40
67.0
 40
68.0
 40
68.0
 40
68.0
 40
69.0
 40
69.0
 40
69.0
 40
70.0
 40
70.0
 40
70.0
 40
71.0
 40
71.0
 40
71.0
 40
72.0
 40
72.0
 40
72.0
 40
73.0
 40
73.0
 40
73.0
 40
74.0
 40
74.0
 40
74.0
 40
75.0
 40
75.0
 40
75.0
 40
76.0
 40
76.0
 40
76.0
 40
77.0
 40
77.0
 40
77.0
 40
78.0
 40
78.0
 40
78.0
 40
79.0
 40
79.0
 40
79.0
 40
80.0
 40
80.0
 40
80.0
 40
81.0
 40
81.0
 40
81.0
 40
82.0
 40
82.0
 40
82.0
 40
83.0
 40
83.0
 40
83.0
 40
84.0
 40
84.0
 40
84.0
 40
85.0
 40
85.0
 40
85.0
 40
86.0
 40
86.0
 40
86.0
 40
87.0
 40
87.0
 40
87.0
 40
88.0
 40
88.0
 40
88.0
 40
89.0
 40
89.0
 40
89.0
 40
90.0
 40
90.0
 40
90.0
 40
91.0
 40
91.0
 40
91.0
 40
92.0
 40
92.0
 40
92.0
 40
93.0
 40
93.0
 40
93.0
 40
94.0
 40
94.0
 40
94.0
 40
94.0
 10
157.7405869831343
 20
70.43359915773883
 30
0.0
 10
157.7405869831343
 20
70.43359915773883
 30
0.0
 10
163.7405652802454
 20
70.43359915773883
 30
0.0
 10
163.7405652802454
 20
70.43359915773883
 30
0.0
 10
163.7956868080094
 20
70.43359915773883
 30
0.0
 10
163.8425401066088
 20
70.47700736085298
 30
0.0
 10
163.8425401066088
 20
70.53557398410221
 30
0.0
 10
163.8425401066088
 20
70.53557398410221
 30
0.0
 10
163.8425401066088
 20
73.53556313265778
 30
0.0
 10
163.8425401066088
 20
73.53556313265778
 30
0.0
 10
163.8425401066088
 20
73.48044160489378
 30
0.0
 10
163.7991319034947
 20
73.43358830629438
 30
0.0
 10
163.7405652802454
 20
73.43358830629438
 30
0.0
 10
163.7405652802454
 20
73.43358830629438
 30
0.0
 10
169.7405435773565
 20
73.43358830629438
 30
0.0
 10
169.7405435773565
 20
73.43358830629438
 30
0.0
 10
169.6868000877867
 20
73.43358830629438
 30
0.0
 10
169.6399467891872
 20
73.47699650940854
 30
0.0
 10
169.6399467891872
 20
73.53556313265778
 30
0.0
 10
169.6399467891872
 20
73.53556313265778
 30
0.0
 10
169.6399467891872
 20
70.53557398410221
 30
0.0
 10
169.6399467891872
 20
70.53557398410221
 30
0.0
 10
169.6399467891872
 20
70.48045245633823
 30
0.0
 10
169.6819769541073
 20
70.43359915773883
 30
0.0
 10
169.7405435773565
 20
70.43359915773883
 30
0.0
 10
169.7405435773565
 20
70.43359915773883
 30
0.0
 10
175.7412108935647
 20
70.43359915773883
 30
0.0
 10
175.7412108935647
 20
70.43359915773883
 30
0.0
 10
175.7956434022317
 20
70.43359915773883
 30
0.0
 10
175.842496700831
 20
70.47700736085298
 30
0.0
 10
175.842496700831
 20
70.53557398410221
 30
0.0
 10
175.842496700831
 20
70.53557398410221
 30
0.0
 10
175.842496700831
 20
73.53556313265778
 30
0.0
 10
175.842496700831
 20
73.53556313265778
 30
0.0
 10
175.842496700831
 20
73.48044160489378
 30
0.0
 10
175.7997775168139
 20
73.43358830629438
 30
0.0
 10
175.7412108935647
 20
73.43358830629438
 30
0.0
 10
175.7412108935647
 20
73.43358830629438
 30
0.0
 10
181.7411891906758
 20
73.43358830629438
 30
0.0
 10
181.7411891906758
 20
73.43358830629438
 30
0.0
 10
181.6867566820089
 20
73.43358830629438
 30
0.0
 10
181.6399033834095
 20
73.47699650940854
 30
0.0
 10
181.6399033834095
 20
73.53556313265778
 30
0.0
 10
181.6399033834095
 20
73.53556313265778
 30
0.0
 10
181.6399033834095
 20
70.53557398410221
 30
0.0
 10
181.6399033834095
 20
70.53557398410221
 30
0.0
 10
181.6399033834095
 20
70.48045245633823
 30
0.0
 10
181.6826225674266
 20
70.43359915773883
 30
0.0
 10
181.7411891906758
 20
70.43359915773883
 30
0.0
 10
181.7411891906758
 20
70.43359915773883
 30
0.0
 10
187.741167487787
 20
70.43359915773883
 30
0.0
 10
187.741167487787
 20
70.43359915773883
 30
0.0
 10
187.7955999964539
 20
70.43359915773883
 30
0.0
 10
187.8424532950533
 20
70.47700736085298
 30
0.0
 10
187.8424532950533
 20
70.53557398410221
 30
0.0
 10
187.8424532950533
 20
70.53557398410221
 30
0.0
 10
187.8424532950533
 20
73.53556313265778
 30
0.0
 10
187.8424532950533
 20
73.53556313265778
 30
0.0
 10
187.8424532950533
 20
73.48044160489378
 30
0.0
 10
187.7997341110362
 20
73.43358830629438
 30
0.0
 10
187.741167487787
 20
73.43358830629438
 30
0.0
 10
187.741167487787
 20
73.43358830629438
 30
0.0
 10
193.7411457848981
 20
73.43358830629438
 30
0.0
 10
193.7411457848981
 20
73.43358830629438
 30
0.0
 10
193.6874022953282
 20
73.43358830629438
 30
0.0
 10
193.6398599776317
 20
73.47699650940854
 30
0.0
 10
193.6398599776317
 20
73.53556313265778
 30
0.0
 10
193.6398599776317
 20
73.53556313265778
 30
0.0
 10
193.6398599776317
 20
70.53557398410221
 30
0.0
 10
193.6398599776317
 20
70.53557398410221
 30
0.0
 10
193.6398599776317
 20
70.48045245633823
 30
0.0
 10
193.6825791616488
 20
70.43359915773883
 30
0.0
 10
193.7411457848981
 20
70.43359915773883
 30
0.0
 10
193.7411457848981
 20
70.43359915773883
 30
0.0
 10
199.7411240820092
 20
70.43359915773883
 30
0.0
 10
199.7411240820092
 20
70.43359915773883
 30
0.0
 10
199.7955565906761
 20
70.43359915773883
 30
0.0
 10
199.8424098892755
 20
70.47700736085298
 30
0.0
 10
199.8424098892755
 20
70.53557398410221
 30
0.0
 10
199.8424098892755
 20
70.53557398410221
 30
0.0
 10
199.8424098892755
 20
73.53556313265778
 30
0.0
 10
199.8424098892755
 20
73.53556313265778
 30
0.0
 10
199.8424098892755
 20
73.48044160489378
 30
0.0
 10
199.7996907052584
 20
73.43358830629438
 30
0.0
 10
199.7411240820092
 20
73.43358830629438
 30
0.0
 10
199.7411240820092
 20
73.43358830629438
 30
0.0
 10
205.7417913982173
 20
73.43358830629438
 30
0.0
 10
205.7417913982173
 20
73.43358830629438
 30
0.0
 10
205.6873588895504
 20
73.43358830629438
 30
0.0
 10
205.640505590951
 20
73.47699650940854
 30
0.0
 10
205.640505590951
 20
73.53556313265778
 30
0.0
 10
205.640505590951
 20
73.53556313265778
 30
0.0
 10
205.640505590951
 20
70.53557398410221
 30
0.0
 10
205.640505590951
 20
70.53557398410221
 30
0.0
 10
205.640505590951
 20
70.48045245633823
 30
0.0
 10
205.6832247749681
 20
70.43359915773883
 30
0.0
 10
205.7417913982173
 20
70.43359915773883
 30
0.0
 10
205.7417913982173
 20
70.43359915773883
 30
0.0
 10
211.7417696953285
 20
70.43359915773883
 30
0.0
 10
211.7417696953285
 20
70.43359915773883
 30
0.0
 10
211.7968912230924
 20
70.43359915773883
 30
0.0
 10
211.8437445216919
 20
70.47700736085298
 30
0.0
 10
211.8437445216919
 20
70.53557398410221
 30
0.0
 10
211.8437445216919
 20
70.53557398410221
 30
0.0
 10
211.8437445216919
 20
73.53556313265778
 30
0.0
 10
211.8437445216919
 20
73.53556313265778
 30
0.0
 10
211.8437445216919
 20
73.48044160489378
 30
0.0
 10
211.8003363185777
 20
73.43358830629438
 30
0.0
 10
211.7417696953285
 20
73.43358830629438
 30
0.0
 10
211.7417696953285
 20
73.43358830629438
 30
0.0
 10
217.7417479924396
 20
73.43358830629438
 30
0.0
 10
217.7417479924396
 20
73.43358830629438
 30
0.0
 10
217.6866264646756
 20
73.43358830629438
 30
0.0
 10
217.6397731660762
 20
73.47699650940854
 30
0.0
 10
217.6397731660762
 20
73.53556313265778
 30
0.0
 10
217.6397731660762
 20
73.53556313265778
 30
0.0
 10
217.6397731660762
 20
70.53557398410221
 30
0.0
 10
217.6397731660762
 20
70.53557398410221
 30
0.0
 10
217.6397731660762
 20
70.48045245633823
 30
0.0
 10
217.6831813691903
 20
70.43359915773883
 30
0.0
 10
217.7417479924396
 20
70.43359915773883
 30
0.0
 10
217.7417479924396
 20
70.43359915773883
 30
0.0
 10
223.7417262895507
 20
70.43359915773883
 30
0.0
 10
223.7417262895507
 20
70.43359915773883
 30
0.0
 10
223.7961587982176
 20
70.43359915773883
 30
0.0
 10
223.843012096817
 20
70.47700736085298
 30
0.0
 10
223.843012096817
 20
70.53557398410221
 30
0.0
 10
223.843012096817
 20
70.53557398410221
 30
0.0
 10
223.843012096817
 20
73.53556313265778
 30
0.0
 10
223.843012096817
 20
73.53556313265778
 30
0.0
 10
223.843012096817
 20
73.48044160489378
 30
0.0
 10
223.8002929127999
 20
73.43358830629438
 30
0.0
 10
223.7417262895507
 20
73.43358830629438
 30
0.0
 10
223.7417262895507
 20
73.43358830629438
 30
0.0
 10
229.7417045866618
 20
73.43358830629438
 30
0.0
 10
229.7417045866618
 20
73.43358830629438
 30
0.0
 10
229.6872720779949
 20
73.43358830629438
 30
0.0
 10
229.6397297602984
 20
73.47699650940854
 30
0.0
 10
229.6397297602984
 20
73.53556313265778
 30
0.0
 10
229.6397297602984
 20
73.53556313265778
 30
0.0
 10
229.6397297602984
 20
70.53557398410221
 30
0.0
 10
229.6397297602984
 20
70.53557398410221
 30
0.0
 10
229.6397297602984
 20
70.48045245633823
 30
0.0
 10
229.6831379634125
 20
70.43359915773883
 30
0.0
 10
229.7417045866618
 20
70.43359915773883
 30
0.0
 10
229.7417045866618
 20
70.43359915773883
 30
0.0
 10
235.74237190287
 20
70.43359915773883
 30
0.0
 10
235.74237190287
 20
70.43359915773883
 30
0.0
 10
235.7961153924399
 20
70.43359915773883
 30
0.0
 10
235.8429686910393
 20
70.47700736085298
 30
0.0
 10
235.8429686910393
 20
70.53557398410221
 30
0.0
 10
235.8429686910393
 20
70.53557398410221
 30
0.0
 10
235.8429686910393
 20
73.53556313265778
 30
0.0
 10
235.8429686910393
 20
73.53556313265778
 30
0.0
 10
235.8429686910393
 20
73.48044160489378
 30
0.0
 10
235.8009385261192
 20
73.43358830629438
 30
0.0
 10
235.74237190287
 20
73.43358830629438
 30
0.0
 10
235.74237190287
 20
73.43358830629438
 30
0.0
 10
241.7423501999811
 20
73.43358830629438
 30
0.0
 10
241.7423501999811
 20
73.43358830629438
 30
0.0
 10
241.6872286722171
 20
73.43358830629438
 30
0.0
 10
241.6403753736177
 20
73.47699650940854
 30
0.0
 10
241.6403753736177
 20
73.53556313265778
 30
0.0
 10
241.6403753736177
 20
73.53556313265778
 30
0.0
 10
241.6403753736177
 20
70.53557398410221
 30
0.0
 10
241.6403753736177
 20
70.53557398410221
 30
0.0
 10
241.6403753736177
 20
70.48045245633823
 30
0.0
 10
241.6837835767319
 20
70.43359915773883
 30
0.0
 10
241.7423501999811
 20
70.43359915773883
 30
0.0
 10
241.7423501999811
 20
70.43359915773883
 30
0.0
 10
247.7423284970922
 20
70.43359915773883
 30
0.0
 10
247.7423284970922
 20
70.43359915773883
 30
0.0
 10
247.7967610057592
 20
70.43359915773883
 30
0.0
 10
247.8436143043585
 20
70.47700736085298
 30
0.0
 10
247.8436143043585
 20
70.53557398410221
 30
0.0
 10
247.8436143043585
 20
70.53557398410221
 30
0.0
 10
247.8436143043585
 20
73.53556313265778
 30
0.0
 10
247.8436143043585
 20
73.53556313265778
 30
0.0
 10
247.8436143043585
 20
73.48044160489378
 30
0.0
 10
247.8008951203415
 20
73.43358830629438
 30
0.0
 10
247.7423284970922
 20
73.43358830629438
 30
0.0
 10
247.7423284970922
 20
73.43358830629438
 30
0.0
 10
253.7423067942033
 20
73.43358830629438
 30
0.0
 10
253.7423067942033
 20
73.43358830629438
 30
0.0
 10
253.6871852664393
 20
73.43358830629438
 30
0.0
 10
253.6403319678399
 20
73.47699650940854
 30
0.0
 10
253.6403319678399
 20
73.53556313265778
 30
0.0
 10
253.6403319678399
 20
73.53556313265778
 30
0.0
 10
253.6403319678399
 20
70.53557398410221
 30
0.0
 10
253.6403319678399
 20
70.53557398410221
 30
0.0
 10
253.6403319678399
 20
70.48045245633823
 30
0.0
 10
253.6837401709541
 20
70.43359915773883
 30
0.0
 10
253.7423067942033
 20
70.43359915773883
 30
0.0
 10
253.7423067942033
 20
70.43359915773883
 30
0.0
 10
259.7422850913144
 20
70.43359915773883
 30
0.0
 10
259.7422850913144
 20
70.43359915773883
 30
0.0
 10
259.7967175999814
 20
70.43359915773883
 30
0.0
 10
259.8435708985808
 20
70.47700736085298
 30
0.0
 10
259.8435708985808
 20
70.53557398410221
 30
0.0
 10
259.8435708985808
 20
70.53557398410221
 30
0.0
 10
259.8435708985808
 20
73.53556313265778
 30
0.0
 10
259.8435708985808
 20
73.53556313265778
 30
0.0
 10
259.8435708985808
 20
73.48044160489378
 30
0.0
 10
259.8008517145637
 20
73.43358830629438
 30
0.0
 10
259.7422850913144
 20
73.43358830629438
 30
0.0
 10
259.7422850913144
 20
73.43358830629438
 30
0.0
 10
265.7422633884256
 20
73.43358830629438
 30
0.0
 10
265.7422633884256
 20
73.43358830629438
 30
0.0
 10
265.6878308797586
 20
73.43358830629438
 30
0.0
 10
265.6409775811592
 20
73.47699650940854
 30
0.0
 10
265.6409775811592
 20
73.53556313265778
 30
0.0
 10
265.6409775811592
 20
73.53556313265778
 30
0.0
 10
265.6409775811592
 20
70.53557398410221
 30
0.0
 10
265.6409775811592
 20
70.53557398410221
 30
0.0
 10
265.6409775811592
 20
70.48045245633823
 30
0.0
 10
265.6836967651763
 20
70.43359915773883
 30
0.0
 10
265.7422633884256
 20
70.43359915773883
 30
0.0
 10
265.7422633884256
 20
70.43359915773883
 30
0.0
 10
271.7422416855367
 20
70.43359915773883
 30
0.0
 10
271.7422416855367
 20
70.43359915773883
 30
0.0
 10
271.7966741942036
 20
70.43359915773883
 30
0.0
 10
271.843527492803
 20
70.47700736085298
 30
0.0
 10
271.843527492803
 20
70.53557398410221
 30
0.0
 10
271.843527492803
 20
70.53557398410221
 30
0.0
 10
271.843527492803
 20
73.53556313265778
 30
0.0
 10
271.843527492803
 20
73.53556313265778
 30
0.0
 10
271.843527492803
 20
73.53556313265778
 30
0.0
 10
271.843527492803
 20
82.03530271386617
 30
0.0
 10
271.843527492803
 20
82.03530271386617
 30
0.0
 10
271.843527492803
 20
81.98087020519922
 30
0.0
 10
271.8008083087859
 20
81.93401690659984
 30
0.0
 10
271.7422416855367
 20
81.93401690659984
 30
0.0
 10
271.7422416855367
 20
81.93401690659984
 30
0.0
 10
274.7422308340923
 20
81.93401690659984
 30
0.0
 10
274.7422308340923
 20
81.93401690659984
 30
0.0
 10
274.7966633427592
 20
81.93401690659984
 30
0.0
 10
274.8435166413586
 20
81.97673609061692
 30
0.0
 10
274.8435166413586
 20
82.03530271386617
 30
0.0
 10
274.8435166413586
 20
82.03530271386617
 30
0.0
 10
274.8435166413586
 20
88.0352810109773
 30
0.0
 10
274.8435166413586
 20
88.0352810109773
 30
0.0
 10
274.8435166413586
 20
88.09040253874129
 30
0.0
 10
274.8007974573415
 20
88.13725583734069
 30
0.0
 10
274.7422308340923
 20
88.13725583734069
 30
0.0
 10
274.7422308340923
 20
88.13725583734069
 30
0.0
 10
271.7422416855367
 20
88.13725583734069
 30
0.0
 10
271.7422416855367
 20
88.13725583734069
 30
0.0
 10
271.7966741942036
 20
88.13725583734069
 30
0.0
 10
271.843527492803
 20
88.09384763422655
 30
0.0
 10
271.843527492803
 20
88.0352810109773
 30
0.0
 10
271.843527492803
 20
88.0352810109773
 30
0.0
 10
271.843527492803
 20
94.03525930808841
 30
0.0
 10
271.843527492803
 20
94.03525930808841
 30
0.0
 10
271.843527492803
 20
93.98117130896999
 30
0.0
 10
271.8008083087859
 20
93.93397350082206
 30
0.0
 10
271.7422416855367
 20
93.93397350082206
 30
0.0
 10
271.7422416855367
 20
93.93397350082206
 30
0.0
 10
274.7422308340923
 20
93.93397350082206
 30
0.0
 10
274.7422308340923
 20
93.93397350082206
 30
0.0
 10
274.7966633427592
 20
93.93397350082206
 30
0.0
 10
274.8435166413586
 20
93.97669268483916
 30
0.0
 10
274.8435166413586
 20
94.03525930808841
 30
0.0
 10
274.8435166413586
 20
94.03525930808841
 30
0.0
 10
274.8435166413586
 20
100.0352376051995
 30
0.0
 10
274.8435166413586
 20
100.0352376051995
 30
0.0
 10
274.8435166413586
 20
100.0903591329635
 30
0.0
 10
274.8007974573415
 20
100.1372124315629
 30
0.0
 10
274.7422308340923
 20
100.1372124315629
 30
0.0
 10
274.7422308340923
 20
100.1372124315629
 30
0.0
 10
271.7422416855367
 20
100.1372124315629
 30
0.0
 10
271.7422416855367
 20
100.1372124315629
 30
0.0
 10
271.7966741942036
 20
100.1372124315629
 30
0.0
 10
271.843527492803
 20
100.0938042284488
 30
0.0
 10
271.843527492803
 20
100.0352376051995
 30
0.0
 10
271.843527492803
 20
100.0352376051995
 30
0.0
 10
271.843527492803
 20
108.5360107150535
 30
0.0
 10
271.843527492803
 20
108.5360107150535
 30
0.0
 10
271.843527492803
 20
108.5900987141719
 30
0.0
 10
271.8008083087859
 20
108.6372965223198
 30
0.0
 10
271.7422416855367
 20
108.6372965223198
 30
0.0
 10
271.7422416855367
 20
108.6372965223198
 30
0.0
 10
271.7422416855367
 20
108.6372965223198
 30
0.0
 10
271.7422416855367
 20
108.6372965223198
 30
0.0
  0
SPLINE
  5
3D
330
1F
100
AcDbEntity
  8
Calque 1
 62
   175
420
  3822500
370
     9
100
AcDbSpline
210
0.0
220
0.0
230
1.0
 70
     8
 71
     3
 72
    38
 73
    34
 74
     0
 42
0.0000000001
 43
0.0000000001
 40
0.0
 40
0.0
 40
0.0
 40
0.0
 40
1.0
 40
1.0
 40
1.0
 40
2.0
 40
2.0
 40
2.0
 40
3.0
 40
3.0
 40
3.0
 40
4.0
 40
4.0
 40
4.0
 40
5.0
 40
5.0
 40
5.0
 40
6.0
 40
6.0
 40
6.0
 40
7.0
 40
7.0
 40
7.0
 40
8.0
 40
8.0
 40
8.0
 40
9.0
 40
9.0
 40
9.0
 40
10.0
 40
10.0
 40
10.0
 40
11.0
 40
11.0
 40
11.0
 40
11.0
 10
268.8421603060534
 20
117.636919458438
 30
0.0
 10
268.8421603060534
 20
118.7696668539881
 30
0.0
 10
269.1673773198609
 20
119.8755425047533
 30
0.0
 10
269.775781182556
 20
120.8284559159734
 30
0.0
 10
270.3890081789305
 20
121.7813693271936
 30
0.0
 10
271.2606173366988
 20
122.5351562193662
 30
0.0
 10
272.2879448104002
 20
123.0043782244572
 30
0.0
 10
273.3152722841018
 20
123.4729112104512
 30
0.0
 10
274.4597330043018
 20
123.6368977555491
 30
0.0
 10
275.5766329606197
 20
123.4770453250335
 30
0.0
 10
276.69766703152
 20
123.3165038754209
 30
0.0
 10
277.744976059036
 20
122.8366020743256
 30
0.0
 10
278.600048758475
 20
122.0941839972542
 30
0.0
 10
279.4558104770111
 20
121.3521104297314
 30
0.0
 10
280.0807507980354
 20
120.3833495792792
 30
0.0
 10
280.3970105635813
 20
119.2974554823284
 30
0.0
 10
280.7174044437095
 20
118.2115613853777
 30
0.0
 10
280.7174044437095
 20
117.0588324360131
 30
0.0
 10
280.3970105635813
 20
115.9729383390623
 30
0.0
 10
280.0766166834531
 20
114.8870442421116
 30
0.0
 10
279.4558104770111
 20
113.9182833916593
 30
0.0
 10
278.600048758475
 20
113.1762098241365
 30
0.0
 10
277.744976059036
 20
112.4337917470652
 30
0.0
 10
276.6942219360348
 20
111.9573350414551
 30
0.0
 10
275.5766329606197
 20
111.7933484963572
 30
0.0
 10
274.4555988897195
 20
111.6328070467446
 30
0.0
 10
273.3152722841018
 20
111.7974826109395
 30
0.0
 10
272.2879448104002
 20
112.2660155969335
 30
0.0
 10
271.2606173366988
 20
112.7345485829275
 30
0.0
 10
270.3855630834453
 20
113.4924695896824
 30
0.0
 10
269.775781182556
 20
114.4419379054173
 30
0.0
 10
269.1625541861816
 20
115.3948513166374
 30
0.0
 10
268.8387152105681
 20
116.5000379483055
 30
0.0
 10
268.8387152105681
 20
117.6327853438557
 30
0.0
  0
SPLINE
  5
3E
330
1F
100
AcDbEntity
  8
Calque 1
 62
   175
420
  3822500
370
     9
100
AcDbSpline
210
0.0
220
0.0
230
1.0
 70
     8
 71
     3
 72
    29
 73
    25
 74
     0
 42
0.0000000001
 43
0.0000000001
 40
0.0
 40
0.0
 40
0.0
 40
0.0
 40
1.0
 40
1.0
 40
1.0
 40
2.0
 40
2.0
 40
2.0
 40
3.0
 40
3.0
 40
3.0
 40
4.0
 40
4.0
 40
4.0
 40
5.0
 40
5.0
 40
5.0
 40
6.0
 40
6.0
 40
6.0
 40
7.0
 40
7.0
 40
7.0
 40
8.0
 40
8.0
 40
8.0
 40
8.0
 10
274.7408527958981
 20
122.0280381639374
 30
0.0
 10
274.6864202872312
 20
122.0280381639374
 30
0.0
 10
274.6395669886318
 20
122.0707573479545
 30
0.0
 10
274.6395669886318
 20
122.124845347073
 30
0.0
 10
274.6395669886318
 20
122.124845347073
 30
0.0
 10
274.6395669886318
 20
117.6365749488895
 30
0.0
 10
274.6395669886318
 20
117.6365749488895
 30
0.0
 10
274.6395669886318
 20
117.6916964766535
 30
0.0
 10
274.6822861726489
 20
117.7385497752529
 30
0.0
 10
274.7408527958981
 20
117.7385497752529
 30
0.0
 10
274.7408527958981
 20
117.7385497752529
 30
0.0
 10
271.7408636473426
 20
117.7385497752529
 30
0.0
 10
271.7408636473426
 20
117.7385497752529
 30
0.0
 10
271.7952961560095
 20
117.7385497752529
 30
0.0
 10
271.8421494546089
 20
117.6951415721387
 30
0.0
 10
271.8421494546089
 20
117.6365749488895
 30
0.0
 10
271.8421494546089
 20
117.6365749488895
 30
0.0
 10
271.8421494546089
 20
122.124845347073
 30
0.0
 10
271.8421494546089
 20
122.124845347073
 30
0.0
 10
271.8421494546089
 20
122.0707573479545
 30
0.0
 10
271.7994302705918
 20
122.0235595398066
 30
0.0
 10
271.7408636473426
 20
122.0235595398066
 30
0.0
 10
271.7408636473426
 20
122.0235595398066
 30
0.0
 10
274.7408527958981
 20
122.0235595398066
 30
0.0
 10
274.7408527958981
 20
122.0235595398066
 30
0.0
  0
SPLINE
  5
3F
330
1F
100
AcDbEntity
  8
Calque 1
 62
    18
420
    65793
370
     9
100
AcDbSpline
210
0.0
220
0.0
230
1.0
 70
     8
 71
     3
 72
   131
 73
   127
 74
     0
 42
0.0000000001
 43
0.0000000001
 40
0.0
 40
0.0
 40
0.0
 40
0.0
 40
1.0
 40
1.0
 40
1.0
 40
2.0
 40
2.0
 40
2.0
 40
3.0
 40
3.0
 40
3.0
 40
4.0
 40
4.0
 40
4.0
 40
5.0
 40
5.0
 40
5.0
 40
6.0
 40
6.0
 40
6.0
 40
7.0
 40
7.0
 40
7.0
 40
8.0
 40
8.0
 40
8.0
 40
9.0
 40
9.0
 40
9.0
 40
10.0
 40
10.0
 40
10.0
 40
11.0
 40
11.0
 40
11.0
 40
12.0
 40
12.0
 40
12.0
 40
13.0
 40
13.0
 40
13.0
 40
14.0
 40
14.0
 40
14.0
 40
15.0
 40
15.0
 40
15.0
 40
16.0
 40
16.0
 40
16.0
 40
17.0
 40
17.0
 40
17.0
 40
18.0
 40
18.0
 40
18.0
 40
19.0
 40
19.0
 40
19.0
 40
20.0
 40
20.0
 40
20.0
 40
21.0
 40
21.0
 40
21.0
 40
22.0
 40
22.0
 40
22.0
 40
23.0
 40
23.0
 40
23.0
 40
24.0
 40
24.0
 40
24.0
 40
25.0
 40
25.0
 40
25.0
 40
26.0
 40
26.0
 40
26.0
 40
27.0
 40
27.0
 40
27.0
 40
28.0
 40
28.0
 40
28.0
 40
29.0
 40
29.0
 40
29.0
 40
30.0
 40
30.0
 40
30.0
 40
31.0
 40
31.0
 40
31.0
 40
32.0
 40
32.0
 40
32.0
 40
33.0
 40
33.0
 40
33.0
 40
34.0
 40
34.0
 40
34.0
 40
35.0
 40
35.0
 40
35.0
 40
36.0
 40
36.0
 40
36.0
 40
37.0
 40
37.0
 40
37.0
 40
38.0
 40
38.0
 40
38.0
 40
39.0
 40
39.0
 40
39.0
 40
40.0
 40
40.0
 40
40.0
 40
41.0
 40
41.0
 40
41.0
 40
42.0
 40
42.0
 40
42.0
 40
42.0
 10
271.7408636473426
 20
108.6369520127713
 30
0.0
 10
271.8738443330732
 20
108.6369520127713
 30
0.0
 10
271.8738443330732
 20
108.4378254937239
 30
0.0
 10
271.7408636473426
 20
108.4378254937239
 30
0.0
 10
271.7408636473426
 20
108.4378254937239
 30
0.0
 10
274.7408527958981
 20
108.4378254937239
 30
0.0
 10
274.7408527958981
 20
108.4378254937239
 30
0.0
 10
276.5419487155867
 20
108.4378254937239
 30
0.0
 10
278.2996364321612
 20
108.9731933321317
 30
0.0
 10
279.7954968918567
 20
109.9729600419512
 30
0.0
 10
281.2913573515522
 20
110.9727267517707
 30
0.0
 10
282.4592447210518
 20
112.3948621680818
 30
0.0
 10
283.1468857799077
 20
114.0547091728752
 30
0.0
 10
283.8345268387636
 20
115.7193793113479
 30
0.0
 10
284.0143608230936
 20
117.5473469758215
 30
0.0
 10
283.6664061790834
 20
119.3126139024635
 30
0.0
 10
283.3150064395879
 20
121.0785698482026
 30
0.0
 10
282.447531396402
 20
122.6998317835612
 30
0.0
 10
281.1742241050537
 20
123.9731390749095
 30
0.0
 10
279.9016058328024
 20
125.2464463662578
 30
0.0
 10
278.2803438974438
 20
126.1139214094437
 30
0.0
 10
276.5143879517047
 20
126.4653211489392
 30
0.0
 10
274.7484320059657
 20
126.8163763788862
 30
0.0
 10
272.9204643414921
 20
126.6365423945561
 30
0.0
 10
271.2571722412135
 20
125.945456240215
 30
0.0
 10
269.5931911218378
 20
125.2578151813592
 30
0.0
 10
268.1710557055267
 20
124.0899278118595
 30
0.0
 10
267.1754231102895
 20
122.5933783330669
 30
0.0
 10
266.1749673813729
 20
121.0975178733715
 30
0.0
 10
265.6402885620622
 20
119.3356960422147
 30
0.0
 10
265.6402885620622
 20
117.5387342371084
 30
0.0
 10
265.6402885620622
 20
117.5938557648724
 30
0.0
 10
265.6830077460793
 20
117.6407090634718
 30
0.0
 10
265.7415743693285
 20
117.6407090634718
 30
0.0
 10
265.7415743693285
 20
117.6407090634718
 30
0.0
 10
157.7405869831343
 20
117.6407090634718
 30
0.0
 10
157.7405869831343
 20
117.6407090634718
 30
0.0
 10
157.6861544744673
 20
117.6407090634718
 30
0.0
 10
157.639301175868
 20
117.5973008603576
 30
0.0
 10
157.639301175868
 20
117.5387342371084
 30
0.0
 10
157.639301175868
 20
117.5387342371084
 30
0.0
 10
157.639301175868
 20
117.5387342371084
 30
0.0
 10
157.639301175868
 20
117.5387342371084
 30
0.0
 10
157.639301175868
 20
117.5387342371084
 30
0.0
 10
157.639301175868
 20
110.5389892301778
 30
0.0
 10
157.639301175868
 20
110.5389892301778
 30
0.0
 10
157.639301175868
 20
110.5934217388447
 30
0.0
 10
157.6820203598851
 20
110.6402750374441
 30
0.0
 10
157.7405869831343
 20
110.6402750374441
 30
0.0
 10
157.7405869831343
 20
110.6402750374441
 30
0.0
 10
154.7405978345788
 20
110.6402750374441
 30
0.0
 10
154.7405978345788
 20
110.6402750374441
 30
0.0
 10
154.6861653259118
 20
110.6402750374441
 30
0.0
 10
154.6393120273124
 20
110.597555853427
 30
0.0
 10
154.6393120273124
 20
110.5389892301778
 30
0.0
 10
154.6393120273124
 20
110.5389892301778
 30
0.0
 10
154.6393120273124
 20
104.5390109330666
 30
0.0
 10
154.6393120273124
 20
104.5390109330666
 30
0.0
 10
154.6393120273124
 20
104.4845784243997
 30
0.0
 10
154.6820312113295
 20
104.4377251258003
 30
0.0
 10
154.7405978345788
 20
104.4377251258003
 30
0.0
 10
154.7405978345788
 20
104.4377251258003
 30
0.0
 10
157.7405869831343
 20
104.4377251258003
 30
0.0
 10
157.7405869831343
 20
104.4377251258003
 30
0.0
 10
157.6861544744673
 20
104.4377251258003
 30
0.0
 10
157.639301175868
 20
104.4804443098174
 30
0.0
 10
157.639301175868
 20
104.5390109330666
 30
0.0
 10
157.639301175868
 20
104.5390109330666
 30
0.0
 10
157.639301175868
 20
98.53903263595552
 30
0.0
 10
157.639301175868
 20
98.53903263595552
 30
0.0
 10
157.639301175868
 20
98.59312063507394
 30
0.0
 10
157.6820203598851
 20
98.63997393367335
 30
0.0
 10
157.7405869831343
 20
98.63997393367335
 30
0.0
 10
157.7405869831343
 20
98.63997393367335
 30
0.0
 10
154.7405978345788
 20
98.63997393367335
 30
0.0
 10
154.7405978345788
 20
98.63997393367335
 30
0.0
 10
154.6861653259118
 20
98.63997393367335
 30
0.0
 10
154.6393120273124
 20
98.59759925920477
 30
0.0
 10
154.6393120273124
 20
98.53903263595552
 30
0.0
 10
154.6393120273124
 20
98.53903263595552
 30
0.0
 10
154.6393120273124
 20
92.53870982929588
 30
0.0
 10
154.6393120273124
 20
92.53870982929588
 30
0.0
 10
154.6393120273124
 20
92.48462183017746
 30
0.0
 10
154.6820312113295
 20
92.43776853157806
 30
0.0
 10
154.7405978345788
 20
92.43776853157806
 30
0.0
 10
154.7405978345788
 20
92.43776853157806
 30
0.0
 10
157.7405869831343
 20
92.43776853157806
 30
0.0
 10
157.7405869831343
 20
92.43776853157806
 30
0.0
 10
157.6861544744673
 20
92.43776853157806
 30
0.0
 10
157.639301175868
 20
92.48014320604663
 30
0.0
 10
157.639301175868
 20
92.53870982929588
 30
0.0
 10
157.639301175868
 20
92.53870982929588
 30
0.0
 10
157.639301175868
 20
86.53873153218477
 30
0.0
 10
157.639301175868
 20
86.53873153218477
 30
0.0
 10
157.639301175868
 20
86.59316404085172
 30
0.0
 10
157.6820203598851
 20
86.6400173394511
 30
0.0
 10
157.7405869831343
 20
86.6400173394511
 30
0.0
 10
157.7405869831343
 20
86.6400173394511
 30
0.0
 10
154.7405978345788
 20
86.6400173394511
 30
0.0
 10
154.7405978345788
 20
86.6400173394511
 30
0.0
 10
154.6861653259118
 20
86.6400173394511
 30
0.0
 10
154.6393120273124
 20
86.59729815543402
 30
0.0
 10
154.6393120273124
 20
86.53873153218477
 30
0.0
 10
154.6393120273124
 20
86.53873153218477
 30
0.0
 10
154.6393120273124
 20
80.53875323507364
 30
0.0
 10
154.6393120273124
 20
80.53875323507364
 30
0.0
 10
154.6393120273124
 20
80.48432072640671
 30
0.0
 10
154.6820312113295
 20
80.43677840871025
 30
0.0
 10
154.7405978345788
 20
80.43677840871025
 30
0.0
 10
154.7405978345788
 20
80.43677840871025
 30
0.0
 10
157.7405869831343
 20
80.43677840871025
 30
0.0
 10
157.7405869831343
 20
80.43677840871025
 30
0.0
 10
157.6861544744673
 20
80.43677840871025
 30
0.0
 10
157.639301175868
 20
80.48018661182441
 30
0.0
 10
157.639301175868
 20
80.53875323507364
 30
0.0
 10
157.639301175868
 20
80.53875323507364
 30
0.0
 10
157.639301175868
 20
73.53900822814303
 30
0.0
 10
157.639301175868
 20
73.53900822814303
 30
0.0
 10
157.639301175868
 20
73.53900822814303
 30
0.0
 10
157.639301175868
 20
70.53901907958748
 30
0.0
 10
157.639301175868
 20
70.53901907958748
 30
0.0
 10
157.639301175868
 20
70.48389755182347
 30
0.0
 10
157.6820203598851
 20
70.43704425322407
 30
0.0
 10
157.7405869831343
 20
70.43704425322407
 30
0.0
 10
157.7405869831343
 20
70.43704425322407
 30
0.0
 10
157.7405869831343
 20
70.43704425322407
 30
0.0
 10
157.7405869831343
 20
70.43704425322407
 30
0.0
  0
SPLINE
  5
40
330
1F
100
AcDbEntity
  8
Calque 1
 62
    18
420
    65793
370
     9
100
AcDbSpline
210
0.0
220
0.0
230
1.0
 70
     8
 71
     3
 72
   311
 73
   307
 74
     0
 42
0.0000000001
 43
0.0000000001
 40
0.0
 40
0.0
 40
0.0
 40
0.0
 40
1.0
 40
1.0
 40
1.0
 40
2.0
 40
2.0
 40
2.0
 40
3.0
 40
3.0
 40
3.0
 40
4.0
 40
4.0
 40
4.0
 40
5.0
 40
5.0
 40
5.0
 40
6.0
 40
6.0
 40
6.0
 40
7.0
 40
7.0
 40
7.0
 40
8.0
 40
8.0
 40
8.0
 40
9.0
 40
9.0
 40
9.0
 40
10.0
 40
10.0
 40
10.0
 40
11.0
 40
11.0
 40
11.0
 40
12.0
 40
12.0
 40
12.0
 40
13.0
 40
13.0
 40
13.0
 40
14.0
 40
14.0
 40
14.0
 40
15.0
 40
15.0
 40
15.0
 40
16.0
 40
16.0
 40
16.0
 40
17.0
 40
17.0
 40
17.0
 40
18.0
 40
18.0
 40
18.0
 40
19.0
 40
19.0
 40
19.0
 40
20.0
 40
20.0
 40
20.0
 40
21.0
 40
21.0
 40
21.0
 40
22.0
 40
22.0
 40
22.0
 40
23.0
 40
23.0
 40
23.0
 40
24.0
 40
24.0
 40
24.0
 40
25.0
 40
25.0
 40
25.0
 40
26.0
 40
26.0
 40
26.0
 40
27.0
 40
27.0
 40
27.0
 40
28.0
 40
28.0
 40
28.0
 40
29.0
 40
29.0
 40
29.0
 40
30.0
 40
30.0
 40
30.0
 40
31.0
 40
31.0
 40
31.0
 40
32.0
 40
32.0
 40
32.0
 40
33.0
 40
33.0
 40
33.0
 40
34.0
 40
34.0
 40
34.0
 40
35.0
 40
35.0
 40
35.0
 40
36.0
 40
36.0
 40
36.0
 40
37.0
 40
37.0
 40
37.0
 40
38.0
 40
38.0
 40
38.0
 40
39.0
 40
39.0
 40
39.0
 40
40.0
 40
40.0
 40
40.0
 40
41.0
 40
41.0
 40
41.0
 40
42.0
 40
42.0
 40
42.0
 40
43.0
 40
43.0
 40
43.0
 40
44.0
 40
44.0
 40
44.0
 40
45.0
 40
45.0
 40
45.0
 40
46.0
 40
46.0
 40
46.0
 40
47.0
 40
47.0
 40
47.0
 40
48.0
 40
48.0
 40
48.0
 40
49.0
 40
49.0
 40
49.0
 40
50.0
 40
50.0
 40
50.0
 40
51.0
 40
51.0
 40
51.0
 40
52.0
 40
52.0
 40
52.0
 40
53.0
 40
53.0
 40
53.0
 40
54.0
 40
54.0
 40
54.0
 40
55.0
 40
55.0
 40
55.0
 40
56.0
 40
56.0
 40
56.0
 40
57.0
 40
57.0
 40
57.0
 40
58.0
 40
58.0
 40
58.0
 40
59.0
 40
59.0
 40
59.0
 40
60.0
 40
60.0
 40
60.0
 40
61.0
 40
61.0
 40
61.0
 40
62.0
 40
62.0
 40
62.0
 40
63.0
 40
63.0
 40
63.0
 40
64.0
 40
64.0
 40
64.0
 40
65.0
 40
65.0
 40
65.0
 40
66.0
 40
66.0
 40
66.0
 40
67.0
 40
67.0
 40
67.0
 40
68.0
 40
68.0
 40
68.0
 40
69.0
 40
69.0
 40
69.0
 40
70.0
 40
70.0
 40
70.0
 40
71.0
 40
71.0
 40
71.0
 40
72.0
 40
72.0
 40
72.0
 40
73.0
 40
73.0
 40
73.0
 40
74.0
 40
74.0
 40
74.0
 40
75.0
 40
75.0
 40
75.0
 40
76.0
 40
76.0
 40
76.0
 40
77.0
 40
77.0
 40
77.0
 40
78.0
 40
78.0
 40
78.0
 40
79.0
 40
79.0
 40
79.0
 40
80.0
 40
80.0
 40
80.0
 40
81.0
 40
81.0
 40
81.0
 40
82.0
 40
82.0
 40
82.0
 40
83.0
 40
83.0
 40
83.0
 40
84.0
 40
84.0
 40
84.0
 40
85.0
 40
85.0
 40
85.0
 40
86.0
 40
86.0
 40
86.0
 40
87.0
 40
87.0
 40
87.0
 40
88.0
 40
88.0
 40
88.0
 40
89.0
 40
89.0
 40
89.0
 40
90.0
 40
90.0
 40
90.0
 40
91.0
 40
91.0
 40
91.0
 40
92.0
 40
92.0
 40
92.0
 40
93.0
 40
93.0
 40
93.0
 40
94.0
 40
94.0
 40
94.0
 40
95.0
 40
95.0
 40
95.0
 40
96.0
 40
96.0
 40
96.0
 40
97.0
 40
97.0
 40
97.0
 40
98.0
 40
98.0
 40
98.0
 40
99.0
 40
99.0
 40
99.0
 40
100.0
 40
100.0
 40
100.0
 40
101.0
 40
101.0
 40
101.0
 40
102.0
 40
102.0
 40
102.0
 40
102.0
 10
157.7405869831343
 20
117.636919458438
 30
0.0
 10
157.7405869831343
 20
117.636919458438
 30
0.0
 10
265.4397840048206
 20
117.636919458438
 30
0.0
 10
265.4397840048206
 20
117.636919458438
 30
0.0
 10
265.4949055325846
 20
117.636919458438
 30
0.0
 10
265.541758831184
 20
117.6796386424551
 30
0.0
 10
265.541758831184
 20
117.7382052657043
 30
0.0
 10
265.541758831184
 20
119.3511989718983
 30
0.0
 10
265.9675726331609
 20
120.9414550478896
 30
0.0
 10
266.7757920340005
 20
122.339474795804
 30
0.0
 10
267.5847004539372
 20
123.7381835628155
 30
0.0
 10
268.7450086133693
 20
124.8984917222476
 30
0.0
 10
270.1430283612837
 20
125.7067111230872
 30
0.0
 10
271.5417371282952
 20
126.5156195430239
 30
0.0
 10
273.1278590897041
 20
126.9414333450008
 30
0.0
 10
274.7449869104804
 20
126.9414333450008
 30
0.0
 10
274.6120062247498
 20
126.9414333450008
 30
0.0
 10
274.6120062247498
 20
127.1405598640482
 30
0.0
 10
274.7449869104804
 20
127.1405598640482
 30
0.0
 10
274.7449869104804
 20
127.1405598640482
 30
0.0
 10
271.7449977619249
 20
127.1405598640482
 30
0.0
 10
271.7449977619249
 20
127.1405598640482
 30
0.0
 10
271.8772894285585
 20
127.1405598640482
 30
0.0
 10
271.8772894285585
 20
126.9414333450008
 30
0.0
 10
271.7449977619249
 20
126.9414333450008
 30
0.0
 10
271.7449977619249
 20
126.9414333450008
 30
0.0
 10
271.7449977619249
 20
126.9414333450008
 30
0.0
 10
271.7449977619249
 20
126.9414333450008
 30
0.0
 10
271.7994302705918
 20
126.9414333450008
 30
0.0
 10
271.8462835691912
 20
126.9841525290179
 30
0.0
 10
271.8462835691912
 20
127.0427191522671
 30
0.0
 10
271.8462835691912
 20
127.0427191522671
 30
0.0
 10
271.8462835691912
 20
127.0427191522671
 30
0.0
 10
271.8462835691912
 20
127.0427191522671
 30
0.0
 10
271.8462835691912
 20
127.0427191522671
 30
0.0
 10
271.8462835691912
 20
132.3943304790542
 30
0.0
 10
271.8462835691912
 20
132.3943304790542
 30
0.0
 10
271.8462835691912
 20
132.3943304790542
 30
0.0
 10
271.8462835691912
 20
137.7459418058413
 30
0.0
 10
271.8462835691912
 20
137.7459418058413
 30
0.0
 10
271.8462835691912
 20
137.7459418058413
 30
0.0
 10
271.8462835691912
 20
140.7459309543969
 30
0.0
 10
271.8462835691912
 20
140.7459309543969
 30
0.0
 10
271.8462835691912
 20
140.8003634630638
 30
0.0
 10
271.8035643851741
 20
140.8472167616632
 30
0.0
 10
271.7449977619249
 20
140.8472167616632
 30
0.0
 10
271.7449977619249
 20
140.8472167616632
 30
0.0
 10
271.7449977619249
 20
140.8472167616632
 30
0.0
 10
271.7449977619249
 20
140.8472167616632
 30
0.0
 10
271.7449977619249
 20
140.8472167616632
 30
0.0
 10
265.7450194648138
 20
140.8472167616632
 30
0.0
 10
265.7450194648138
 20
140.8472167616632
 30
0.0
 10
265.6898979370497
 20
140.8472167616632
 30
0.0
 10
265.6430446384504
 20
140.8044975776461
 30
0.0
 10
265.6430446384504
 20
140.7459309543969
 30
0.0
 10
265.6430446384504
 20
140.7459309543969
 30
0.0
 10
265.6430446384504
 20
137.7459418058413
 30
0.0
 10
265.6430446384504
 20
137.7459418058413
 30
0.0
 10
265.6430446384504
 20
137.8003743145082
 30
0.0
 10
265.6864528415645
 20
137.8472276131076
 30
0.0
 10
265.7450194648138
 20
137.8472276131076
 30
0.0
 10
265.7450194648138
 20
137.8472276131076
 30
0.0
 10
259.7450411677027
 20
137.8472276131076
 30
0.0
 10
259.7450411677027
 20
137.8472276131076
 30
0.0
 10
259.7994736763696
 20
137.8472276131076
 30
0.0
 10
259.846326974969
 20
137.8045084290905
 30
0.0
 10
259.846326974969
 20
137.7459418058413
 30
0.0
 10
259.846326974969
 20
137.7459418058413
 30
0.0
 10
259.846326974969
 20
140.7459309543969
 30
0.0
 10
259.846326974969
 20
140.7459309543969
 30
0.0
 10
259.846326974969
 20
140.8003634630638
 30
0.0
 10
259.8036077909519
 20
140.8472167616632
 30
0.0
 10
259.7450411677027
 20
140.8472167616632
 30
0.0
 10
259.7450411677027
 20
140.8472167616632
 30
0.0
 10
253.7450628705915
 20
140.8472167616632
 30
0.0
 10
253.7450628705915
 20
140.8472167616632
 30
0.0
 10
253.6899413428275
 20
140.8472167616632
 30
0.0
 10
253.6430880442281
 20
140.8044975776461
 30
0.0
 10
253.6430880442281
 20
140.7459309543969
 30
0.0
 10
253.6430880442281
 20
140.7459309543969
 30
0.0
 10
253.6430880442281
 20
137.7459418058413
 30
0.0
 10
253.6430880442281
 20
137.7459418058413
 30
0.0
 10
253.6430880442281
 20
137.8003743145082
 30
0.0
 10
253.6858072282452
 20
137.8472276131076
 30
0.0
 10
253.7450628705915
 20
137.8472276131076
 30
0.0
 10
253.7450628705915
 20
137.8472276131076
 30
0.0
 10
247.7450845734804
 20
137.8472276131076
 30
0.0
 10
247.7450845734804
 20
137.8472276131076
 30
0.0
 10
247.7995170821474
 20
137.8472276131076
 30
0.0
 10
247.8463703807467
 20
137.8045084290905
 30
0.0
 10
247.8463703807467
 20
137.7459418058413
 30
0.0
 10
247.8463703807467
 20
137.7459418058413
 30
0.0
 10
247.8463703807467
 20
140.7459309543969
 30
0.0
 10
247.8463703807467
 20
140.7459309543969
 30
0.0
 10
247.8463703807467
 20
140.8003634630638
 30
0.0
 10
247.8036511967296
 20
140.8472167616632
 30
0.0
 10
247.7450845734804
 20
140.8472167616632
 30
0.0
 10
247.7450845734804
 20
140.8472167616632
 30
0.0
 10
241.7444172572722
 20
140.8472167616632
 30
0.0
 10
241.7444172572722
 20
140.8472167616632
 30
0.0
 10
241.6899847486053
 20
140.8472167616632
 30
0.0
 10
241.6431314500059
 20
140.8044975776461
 30
0.0
 10
241.6431314500059
 20
140.7459309543969
 30
0.0
 10
241.6431314500059
 20
140.7459309543969
 30
0.0
 10
241.6431314500059
 20
137.7459418058413
 30
0.0
 10
241.6431314500059
 20
137.7459418058413
 30
0.0
 10
241.6431314500059
 20
137.8003743145082
 30
0.0
 10
241.685850634023
 20
137.8472276131076
 30
0.0
 10
241.7444172572722
 20
137.8472276131076
 30
0.0
 10
241.7444172572722
 20
137.8472276131076
 30
0.0
 10
235.7444389601611
 20
137.8472276131076
 30
0.0
 10
235.7444389601611
 20
137.8472276131076
 30
0.0
 10
235.7988714688281
 20
137.8472276131076
 30
0.0
 10
235.8464137865245
 20
137.8045084290905
 30
0.0
 10
235.8464137865245
 20
137.7459418058413
 30
0.0
 10
235.8464137865245
 20
137.7459418058413
 30
0.0
 10
235.8464137865245
 20
140.7459309543969
 30
0.0
 10
235.8464137865245
 20
140.7459309543969
 30
0.0
 10
235.8464137865245
 20
140.8003634630638
 30
0.0
 10
235.8030055834104
 20
140.8472167616632
 30
0.0
 10
235.7444389601611
 20
140.8472167616632
 30
0.0
 10
235.7444389601611
 20
140.8472167616632
 30
0.0
 10
229.74446066305
 20
140.8472167616632
 30
0.0
 10
229.74446066305
 20
140.8472167616632
 30
0.0
 10
229.6900281543831
 20
140.8472167616632
 30
0.0
 10
229.6431748557837
 20
140.8044975776461
 30
0.0
 10
229.6431748557837
 20
140.7459309543969
 30
0.0
 10
229.6431748557837
 20
140.7459309543969
 30
0.0
 10
229.6431748557837
 20
137.7459418058413
 30
0.0
 10
229.6431748557837
 20
137.7459418058413
 30
0.0
 10
229.6431748557837
 20
137.8003743145082
 30
0.0
 10
229.6858940398008
 20
137.8472276131076
 30
0.0
 10
229.74446066305
 20
137.8472276131076
 30
0.0
 10
229.74446066305
 20
137.8472276131076
 30
0.0
 10
223.7437933468418
 20
137.8472276131076
 30
0.0
 10
223.7437933468418
 20
137.8472276131076
 30
0.0
 10
223.7989148746058
 20
137.8472276131076
 30
0.0
 10
223.8457681732052
 20
137.8045084290905
 30
0.0
 10
223.8457681732052
 20
137.7459418058413
 30
0.0
 10
223.8457681732052
 20
137.7459418058413
 30
0.0
 10
223.8457681732052
 20
140.7459309543969
 30
0.0
 10
223.8457681732052
 20
140.7459309543969
 30
0.0
 10
223.8457681732052
 20
140.8003634630638
 30
0.0
 10
223.8023599700911
 20
140.8472167616632
 30
0.0
 10
223.7437933468418
 20
140.8472167616632
 30
0.0
 10
223.7437933468418
 20
140.8472167616632
 30
0.0
 10
217.7438150497307
 20
140.8472167616632
 30
0.0
 10
217.7438150497307
 20
140.8472167616632
 30
0.0
 10
217.6893825410638
 20
140.8472167616632
 30
0.0
 10
217.6425292424644
 20
140.8044975776461
 30
0.0
 10
217.6425292424644
 20
140.7459309543969
 30
0.0
 10
217.6425292424644
 20
140.7459309543969
 30
0.0
 10
217.6425292424644
 20
137.7459418058413
 30
0.0
 10
217.6425292424644
 20
137.7459418058413
 30
0.0
 10
217.6425292424644
 20
137.8003743145082
 30
0.0
 10
217.6852484264815
 20
137.8472276131076
 30
0.0
 10
217.7438150497307
 20
137.8472276131076
 30
0.0
 10
217.7438150497307
 20
137.8472276131076
 30
0.0
 10
211.7445257717167
 20
137.8472276131076
 30
0.0
 10
211.7445257717167
 20
137.8472276131076
 30
0.0
 10
211.7989582803836
 20
137.8472276131076
 30
0.0
 10
211.845811578983
 20
137.8045084290905
 30
0.0
 10
211.845811578983
 20
137.7459418058413
 30
0.0
 10
211.845811578983
 20
137.7459418058413
 30
0.0
 10
211.845811578983
 20
140.7459309543969
 30
0.0
 10
211.845811578983
 20
140.7459309543969
 30
0.0
 10
211.845811578983
 20
140.8003634630638
 30
0.0
 10
211.8030923949659
 20
140.8472167616632
 30
0.0
 10
211.7445257717167
 20
140.8472167616632
 30
0.0
 10
211.7445257717167
 20
140.8472167616632
 30
0.0
 10
205.7445474746055
 20
140.8472167616632
 30
0.0
 10
205.7445474746055
 20
140.8472167616632
 30
0.0
 10
205.6894259468415
 20
140.8472167616632
 30
0.0
 10
205.6425726482422
 20
140.8044975776461
 30
0.0
 10
205.6425726482422
 20
140.7459309543969
 30
0.0
 10
205.6425726482422
 20
140.7459309543969
 30
0.0
 10
205.6425726482422
 20
137.7459418058413
 30
0.0
 10
205.6425726482422
 20
137.7459418058413
 30
0.0
 10
205.6425726482422
 20
137.8003743145082
 30
0.0
 10
205.6859808513563
 20
137.8472276131076
 30
0.0
 10
205.7445474746055
 20
137.8472276131076
 30
0.0
 10
205.7445474746055
 20
137.8472276131076
 30
0.0
 10
199.7445691774944
 20
137.8472276131076
 30
0.0
 10
199.7445691774944
 20
137.8472276131076
 30
0.0
 10
199.7983126670643
 20
137.8472276131076
 30
0.0
 10
199.8451659656637
 20
137.8045084290905
 30
0.0
 10
199.8451659656637
 20
137.7459418058413
 30
0.0
 10
199.8451659656637
 20
137.7459418058413
 30
0.0
 10
199.8451659656637
 20
140.7459309543969
 30
0.0
 10
199.8451659656637
 20
140.7459309543969
 30
0.0
 10
199.8451659656637
 20
140.8003634630638
 30
0.0
 10
199.8031358007437
 20
140.8472167616632
 30
0.0
 10
199.7445691774944
 20
140.8472167616632
 30
0.0
 10
199.7445691774944
 20
140.8472167616632
 30
0.0
 10
193.7439018612862
 20
140.8472167616632
 30
0.0
 10
193.7439018612862
 20
140.8472167616632
 30
0.0
 10
193.6894693526193
 20
140.8472167616632
 30
0.0
 10
193.6419270349229
 20
140.8044975776461
 30
0.0
 10
193.6419270349229
 20
140.7459309543969
 30
0.0
 10
193.6419270349229
 20
140.7459309543969
 30
0.0
 10
193.6419270349229
 20
137.7459418058413
 30
0.0
 10
193.6419270349229
 20
137.7459418058413
 30
0.0
 10
193.6419270349229
 20
137.8003743145082
 30
0.0
 10
193.685335238037
 20
137.8472276131076
 30
0.0
 10
193.7439018612862
 20
137.8472276131076
 30
0.0
 10
193.7439018612862
 20
137.8472276131076
 30
0.0
 10
187.7439235641751
 20
137.8472276131076
 30
0.0
 10
187.7439235641751
 20
137.8472276131076
 30
0.0
 10
187.7983560728421
 20
137.8472276131076
 30
0.0
 10
187.8452093714415
 20
137.8045084290905
 30
0.0
 10
187.8452093714415
 20
137.7459418058413
 30
0.0
 10
187.8452093714415
 20
137.7459418058413
 30
0.0
 10
187.8452093714415
 20
140.7459309543969
 30
0.0
 10
187.8452093714415
 20
140.7459309543969
 30
0.0
 10
187.8452093714415
 20
140.8003634630638
 30
0.0
 10
187.8024901874244
 20
140.8472167616632
 30
0.0
 10
187.7439235641751
 20
140.8472167616632
 30
0.0
 10
187.7439235641751
 20
140.8472167616632
 30
0.0
 10
181.743945267064
 20
140.8472167616632
 30
0.0
 10
181.743945267064
 20
140.8472167616632
 30
0.0
 10
181.6888237393
 20
140.8472167616632
 30
0.0
 10
181.6419704407006
 20
140.8044975776461
 30
0.0
 10
181.6419704407006
 20
140.7459309543969
 30
0.0
 10
181.6419704407006
 20
140.7459309543969
 30
0.0
 10
181.6419704407006
 20
137.7459418058413
 30
0.0
 10
181.6419704407006
 20
137.7459418058413
 30
0.0
 10
181.6419704407006
 20
137.8003743145082
 30
0.0
 10
181.6853786438148
 20
137.8472276131076
 30
0.0
 10
181.743945267064
 20
137.8472276131076
 30
0.0
 10
181.743945267064
 20
137.8472276131076
 30
0.0
 10
175.7439669699529
 20
137.8472276131076
 30
0.0
 10
175.7439669699529
 20
137.8472276131076
 30
0.0
 10
175.7983994786198
 20
137.8472276131076
 30
0.0
 10
175.8452527772193
 20
137.8045084290905
 30
0.0
 10
175.8452527772193
 20
137.7459418058413
 30
0.0
 10
175.8452527772193
 20
137.7459418058413
 30
0.0
 10
175.8452527772193
 20
140.7459309543969
 30
0.0
 10
175.8452527772193
 20
140.7459309543969
 30
0.0
 10
175.8452527772193
 20
140.8003634630638
 30
0.0
 10
175.8025335932022
 20
140.8472167616632
 30
0.0
 10
175.7439669699529
 20
140.8472167616632
 30
0.0
 10
175.7439669699529
 20
140.8472167616632
 30
0.0
 10
169.7439886728418
 20
140.8472167616632
 30
0.0
 10
169.7439886728418
 20
140.8472167616632
 30
0.0
 10
169.6888671450778
 20
140.8472167616632
 30
0.0
 10
169.6420138464784
 20
140.8044975776461
 30
0.0
 10
169.6420138464784
 20
140.7459309543969
 30
0.0
 10
169.6420138464784
 20
140.7459309543969
 30
0.0
 10
169.6420138464784
 20
137.7459418058413
 30
0.0
 10
169.6420138464784
 20
137.7459418058413
 30
0.0
 10
169.6420138464784
 20
137.8003743145082
 30
0.0
 10
169.6854220495925
 20
137.8472276131076
 30
0.0
 10
169.7439886728418
 20
137.8472276131076
 30
0.0
 10
169.7439886728418
 20
137.8472276131076
 30
0.0
 10
163.7433213566336
 20
137.8472276131076
 30
0.0
 10
163.7433213566336
 20
137.8472276131076
 30
0.0
 10
163.7977538653006
 20
137.8472276131076
 30
0.0
 10
163.8446071639
 20
137.8045084290905
 30
0.0
 10
163.8446071639
 20
137.7459418058413
 30
0.0
 10
163.8446071639
 20
137.7459418058413
 30
0.0
 10
163.8446071639
 20
140.7459309543969
 30
0.0
 10
163.8446071639
 20
140.7459309543969
 30
0.0
 10
163.8446071639
 20
140.8003634630638
 30
0.0
 10
163.8018879798829
 20
140.8472167616632
 30
0.0
 10
163.7433213566336
 20
140.8472167616632
 30
0.0
 10
163.7433213566336
 20
140.8472167616632
 30
0.0
 10
157.7433430595225
 20
140.8472167616632
 30
0.0
 10
157.7433430595225
 20
140.8472167616632
 30
0.0
 10
157.6889105508556
 20
140.8472167616632
 30
0.0
 10
157.6420572522562
 20
140.8044975776461
 30
0.0
 10
157.6420572522562
 20
140.7459309543969
 30
0.0
 10
157.6420572522562
 20
140.7459309543969
 30
0.0
 10
157.6420572522562
 20
137.7459418058413
 30
0.0
 10
157.6420572522562
 20
137.7459418058413
 30
0.0
 10
157.6420572522562
 20
137.7459418058413
 30
0.0
 10
157.6420572522562
 20
130.7461967989107
 30
0.0
 10
157.6420572522562
 20
130.7461967989107
 30
0.0
 10
157.6420572522562
 20
130.8002847980291
 30
0.0
 10
157.6847764362733
 20
130.847482606177
 30
0.0
 10
157.7433430595225
 20
130.847482606177
 30
0.0
 10
157.7433430595225
 20
130.847482606177
 30
0.0
 10
154.743353910967
 20
130.847482606177
 30
0.0
 10
154.743353910967
 20
130.847482606177
 30
0.0
 10
154.6889214023
 20
130.847482606177
 30
0.0
 10
154.6420681037006
 20
130.8047634221599
 30
0.0
 10
154.6420681037006
 20
130.7461967989107
 30
0.0
 10
154.6420681037006
 20
130.7461967989107
 30
0.0
 10
154.6420681037006
 20
124.7462185017996
 30
0.0
 10
154.6420681037006
 20
124.7462185017996
 30
0.0
 10
154.6420681037006
 20
124.6910969740356
 30
0.0
 10
154.6847872877177
 20
124.6442436754362
 30
0.0
 10
154.743353910967
 20
124.6442436754362
 30
0.0
 10
154.743353910967
 20
124.6442436754362
 30
0.0
 10
157.7433430595225
 20
124.6442436754362
 30
0.0
 10
157.7433430595225
 20
124.6442436754362
 30
0.0
 10
157.6889105508556
 20
124.6442436754362
 30
0.0
 10
157.6420572522562
 20
124.6876518785503
 30
0.0
 10
157.6420572522562
 20
124.7462185017996
 30
0.0
 10
157.6420572522562
 20
124.7462185017996
 30
0.0
 10
157.6420572522562
 20
117.7454399662234
 30
0.0
 10
157.6420572522562
 20
117.7454399662234
 30
0.0
 10
157.6420572522562
 20
117.6913519671049
 30
0.0
 10
157.6847764362733
 20
117.644154158957
 30
0.0
 10
157.7433430595225
 20
117.644154158957
 30
0.0
 10
157.7433430595225
 20
117.644154158957
 30
0.0
 10
157.7433430595225
 20
117.644154158957
 30
0.0
 10
157.7433430595225
 20
117.644154158957
 30
0.0
  0
SPLINE
  5
41
330
1F
100
AcDbEntity
  8
Calque 1
 62
    18
420
    65793
370
     9
100
AcDbSpline
210
0.0
220
0.0
230
1.0
 70
    11
 71
     3
 72
   383
 73
   379
 74
     0
 42
0.0000000001
 43
0.0000000001
 40
0.0
 40
0.0
 40
0.0
 40
0.0
 40
1.0
 40
1.0
 40
1.0
 40
2.0
 40
2.0
 40
2.0
 40
3.0
 40
3.0
 40
3.0
 40
4.0
 40
4.0
 40
4.0
 40
5.0
 40
5.0
 40
5.0
 40
6.0
 40
6.0
 40
6.0
 40
7.0
 40
7.0
 40
7.0
 40
8.0
 40
8.0
 40
8.0
 40
9.0
 40
9.0
 40
9.0
 40
10.0
 40
10.0
 40
10.0
 40
11.0
 40
11.0
 40
11.0
 40
12.0
 40
12.0
 40
12.0
 40
13.0
 40
13.0
 40
13.0
 40
14.0
 40
14.0
 40
14.0
 40
15.0
 40
15.0
 40
15.0
 40
16.0
 40
16.0
 40
16.0
 40
17.0
 40
17.0
 40
17.0
 40
18.0
 40
18.0
 40
18.0
 40
19.0
 40
19.0
 40
19.0
 40
20.0
 40
20.0
 40
20.0
 40
21.0
 40
21.0
 40
21.0
 40
22.0
 40
22.0
 40
22.0
 40
23.0
 40
23.0
 40
23.0
 40
24.0
 40
24.0
 40
24.0
 40
25.0
 40
25.0
 40
25.0
 40
26.0
 40
26.0
 40
26.0
 40
27.0
 40
27.0
 40
27.0
 40
28.0
 40
28.0
 40
28.0
 40
29.0
 40
29.0
 40
29.0
 40
30.0
 40
30.0
 40
30.0
 40
31.0
 40
31.0
 40
31.0
 40
32.0
 40
32.0
 40
32.0
 40
33.0
 40
33.0
 40
33.0
 40
34.0
 40
34.0
 40
34.0
 40
35.0
 40
35.0
 40
35.0
 40
36.0
 40
36.0
 40
36.0
 40
37.0
 40
37.0
 40
37.0
 40
38.0
 40
38.0
 40
38.0
 40
39.0
 40
39.0
 40
39.0
 40
40.0
 40
40.0
 40
40.0
 40
41.0
 40
41.0
 40
41.0
 40
42.0
 40
42.0
 40
42.0
 40
43.0
 40
43.0
 40
43.0
 40
44.0
 40
44.0
 40
44.0
 40
45.0
 40
45.0
 40
45.0
 40
46.0
 40
46.0
 40
46.0
 40
47.0
 40
47.0
 40
47.0
 40
48.0
 40
48.0
 40
48.0
 40
49.0
 40
49.0
 40
49.0
 40
50.0
 40
50.0
 40
50.0
 40
51.0
 40
51.0
 40
51.0
 40
52.0
 40
52.0
 40
52.0
 40
53.0
 40
53.0
 40
53.0
 40
54.0
 40
54.0
 40
54.0
 40
55.0
 40
55.0
 40
55.0
 40
56.0
 40
56.0
 40
56.0
 40
57.0
 40
57.0
 40
57.0
 40
58.0
 40
58.0
 40
58.0
 40
59.0
 40
59.0
 40
59.0
 40
60.0
 40
60.0
 40
60.0
 40
61.0
 40
61.0
 40
61.0
 40
62.0
 40
62.0
 40
62.0
 40
63.0
 40
63.0
 40
63.0
 40
64.0
 40
64.0
 40
64.0
 40
65.0
 40
65.0
 40
65.0
 40
66.0
 40
66.0
 40
66.0
 40
67.0
 40
67.0
 40
67.0
 40
68.0
 40
68.0
 40
68.0
 40
69.0
 40
69.0
 40
69.0
 40
70.0
 40
70.0
 40
70.0
 40
71.0
 40
71.0
 40
71.0
 40
72.0
 40
72.0
 40
72.0
 40
73.0
 40
73.0
 40
73.0
 40
74.0
 40
74.0
 40
74.0
 40
75.0
 40
75.0
 40
75.0
 40
76.0
 40
76.0
 40
76.0
 40
77.0
 40
77.0
 40
77.0
 40
78.0
 40
78.0
 40
78.0
 40
79.0
 40
79.0
 40
79.0
 40
80.0
 40
80.0
 40
80.0
 40
81.0
 40
81.0
 40
81.0
 40
82.0
 40
82.0
 40
82.0
 40
83.0
 40
83.0
 40
83.0
 40
84.0
 40
84.0
 40
84.0
 40
85.0
 40
85.0
 40
85.0
 40
86.0
 40
86.0
 40
86.0
 40
87.0
 40
87.0
 40
87.0
 40
88.0
 40
88.0
 40
88.0
 40
89.0
 40
89.0
 40
89.0
 40
90.0
 40
90.0
 40
90.0
 40
91.0
 40
91.0
 40
91.0
 40
92.0
 40
92.0
 40
92.0
 40
93.0
 40
93.0
 40
93.0
 40
94.0
 40
94.0
 40
94.0
 40
95.0
 40
95.0
 40
95.0
 40
96.0
 40
96.0
 40
96.0
 40
97.0
 40
97.0
 40
97.0
 40
98.0
 40
98.0
 40
98.0
 40
99.0
 40
99.0
 40
99.0
 40
100.0
 40
100.0
 40
100.0
 40
101.0
 40
101.0
 40
101.0
 40
102.0
 40
102.0
 40
102.0
 40
103.0
 40
103.0
 40
103.0
 40
104.0
 40
104.0
 40
104.0
 40
105.0
 40
105.0
 40
105.0
 40
106.0
 40
106.0
 40
106.0
 40
107.0
 40
107.0
 40
107.0
 40
108.0
 40
108.0
 40
108.0
 40
109.0
 40
109.0
 40
109.0
 40
110.0
 40
110.0
 40
110.0
 40
111.0
 40
111.0
 40
111.0
 40
112.0
 40
112.0
 40
112.0
 40
113.0
 40
113.0
 40
113.0
 40
114.0
 40
114.0
 40
114.0
 40
115.0
 40
115.0
 40
115.0
 40
116.0
 40
116.0
 40
116.0
 40
117.0
 40
117.0
 40
117.0
 40
118.0
 40
118.0
 40
118.0
 40
119.0
 40
119.0
 40
119.0
 40
120.0
 40
120.0
 40
120.0
 40
121.0
 40
121.0
 40
121.0
 40
122.0
 40
122.0
 40
122.0
 40
123.0
 40
123.0
 40
123.0
 40
124.0
 40
124.0
 40
124.0
 40
125.0
 40
125.0
 40
125.0
 40
126.0
 40
126.0
 40
126.0
 40
126.0
 10
30.26137423288605
 20
112.9426323502366
 30
0.0
 10
30.26137423288605
 20
112.9426323502366
 30
0.0
 10
36.26135252999716
 20
112.9426323502366
 30
0.0
 10
36.26135252999716
 20
112.9426323502366
 30
0.0
 10
36.31612954821264
 20
112.9426323502366
 30
0.0
 10
36.36298284681203
 20
112.9860405533507
 30
0.0
 10
36.36298284681203
 20
113.0446071766
 30
0.0
 10
36.36298284681203
 20
113.0446071766
 30
0.0
 10
36.36298284681203
 20
116.0445963251555
 30
0.0
 10
36.36298284681203
 20
116.0445963251555
 30
0.0
 10
36.36298284681203
 20
115.9894747973915
 30
0.0
 10
36.31991915324641
 20
115.9426214987921
 30
0.0
 10
36.26135252999716
 20
115.9426214987921
 30
0.0
 10
36.26135252999716
 20
115.9426214987921
 30
0.0
 10
42.26150308188254
 20
115.9426214987921
 30
0.0
 10
42.26150308188254
 20
115.9426214987921
 30
0.0
 10
42.2070705732156
 20
115.9426214987921
 30
0.0
 10
42.16021727461619
 20
115.9860297019063
 30
0.0
 10
42.16021727461619
 20
116.0445963251555
 30
0.0
 10
42.16021727461619
 20
116.0445963251555
 30
0.0
 10
42.16021727461619
 20
113.0446071766
 30
0.0
 10
42.16021727461619
 20
113.0446071766
 30
0.0
 10
42.16021727461619
 20
112.989485648836
 30
0.0
 10
42.2029364586333
 20
112.9426323502366
 30
0.0
 10
42.26150308188254
 20
112.9426323502366
 30
0.0
 10
42.26150308188254
 20
112.9426323502366
 30
0.0
 10
48.26148137899366
 20
112.9426323502366
 30
0.0
 10
48.26148137899366
 20
112.9426323502366
 30
0.0
 10
48.31608614243487
 20
112.9426323502366
 30
0.0
 10
48.36311169580853
 20
112.9860405533507
 30
0.0
 10
48.36311169580853
 20
113.0446071766
 30
0.0
 10
48.36311169580853
 20
113.0446071766
 30
0.0
 10
48.36311169580853
 20
116.0445963251555
 30
0.0
 10
48.36311169580853
 20
116.0445963251555
 30
0.0
 10
48.36311169580853
 20
115.9894747973915
 30
0.0
 10
48.32039251179143
 20
115.9426214987921
 30
0.0
 10
48.26148137899366
 20
115.9426214987921
 30
0.0
 10
48.26148137899366
 20
115.9426214987921
 30
0.0
 10
54.26145967610478
 20
115.9426214987921
 30
0.0
 10
54.26145967610478
 20
115.9426214987921
 30
0.0
 10
54.20719942221209
 20
115.9426214987921
 30
0.0
 10
54.16017386883843
 20
115.9860297019063
 30
0.0
 10
54.16017386883843
 20
116.0445963251555
 30
0.0
 10
54.16017386883843
 20
116.0445963251555
 30
0.0
 10
54.16017386883843
 20
113.0446071766
 30
0.0
 10
54.16017386883843
 20
113.0446071766
 30
0.0
 10
54.16017386883843
 20
112.989485648836
 30
0.0
 10
54.20289305285553
 20
112.9426323502366
 30
0.0
 10
54.26145967610478
 20
112.9426323502366
 30
0.0
 10
54.26145967610478
 20
112.9426323502366
 30
0.0
 10
60.26195473753868
 20
112.9426323502366
 30
0.0
 10
60.26195473753868
 20
112.9426323502366
 30
0.0
 10
60.31621499143137
 20
112.9426323502366
 30
0.0
 10
60.36306829003076
 20
112.9860405533507
 30
0.0
 10
60.36306829003076
 20
113.0446071766
 30
0.0
 10
60.36306829003076
 20
113.0446071766
 30
0.0
 10
60.36306829003076
 20
116.0445963251555
 30
0.0
 10
60.36306829003076
 20
116.0445963251555
 30
0.0
 10
60.36306829003076
 20
115.9894747973915
 30
0.0
 10
60.32052136078793
 20
115.9426214987921
 30
0.0
 10
60.26195473753868
 20
115.9426214987921
 30
0.0
 10
60.26195473753868
 20
115.9426214987921
 30
0.0
 10
66.2619330346498
 20
115.9426214987921
 30
0.0
 10
66.2619330346498
 20
115.9426214987921
 30
0.0
 10
66.20767278075711
 20
115.9426214987921
 30
0.0
 10
66.16064722738345
 20
115.9860297019063
 30
0.0
 10
66.16064722738345
 20
116.0445963251555
 30
0.0
 10
66.16064722738345
 20
116.0445963251555
 30
0.0
 10
66.16064722738345
 20
113.0446071766
 30
0.0
 10
66.16064722738345
 20
113.0446071766
 30
0.0
 10
66.16064722738345
 20
112.989485648836
 30
0.0
 10
66.20336641140055
 20
112.9426323502366
 30
0.0
 10
66.2619330346498
 20
112.9426323502366
 30
0.0
 10
66.2619330346498
 20
112.9426323502366
 30
0.0
 10
72.26208358653518
 20
112.9426323502366
 30
0.0
 10
72.26208358653518
 20
112.9426323502366
 30
0.0
 10
72.31634384042786
 20
112.9426323502366
 30
0.0
 10
72.36319713902726
 20
112.9860405533507
 30
0.0
 10
72.36319713902726
 20
113.0446071766
 30
0.0
 10
72.36319713902726
 20
113.0446071766
 30
0.0
 10
72.36319713902726
 20
116.0445963251555
 30
0.0
 10
72.36319713902726
 20
116.0445963251555
 30
0.0
 10
72.36319713902726
 20
115.9894747973915
 30
0.0
 10
72.32065020978442
 20
115.9426214987921
 30
0.0
 10
72.26208358653518
 20
115.9426214987921
 30
0.0
 10
72.26208358653518
 20
115.9426214987921
 30
0.0
 10
78.2620618836463
 20
115.9426214987921
 30
0.0
 10
78.2620618836463
 20
115.9426214987921
 30
0.0
 10
78.20762937497935
 20
115.9426214987921
 30
0.0
 10
78.16077607637995
 20
115.9860297019063
 30
0.0
 10
78.16077607637995
 20
116.0445963251555
 30
0.0
 10
78.16077607637995
 20
116.0445963251555
 30
0.0
 10
78.16077607637995
 20
113.0446071766
 30
0.0
 10
78.16077607637995
 20
113.0446071766
 30
0.0
 10
78.16077607637995
 20
112.989485648836
 30
0.0
 10
78.20349526039705
 20
112.9426323502366
 30
0.0
 10
78.2620618836463
 20
112.9426323502366
 30
0.0
 10
78.2620618836463
 20
112.9426323502366
 30
0.0
 10
84.26204018075741
 20
112.9426323502366
 30
0.0
 10
84.26204018075741
 20
112.9426323502366
 30
0.0
 10
84.31716170852141
 20
112.9426323502366
 30
0.0
 10
84.36401500712081
 20
112.9860405533507
 30
0.0
 10
84.36401500712081
 20
113.0446071766
 30
0.0
 10
84.36401500712081
 20
113.0446071766
 30
0.0
 10
84.36401500712081
 20
116.0445963251555
 30
0.0
 10
84.36401500712081
 20
116.0445963251555
 30
0.0
 10
84.36401500712081
 20
115.9894747973915
 30
0.0
 10
84.32060680400666
 20
115.9426214987921
 30
0.0
 10
84.26204018075741
 20
115.9426214987921
 30
0.0
 10
84.26204018075741
 20
115.9426214987921
 30
0.0
 10
90.26253524219132
 20
115.9426214987921
 30
0.0
 10
90.26253524219132
 20
115.9426214987921
 30
0.0
 10
90.20741371442732
 20
115.9426214987921
 30
0.0
 10
90.16056041582792
 20
115.9860297019063
 30
0.0
 10
90.16056041582792
 20
116.0445963251555
 30
0.0
 10
90.16056041582792
 20
116.0445963251555
 30
0.0
 10
90.16056041582792
 20
113.0446071766
 30
0.0
 10
90.16056041582792
 20
113.0446071766
 30
0.0
 10
90.16056041582792
 20
112.989485648836
 30
0.0
 10
90.20396861894207
 20
112.9426323502366
 30
0.0
 10
90.26253524219132
 20
112.9426323502366
 30
0.0
 10
90.26253524219132
 20
112.9426323502366
 30
0.0
 10
96.26251353930243
 20
112.9426323502366
 30
0.0
 10
96.26251353930243
 20
112.9426323502366
 30
0.0
 10
96.31677379319511
 20
112.9426323502366
 30
0.0
 10
96.36379934656878
 20
112.9860405533507
 30
0.0
 10
96.36379934656878
 20
113.0446071766
 30
0.0
 10
96.36379934656878
 20
113.0446071766
 30
0.0
 10
96.36379934656878
 20
116.0445963251555
 30
0.0
 10
96.36379934656878
 20
116.0445963251555
 30
0.0
 10
96.36379934656878
 20
115.9894747973915
 30
0.0
 10
96.32108016255168
 20
115.9426214987921
 30
0.0
 10
96.26251353930243
 20
115.9426214987921
 30
0.0
 10
96.26251353930243
 20
115.9426214987921
 30
0.0
 10
102.2624918364135
 20
115.9426214987921
 30
0.0
 10
102.2624918364135
 20
115.9426214987921
 30
0.0
 10
102.2075425634238
 20
115.9426214987921
 30
0.0
 10
102.1606892648244
 20
115.9860297019063
 30
0.0
 10
102.1606892648244
 20
116.0445963251555
 30
0.0
 10
102.1606892648244
 20
116.0445963251555
 30
0.0
 10
102.1606892648244
 20
113.0446071766
 30
0.0
 10
102.1606892648244
 20
113.0446071766
 30
0.0
 10
102.1606892648244
 20
112.989485648836
 30
0.0
 10
102.2039252131643
 20
112.9426323502366
 30
0.0
 10
102.2624918364135
 20
112.9426323502366
 30
0.0
 10
102.2624918364135
 20
112.9426323502366
 30
0.0
 10
108.2626423882989
 20
112.9426323502366
 30
0.0
 10
108.2626423882989
 20
112.9426323502366
 30
0.0
 10
108.3170748969659
 20
112.9426323502366
 30
0.0
 10
108.3639281955653
 20
112.9860405533507
 30
0.0
 10
108.3639281955653
 20
113.0446071766
 30
0.0
 10
108.3639281955653
 20
113.0446071766
 30
0.0
 10
108.3639281955653
 20
116.0445963251555
 30
0.0
 10
108.3639281955653
 20
116.0445963251555
 30
0.0
 10
108.3639281955653
 20
115.9894747973915
 30
0.0
 10
108.3212090115482
 20
115.9426214987921
 30
0.0
 10
108.2626423882989
 20
115.9426214987921
 30
0.0
 10
108.2626423882989
 20
115.9426214987921
 30
0.0
 10
114.26262068541
 20
115.9426214987921
 30
0.0
 10
114.26262068541
 20
115.9426214987921
 30
0.0
 10
114.207499157646
 20
115.9426214987921
 30
0.0
 10
114.1606458590467
 20
115.9860297019063
 30
0.0
 10
114.1606458590467
 20
116.0445963251555
 30
0.0
 10
114.1606458590467
 20
116.0445963251555
 30
0.0
 10
114.1606458590467
 20
113.0446071766
 30
0.0
 10
114.1606458590467
 20
113.0446071766
 30
0.0
 10
114.1606458590467
 20
112.989485648836
 30
0.0
 10
114.2040540621608
 20
112.9426323502366
 30
0.0
 10
114.26262068541
 20
112.9426323502366
 30
0.0
 10
114.26262068541
 20
112.9426323502366
 30
0.0
 10
120.2625989825212
 20
112.9426323502366
 30
0.0
 10
120.2625989825212
 20
112.9426323502366
 30
0.0
 10
120.3170314911881
 20
112.9426323502366
 30
0.0
 10
120.3638847897875
 20
112.9860405533507
 30
0.0
 10
120.3638847897875
 20
113.0446071766
 30
0.0
 10
120.3638847897875
 20
113.0446071766
 30
0.0
 10
120.3638847897875
 20
116.0445963251555
 30
0.0
 10
120.3638847897875
 20
116.0445963251555
 30
0.0
 10
120.3638847897875
 20
115.9894747973915
 30
0.0
 10
120.3211656057704
 20
115.9426214987921
 30
0.0
 10
120.2625989825212
 20
115.9426214987921
 30
0.0
 10
120.2625989825212
 20
115.9426214987921
 30
0.0
 10
126.2625772796323
 20
115.9426214987921
 30
0.0
 10
126.2625772796323
 20
115.9426214987921
 30
0.0
 10
126.2084892805139
 20
115.9426214987921
 30
0.0
 10
126.1609469628174
 20
115.9860297019063
 30
0.0
 10
126.1609469628174
 20
116.0445963251555
 30
0.0
 10
126.1609469628174
 20
116.0445963251555
 30
0.0
 10
126.1609469628174
 20
113.0446071766
 30
0.0
 10
126.1609469628174
 20
113.0446071766
 30
0.0
 10
126.1609469628174
 20
112.989485648836
 30
0.0
 10
126.204010656383
 20
112.9426323502366
 30
0.0
 10
126.2625772796323
 20
112.9426323502366
 30
0.0
 10
126.2625772796323
 20
112.9426323502366
 30
0.0
 10
132.2629000862919
 20
112.9426323502366
 30
0.0
 10
132.2629000862919
 20
112.9426323502366
 30
0.0
 10
132.3169880854103
 20
112.9426323502366
 30
0.0
 10
132.3641858935583
 20
112.9860405533507
 30
0.0
 10
132.3641858935583
 20
113.0446071766
 30
0.0
 10
132.3641858935583
 20
113.0446071766
 30
0.0
 10
132.3641858935583
 20
116.0445963251555
 30
0.0
 10
132.3641858935583
 20
116.0445963251555
 30
0.0
 10
132.3641858935583
 20
115.9894747973915
 30
0.0
 10
132.3214667095412
 20
115.9426214987921
 30
0.0
 10
132.2629000862919
 20
115.9426214987921
 30
0.0
 10
132.2629000862919
 20
115.9426214987921
 30
0.0
 10
138.262878383403
 20
115.9426214987921
 30
0.0
 10
138.262878383403
 20
115.9426214987921
 30
0.0
 10
138.2084458747361
 20
115.9426214987921
 30
0.0
 10
138.1615925761367
 20
115.9860297019063
 30
0.0
 10
138.1615925761367
 20
116.0445963251555
 30
0.0
 10
138.1615925761367
 20
116.0445963251555
 30
0.0
 10
138.1615925761367
 20
113.0446071766
 30
0.0
 10
138.1615925761367
 20
113.0446071766
 30
0.0
 10
138.1615925761367
 20
112.989485648836
 30
0.0
 10
138.2043117601538
 20
112.9426323502366
 30
0.0
 10
138.262878383403
 20
112.9426323502366
 30
0.0
 10
138.262878383403
 20
112.9426323502366
 30
0.0
 10
144.2628566805141
 20
112.9426323502366
 30
0.0
 10
144.2628566805141
 20
112.9426323502366
 30
0.0
 10
144.2628566805141
 20
112.9426323502366
 30
0.0
 10
147.2628458290697
 20
112.9426323502366
 30
0.0
 10
147.2628458290697
 20
112.9426323502366
 30
0.0
 10
147.3172783377367
 20
112.9426323502366
 30
0.0
 10
147.3641316363361
 20
112.9860405533507
 30
0.0
 10
147.3641316363361
 20
113.0446071766
 30
0.0
 10
147.3641316363361
 20
113.0446071766
 30
0.0
 10
147.3641316363361
 20
116.0445963251555
 30
0.0
 10
147.3641316363361
 20
116.0445963251555
 30
0.0
 10
147.3641316363361
 20
116.0445963251555
 30
0.0
 10
147.3641316363361
 20
124.5443359063639
 30
0.0
 10
147.3641316363361
 20
124.5443359063639
 30
0.0
 10
147.3641316363361
 20
124.5987684150309
 30
0.0
 10
147.321412452319
 20
124.6456217136303
 30
0.0
 10
147.2628458290697
 20
124.6456217136303
 30
0.0
 10
147.2628458290697
 20
124.6456217136303
 30
0.0
 10
144.2628566805141
 20
124.6456217136303
 30
0.0
 10
144.2628566805141
 20
124.6456217136303
 30
0.0
 10
144.3172891891811
 20
124.6456217136303
 30
0.0
 10
144.3641424877805
 20
124.6029025296132
 30
0.0
 10
144.3641424877805
 20
124.5443359063639
 30
0.0
 10
144.3641424877805
 20
124.5443359063639
 30
0.0
 10
144.3641424877805
 20
130.544314203475
 30
0.0
 10
144.3641424877805
 20
130.544314203475
 30
0.0
 10
144.3641424877805
 20
130.4898816948081
 30
0.0
 10
144.3214233037634
 20
130.4430283962087
 30
0.0
 10
144.2628566805141
 20
130.4430283962087
 30
0.0
 10
144.2628566805141
 20
130.4430283962087
 30
0.0
 10
147.2628458290697
 20
130.4430283962087
 30
0.0
 10
147.2628458290697
 20
130.4430283962087
 30
0.0
 10
147.3172783377367
 20
130.4430283962087
 30
0.0
 10
147.3641316363361
 20
130.4857475802258
 30
0.0
 10
147.3641316363361
 20
130.544314203475
 30
0.0
 10
147.3641316363361
 20
130.544314203475
 30
0.0
 10
147.3641316363361
 20
136.5442925005862
 30
0.0
 10
147.3641316363361
 20
136.5442925005862
 30
0.0
 10
147.3641316363361
 20
136.5994140283501
 30
0.0
 10
147.321412452319
 20
136.6462673269496
 30
0.0
 10
147.2628458290697
 20
136.6462673269496
 30
0.0
 10
147.2628458290697
 20
136.6462673269496
 30
0.0
 10
144.2628566805141
 20
136.6462673269496
 30
0.0
 10
144.2628566805141
 20
136.6462673269496
 30
0.0
 10
144.3172891891811
 20
136.6462673269496
 30
0.0
 10
144.3641424877805
 20
136.6028591238354
 30
0.0
 10
144.3641424877805
 20
136.5442925005862
 30
0.0
 10
144.3641424877805
 20
136.5442925005862
 30
0.0
 10
144.3641424877805
 20
142.5442707976973
 30
0.0
 10
144.3641424877805
 20
142.5442707976973
 30
0.0
 10
144.3641424877805
 20
142.4901827985788
 30
0.0
 10
144.3214233037634
 20
142.4433294999795
 30
0.0
 10
144.2628566805141
 20
142.4433294999795
 30
0.0
 10
144.2628566805141
 20
142.4433294999795
 30
0.0
 10
147.2628458290697
 20
142.4433294999795
 30
0.0
 10
147.2628458290697
 20
142.4433294999795
 30
0.0
 10
147.3172783377367
 20
142.4433294999795
 30
0.0
 10
147.3641316363361
 20
142.485704174448
 30
0.0
 10
147.3641316363361
 20
142.5442707976973
 30
0.0
 10
147.3641316363361
 20
142.5442707976973
 30
0.0
 10
147.3641316363361
 20
151.0450439075512
 30
0.0
 10
147.3641316363361
 20
151.0450439075512
 30
0.0
 10
147.3641316363361
 20
151.0991319066697
 30
0.0
 10
147.321412452319
 20
151.1463297148176
 30
0.0
 10
147.2628458290697
 20
151.1463297148176
 30
0.0
 10
147.2628458290697
 20
151.1463297148176
 30
0.0
 10
144.2628566805141
 20
151.1463297148176
 30
0.0
 10
144.2628566805141
 20
151.1463297148176
 30
0.0
 10
144.3172891891811
 20
151.1463297148176
 30
0.0
 10
144.3641424877805
 20
151.1036105308005
 30
0.0
 10
144.3641424877805
 20
151.0450439075512
 30
0.0
 10
144.3641424877805
 20
151.0450439075512
 30
0.0
 10
144.3641424877805
 20
160.0450113532179
 30
0.0
 10
144.3641424877805
 20
160.0450113532179
 30
0.0
 10
144.3641424877805
 20
160.0994438618849
 30
0.0
 10
144.3214233037634
 20
160.1462971604843
 30
0.0
 10
144.2628566805141
 20
160.1462971604843
 30
0.0
 10
144.2628566805141
 20
160.1462971604843
 30
0.0
 10
144.2628566805141
 20
160.1462971604843
 30
0.0
 10
144.2628566805141
 20
160.1462971604843
 30
0.0
 10
144.2628566805141
 20
160.1462971604843
 30
0.0
 10
30.26137423288605
 20
160.1462971604843
 30
0.0
 10
30.26137423288605
 20
160.1462971604843
 30
0.0
 10
30.2069417242191
 20
160.1462971604843
 30
0.0
 10
30.15974391607118
 20
160.1035779764672
 30
0.0
 10
30.15974391607118
 20
160.0450113532179
 30
0.0
 10
30.15974391607118
 20
160.0450113532179
 30
0.0
 10
30.15974391607118
 20
160.0450113532179
 30
0.0
 10
30.15974391607118
 20
160.0450113532179
 30
0.0
 10
30.15974391607118
 20
160.0450113532179
 30
0.0
 10
30.15974391607118
 20
151.0450439075512
 30
0.0
 10
30.15974391607118
 20
151.0450439075512
 30
0.0
 10
30.15974391607118
 20
151.0991319066697
 30
0.0
 10
30.2028076096368
 20
151.1463297148176
 30
0.0
 10
30.26137423288605
 20
151.1463297148176
 30
0.0
 10
30.26137423288605
 20
151.1463297148176
 30
0.0
 10
27.26138508433049
 20
151.1463297148176
 30
0.0
 10
27.26138508433049
 20
151.1463297148176
 30
0.0
 10
27.20660806611502
 20
151.1463297148176
 30
0.0
 10
27.15975476751562
 20
151.1036105308005
 30
0.0
 10
27.15975476751562
 20
151.0450439075512
 30
0.0
 10
27.15975476751562
 20
151.0450439075512
 30
0.0
 10
27.15975476751562
 20
142.5442707976973
 30
0.0
 10
27.15975476751562
 20
142.5442707976973
 30
0.0
 10
27.15975476751562
 20
142.4901827985788
 30
0.0
 10
27.20281846108124
 20
142.4433294999795
 30
0.0
 10
27.26138508433049
 20
142.4433294999795
 30
0.0
 10
27.26138508433049
 20
142.4433294999795
 30
0.0
 10
30.26137423288605
 20
142.4433294999795
 30
0.0
 10
30.26137423288605
 20
142.4433294999795
 30
0.0
 10
30.2069417242191
 20
142.4433294999795
 30
0.0
 10
30.15974391607118
 20
142.485704174448
 30
0.0
 10
30.15974391607118
 20
142.5442707976973
 30
0.0
 10
30.15974391607118
 20
142.5442707976973
 30
0.0
 10
30.15974391607118
 20
136.5442925005862
 30
0.0
 10
30.15974391607118
 20
136.5442925005862
 30
0.0
 10
30.15974391607118
 20
136.5994140283501
 30
0.0
 10
30.2028076096368
 20
136.6462673269496
 30
0.0
 10
30.26137423288605
 20
136.6462673269496
 30
0.0
 10
30.26137423288605
 20
136.6462673269496
 30
0.0
 10
27.26138508433049
 20
136.6462673269496
 30
0.0
 10
27.26138508433049
 20
136.6462673269496
 30
0.0
 10
27.20660806611502
 20
136.6462673269496
 30
0.0
 10
27.15975476751562
 20
136.6028591238354
 30
0.0
 10
27.15975476751562
 20
136.5442925005862
 30
0.0
 10
27.15975476751562
 20
136.5442925005862
 30
0.0
 10
27.15975476751562
 20
130.544314203475
 30
0.0
 10
27.15975476751562
 20
130.544314203475
 30
0.0
 10
27.15975476751562
 20
130.4898816948081
 30
0.0
 10
27.20281846108124
 20
130.4430283962087
 30
0.0
 10
27.26138508433049
 20
130.4430283962087
 30
0.0
 10
27.26138508433049
 20
130.4430283962087
 30
0.0
 10
30.26137423288605
 20
130.4430283962087
 30
0.0
 10
30.26137423288605
 20
130.4430283962087
 30
0.0
 10
30.2069417242191
 20
130.4430283962087
 30
0.0
 10
30.15974391607118
 20
130.4857475802258
 30
0.0
 10
30.15974391607118
 20
130.544314203475
 30
0.0
 10
30.15974391607118
 20
130.544314203475
 30
0.0
 10
30.15974391607118
 20
124.5443359063639
 30
0.0
 10
30.15974391607118
 20
124.5443359063639
 30
0.0
 10
30.15974391607118
 20
124.5987684150309
 30
0.0
 10
30.2028076096368
 20
124.6456217136303
 30
0.0
 10
30.26137423288605
 20
124.6456217136303
 30
0.0
 10
30.26137423288605
 20
124.6456217136303
 30
0.0
 10
27.26138508433049
 20
124.6456217136303
 30
0.0
 10
27.26138508433049
 20
124.6456217136303
 30
0.0
 10
27.20660806611502
 20
124.6456217136303
 30
0.0
 10
27.15975476751562
 20
124.6029025296132
 30
0.0
 10
27.15975476751562
 20
124.5443359063639
 30
0.0
 10
27.15975476751562
 20
124.5443359063639
 30
0.0
 10
27.15975476751562
 20
116.0445963251555
 30
0.0
 10
27.15975476751562
 20
116.0445963251555
 30
0.0
 10
27.15975476751562
 20
116.0445963251555
 30
0.0
 10
27.15975476751562
 20
113.0446071766
 30
0.0
 10
27.15975476751562
 20
113.0446071766
 30
0.0
 10
27.15975476751562
 20
112.989485648836
 30
0.0
 10
27.20281846108124
 20
112.9426323502366
 30
0.0
 10
27.26138508433049
 20
112.9426323502366
 30
0.0
 10
27.26138508433049
 20
112.9426323502366
 30
0.0
 10
30.26137423288605
 20
112.9426323502366
 30
0.0
 10
30.26137423288605
 20
112.9426323502366
 30
0.0
  0
SPLINE
  5
42
330
1F
100
AcDbEntity
  8
Calque 1
 62
    18
420
    65793
370
     9
100
AcDbSpline
210
0.0
220
0.0
230
1.0
 70
    11
 71
     3
 72
   314
 73
   310
 74
     0
 42
0.0000000001
 43
0.0000000001
 40
0.0
 40
0.0
 40
0.0
 40
0.0
 40
1.0
 40
1.0
 40
1.0
 40
2.0
 40
2.0
 40
2.0
 40
3.0
 40
3.0
 40
3.0
 40
4.0
 40
4.0
 40
4.0
 40
5.0
 40
5.0
 40
5.0
 40
6.0
 40
6.0
 40
6.0
 40
7.0
 40
7.0
 40
7.0
 40
8.0
 40
8.0
 40
8.0
 40
9.0
 40
9.0
 40
9.0
 40
10.0
 40
10.0
 40
10.0
 40
11.0
 40
11.0
 40
11.0
 40
12.0
 40
12.0
 40
12.0
 40
13.0
 40
13.0
 40
13.0
 40
14.0
 40
14.0
 40
14.0
 40
15.0
 40
15.0
 40
15.0
 40
16.0
 40
16.0
 40
16.0
 40
17.0
 40
17.0
 40
17.0
 40
18.0
 40
18.0
 40
18.0
 40
19.0
 40
19.0
 40
19.0
 40
20.0
 40
20.0
 40
20.0
 40
21.0
 40
21.0
 40
21.0
 40
22.0
 40
22.0
 40
22.0
 40
23.0
 40
23.0
 40
23.0
 40
24.0
 40
24.0
 40
24.0
 40
25.0
 40
25.0
 40
25.0
 40
26.0
 40
26.0
 40
26.0
 40
27.0
 40
27.0
 40
27.0
 40
28.0
 40
28.0
 40
28.0
 40
29.0
 40
29.0
 40
29.0
 40
30.0
 40
30.0
 40
30.0
 40
31.0
 40
31.0
 40
31.0
 40
32.0
 40
32.0
 40
32.0
 40
33.0
 40
33.0
 40
33.0
 40
34.0
 40
34.0
 40
34.0
 40
35.0
 40
35.0
 40
35.0
 40
36.0
 40
36.0
 40
36.0
 40
37.0
 40
37.0
 40
37.0
 40
38.0
 40
38.0
 40
38.0
 40
39.0
 40
39.0
 40
39.0
 40
40.0
 40
40.0
 40
40.0
 40
41.0
 40
41.0
 40
41.0
 40
42.0
 40
42.0
 40
42.0
 40
43.0
 40
43.0
 40
43.0
 40
44.0
 40
44.0
 40
44.0
 40
45.0
 40
45.0
 40
45.0
 40
46.0
 40
46.0
 40
46.0
 40
47.0
 40
47.0
 40
47.0
 40
48.0
 40
48.0
 40
48.0
 40
49.0
 40
49.0
 40
49.0
 40
50.0
 40
50.0
 40
50.0
 40
51.0
 40
51.0
 40
51.0
 40
52.0
 40
52.0
 40
52.0
 40
53.0
 40
53.0
 40
53.0
 40
54.0
 40
54.0
 40
54.0
 40
55.0
 40
55.0
 40
55.0
 40
56.0
 40
56.0
 40
56.0
 40
57.0
 40
57.0
 40
57.0
 40
58.0
 40
58.0
 40
58.0
 40
59.0
 40
59.0
 40
59.0
 40
60.0
 40
60.0
 40
60.0
 40
61.0
 40
61.0
 40
61.0
 40
62.0
 40
62.0
 40
62.0
 40
63.0
 40
63.0
 40
63.0
 40
64.0
 40
64.0
 40
64.0
 40
65.0
 40
65.0
 40
65.0
 40
66.0
 40
66.0
 40
66.0
 40
67.0
 40
67.0
 40
67.0
 40
68.0
 40
68.0
 40
68.0
 40
69.0
 40
69.0
 40
69.0
 40
70.0
 40
70.0
 40
70.0
 40
71.0
 40
71.0
 40
71.0
 40
72.0
 40
72.0
 40
72.0
 40
73.0
 40
73.0
 40
73.0
 40
74.0
 40
74.0
 40
74.0
 40
75.0
 40
75.0
 40
75.0
 40
76.0
 40
76.0
 40
76.0
 40
77.0
 40
77.0
 40
77.0
 40
78.0
 40
78.0
 40
78.0
 40
79.0
 40
79.0
 40
79.0
 40
80.0
 40
80.0
 40
80.0
 40
81.0
 40
81.0
 40
81.0
 40
82.0
 40
82.0
 40
82.0
 40
83.0
 40
83.0
 40
83.0
 40
84.0
 40
84.0
 40
84.0
 40
85.0
 40
85.0
 40
85.0
 40
86.0
 40
86.0
 40
86.0
 40
87.0
 40
87.0
 40
87.0
 40
88.0
 40
88.0
 40
88.0
 40
89.0
 40
89.0
 40
89.0
 40
90.0
 40
90.0
 40
90.0
 40
91.0
 40
91.0
 40
91.0
 40
92.0
 40
92.0
 40
92.0
 40
93.0
 40
93.0
 40
93.0
 40
94.0
 40
94.0
 40
94.0
 40
95.0
 40
95.0
 40
95.0
 40
96.0
 40
96.0
 40
96.0
 40
97.0
 40
97.0
 40
97.0
 40
98.0
 40
98.0
 40
98.0
 40
99.0
 40
99.0
 40
99.0
 40
100.0
 40
100.0
 40
100.0
 40
101.0
 40
101.0
 40
101.0
 40
102.0
 40
102.0
 40
102.0
 40
103.0
 40
103.0
 40
103.0
 40
103.0
 10
30.33113741646235
 20
190.3932019923323
 30
0.0
 10
30.33113741646235
 20
190.3932019923323
 30
0.0
 10
27.3311482679068
 20
190.3932019923323
 30
0.0
 10
27.3311482679068
 20
190.3932019923323
 30
0.0
 10
27.27258164465755
 20
190.3932019923323
 30
0.0
 10
27.22951795109193
 20
190.3460041841844
 30
0.0
 10
27.22951795109193
 20
190.2912271659689
 30
0.0
 10
27.22951795109193
 20
190.2912271659689
 30
0.0
 10
27.22951795109193
 20
187.2912380174133
 30
0.0
 10
27.22951795109193
 20
187.2912380174133
 30
0.0
 10
27.22951795109193
 20
187.2912380174133
 30
0.0
 10
27.22951795109193
 20
180.2911485009342
 30
0.0
 10
27.22951795109193
 20
180.2911485009342
 30
0.0
 10
27.22951795109193
 20
180.2325818776849
 30
0.0
 10
27.27654350446559
 20
180.1902072032163
 30
0.0
 10
27.3311482679068
 20
180.1902072032163
 30
0.0
 10
27.3311482679068
 20
180.1902072032163
 30
0.0
 10
30.33113741646235
 20
180.1902072032163
 30
0.0
 10
30.33113741646235
 20
180.1902072032163
 30
0.0
 10
30.27257079321311
 20
180.1902072032163
 30
0.0
 10
30.22950709964748
 20
180.2370605018157
 30
0.0
 10
30.22950709964748
 20
180.2911485009342
 30
0.0
 10
30.22950709964748
 20
180.2911485009342
 30
0.0
 10
30.22950709964748
 20
174.291170203823
 30
0.0
 10
30.22950709964748
 20
174.291170203823
 30
0.0
 10
30.22950709964748
 20
174.3497368270723
 30
0.0
 10
30.27687716256967
 20
174.3924560110894
 30
0.0
 10
30.33113741646235
 20
174.3924560110894
 30
0.0
 10
30.33113741646235
 20
174.3924560110894
 30
0.0
 10
27.3311482679068
 20
174.3924560110894
 30
0.0
 10
27.3311482679068
 20
174.3924560110894
 30
0.0
 10
27.27258164465755
 20
174.3924560110894
 30
0.0
 10
27.22951795109193
 20
174.34560271249
 30
0.0
 10
27.22951795109193
 20
174.291170203823
 30
0.0
 10
27.22951795109193
 20
174.291170203823
 30
0.0
 10
27.22951795109193
 20
167.2914251968924
 30
0.0
 10
27.22951795109193
 20
167.2914251968924
 30
0.0
 10
27.22951795109193
 20
167.2914251968924
 30
0.0
 10
27.22951795109193
 20
167.2914251968924
 30
0.0
 10
27.22951795109193
 20
167.2914251968924
 30
0.0
 10
27.22951795109193
 20
167.2321695545461
 30
0.0
 10
27.27654350446559
 20
167.189450370529
 30
0.0
 10
27.3311482679068
 20
167.189450370529
 30
0.0
 10
27.3311482679068
 20
167.189450370529
 30
0.0
 10
30.33113741646235
 20
167.189450370529
 30
0.0
 10
30.33113741646235
 20
167.189450370529
 30
0.0
 10
30.33113741646235
 20
167.189450370529
 30
0.0
 10
144.3314140806706
 20
167.189450370529
 30
0.0
 10
144.3314140806706
 20
167.189450370529
 30
0.0
 10
144.3314140806706
 20
167.189450370529
 30
0.0
 10
147.3314032292262
 20
167.189450370529
 30
0.0
 10
147.3314032292262
 20
167.189450370529
 30
0.0
 10
147.3899698524754
 20
167.189450370529
 30
0.0
 10
147.4326890364925
 20
167.2363036691284
 30
0.0
 10
147.4326890364925
 20
167.2914251968924
 30
0.0
 10
147.4326890364925
 20
167.2914251968924
 30
0.0
 10
147.4326890364925
 20
174.291170203823
 30
0.0
 10
147.4326890364925
 20
174.291170203823
 30
0.0
 10
147.4326890364925
 20
174.3497368270723
 30
0.0
 10
147.3858357378931
 20
174.3924560110894
 30
0.0
 10
147.3314032292262
 20
174.3924560110894
 30
0.0
 10
147.3314032292262
 20
174.3924560110894
 30
0.0
 10
144.3314140806706
 20
174.3924560110894
 30
0.0
 10
144.3314140806706
 20
174.3924560110894
 30
0.0
 10
144.3899807039199
 20
174.3924560110894
 30
0.0
 10
144.432699887937
 20
174.34560271249
 30
0.0
 10
144.432699887937
 20
174.291170203823
 30
0.0
 10
144.432699887937
 20
174.291170203823
 30
0.0
 10
144.432699887937
 20
180.2911485009342
 30
0.0
 10
144.432699887937
 20
180.2911485009342
 30
0.0
 10
144.432699887937
 20
180.2325818776849
 30
0.0
 10
144.385502079789
 20
180.1902072032163
 30
0.0
 10
144.3314140806706
 20
180.1902072032163
 30
0.0
 10
144.3314140806706
 20
180.1902072032163
 30
0.0
 10
147.3314032292262
 20
180.1902072032163
 30
0.0
 10
147.3314032292262
 20
180.1902072032163
 30
0.0
 10
147.3899698524754
 20
180.1902072032163
 30
0.0
 10
147.4326890364925
 20
180.2370605018157
 30
0.0
 10
147.4326890364925
 20
180.2911485009342
 30
0.0
 10
147.4326890364925
 20
180.2911485009342
 30
0.0
 10
147.4326890364925
 20
187.2912380174133
 30
0.0
 10
147.4326890364925
 20
187.2912380174133
 30
0.0
 10
147.4326890364925
 20
187.2912380174133
 30
0.0
 10
147.4326890364925
 20
190.2912271659689
 30
0.0
 10
147.4326890364925
 20
190.2912271659689
 30
0.0
 10
147.4326890364925
 20
190.3497937892181
 30
0.0
 10
147.3858357378931
 20
190.3932019923323
 30
0.0
 10
147.3314032292262
 20
190.3932019923323
 30
0.0
 10
147.3314032292262
 20
190.3932019923323
 30
0.0
 10
144.3314140806706
 20
190.3932019923323
 30
0.0
 10
144.3314140806706
 20
190.3932019923323
 30
0.0
 10
144.3314140806706
 20
190.3932019923323
 30
0.0
 10
138.3314357835595
 20
190.3932019923323
 30
0.0
 10
138.3314357835595
 20
190.3932019923323
 30
0.0
 10
138.2728691603103
 20
190.3932019923323
 30
0.0
 10
138.2301499762932
 20
190.3460041841844
 30
0.0
 10
138.2301499762932
 20
190.2912271659689
 30
0.0
 10
138.2301499762932
 20
190.2912271659689
 30
0.0
 10
138.2301499762932
 20
187.2912380174133
 30
0.0
 10
138.2301499762932
 20
187.2912380174133
 30
0.0
 10
138.2301499762932
 20
187.3498046406626
 30
0.0
 10
138.2770032748926
 20
187.3932128437767
 30
0.0
 10
138.3314357835595
 20
187.3932128437767
 30
0.0
 10
138.3314357835595
 20
187.3932128437767
 30
0.0
 10
132.3311129768999
 20
187.3932128437767
 30
0.0
 10
132.3311129768999
 20
187.3932128437767
 30
0.0
 10
132.3896796001491
 20
187.3932128437767
 30
0.0
 10
132.4323987841662
 20
187.3460150356288
 30
0.0
 10
132.4323987841662
 20
187.2912380174133
 30
0.0
 10
132.4323987841662
 20
187.2912380174133
 30
0.0
 10
132.4323987841662
 20
190.2912271659689
 30
0.0
 10
132.4323987841662
 20
190.2912271659689
 30
0.0
 10
132.4323987841662
 20
190.3497937892181
 30
0.0
 10
132.3855454855668
 20
190.3932019923323
 30
0.0
 10
132.3311129768999
 20
190.3932019923323
 30
0.0
 10
132.3311129768999
 20
190.3932019923323
 30
0.0
 10
126.3314791893373
 20
190.3932019923323
 30
0.0
 10
126.3314791893373
 20
190.3932019923323
 30
0.0
 10
126.272912566088
 20
190.3932019923323
 30
0.0
 10
126.2295043629739
 20
190.3460041841844
 30
0.0
 10
126.2295043629739
 20
190.2912271659689
 30
0.0
 10
126.2295043629739
 20
190.2912271659689
 30
0.0
 10
126.2295043629739
 20
187.2912380174133
 30
0.0
 10
126.2295043629739
 20
187.2912380174133
 30
0.0
 10
126.2295043629739
 20
187.3498046406626
 30
0.0
 10
126.2770466806703
 20
187.3932128437767
 30
0.0
 10
126.3314791893373
 20
187.3932128437767
 30
0.0
 10
126.3314791893373
 20
187.3932128437767
 30
0.0
 10
120.3315008922262
 20
187.3932128437767
 30
0.0
 10
120.3315008922262
 20
187.3932128437767
 30
0.0
 10
120.3900675154754
 20
187.3932128437767
 30
0.0
 10
120.4327866994925
 20
187.3460150356288
 30
0.0
 10
120.4327866994925
 20
187.2912380174133
 30
0.0
 10
120.4327866994925
 20
187.2912380174133
 30
0.0
 10
120.4327866994925
 20
190.2912271659689
 30
0.0
 10
120.4327866994925
 20
190.2912271659689
 30
0.0
 10
120.4327866994925
 20
190.3497937892181
 30
0.0
 10
120.3859334008931
 20
190.3932019923323
 30
0.0
 10
120.3315008922262
 20
190.3932019923323
 30
0.0
 10
120.3315008922262
 20
190.3932019923323
 30
0.0
 10
114.331522595115
 20
190.3932019923323
 30
0.0
 10
114.331522595115
 20
190.3932019923323
 30
0.0
 10
114.2729559718658
 20
190.3932019923323
 30
0.0
 10
114.2295477687516
 20
190.3460041841844
 30
0.0
 10
114.2295477687516
 20
190.2912271659689
 30
0.0
 10
114.2295477687516
 20
190.2912271659689
 30
0.0
 10
114.2295477687516
 20
187.2912380174133
 30
0.0
 10
114.2295477687516
 20
187.2912380174133
 30
0.0
 10
114.2295477687516
 20
187.3498046406626
 30
0.0
 10
114.276401067351
 20
187.3932128437767
 30
0.0
 10
114.331522595115
 20
187.3932128437767
 30
0.0
 10
114.331522595115
 20
187.3932128437767
 30
0.0
 10
108.3315442980039
 20
187.3932128437767
 30
0.0
 10
108.3315442980039
 20
187.3932128437767
 30
0.0
 10
108.3901109212532
 20
187.3932128437767
 30
0.0
 10
108.4328301052703
 20
187.3460150356288
 30
0.0
 10
108.4328301052703
 20
187.2912380174133
 30
0.0
 10
108.4328301052703
 20
187.2912380174133
 30
0.0
 10
108.4328301052703
 20
190.2912271659689
 30
0.0
 10
108.4328301052703
 20
190.2912271659689
 30
0.0
 10
108.4328301052703
 20
190.3497937892181
 30
0.0
 10
108.3856322971223
 20
190.3932019923323
 30
0.0
 10
108.3315442980039
 20
190.3932019923323
 30
0.0
 10
108.3315442980039
 20
190.3932019923323
 30
0.0
 10
102.3313937461186
 20
190.3932019923323
 30
0.0
 10
102.3313937461186
 20
190.3932019923323
 30
0.0
 10
102.2728271228693
 20
190.3932019923323
 30
0.0
 10
102.2294189197551
 20
190.3460041841844
 30
0.0
 10
102.2294189197551
 20
190.2912271659689
 30
0.0
 10
102.2294189197551
 20
190.2912271659689
 30
0.0
 10
102.2294189197551
 20
187.2912380174133
 30
0.0
 10
102.2294189197551
 20
187.2912380174133
 30
0.0
 10
102.2294189197551
 20
187.3498046406626
 30
0.0
 10
102.2762722183545
 20
187.3932128437767
 30
0.0
 10
102.3313937461186
 20
187.3932128437767
 30
0.0
 10
102.3313937461186
 20
187.3932128437767
 30
0.0
 10
96.33124319423317
 20
187.3932128437767
 30
0.0
 10
96.33124319423317
 20
187.3932128437767
 30
0.0
 10
96.38980981748242
 20
187.3932128437767
 30
0.0
 10
96.43252900149952
 20
187.3460150356288
 30
0.0
 10
96.43252900149952
 20
187.2912380174133
 30
0.0
 10
96.43252900149952
 20
187.2912380174133
 30
0.0
 10
96.43252900149952
 20
190.2912271659689
 30
0.0
 10
96.43252900149952
 20
190.2912271659689
 30
0.0
 10
96.43252900149952
 20
190.3497937892181
 30
0.0
 10
96.38567570290012
 20
190.3932019923323
 30
0.0
 10
96.33124319423317
 20
190.3932019923323
 30
0.0
 10
96.33124319423317
 20
190.3932019923323
 30
0.0
 10
90.33126489712205
 20
190.3932019923323
 30
0.0
 10
90.33126489712205
 20
190.3932019923323
 30
0.0
 10
90.2726982738728
 20
190.3932019923323
 30
0.0
 10
90.22929007075865
 20
190.3460041841844
 30
0.0
 10
90.22929007075865
 20
190.2912271659689
 30
0.0
 10
90.22929007075865
 20
190.2912271659689
 30
0.0
 10
90.22929007075865
 20
187.2912380174133
 30
0.0
 10
90.22929007075865
 20
187.2912380174133
 30
0.0
 10
90.22929007075865
 20
187.3498046406626
 30
0.0
 10
90.27631562413231
 20
187.3932128437767
 30
0.0
 10
90.33126489712205
 20
187.3932128437767
 30
0.0
 10
90.33126489712205
 20
187.3932128437767
 30
0.0
 10
84.3309420904624
 20
187.3932128437767
 30
0.0
 10
84.3309420904624
 20
187.3932128437767
 30
0.0
 10
84.38950871371165
 20
187.3932128437767
 30
0.0
 10
84.4329169168258
 20
187.3460150356288
 30
0.0
 10
84.4329169168258
 20
187.2912380174133
 30
0.0
 10
84.4329169168258
 20
187.2912380174133
 30
0.0
 10
84.4329169168258
 20
190.2912271659689
 30
0.0
 10
84.4329169168258
 20
190.2912271659689
 30
0.0
 10
84.4329169168258
 20
190.3497937892181
 30
0.0
 10
84.38589136345215
 20
190.3932019923323
 30
0.0
 10
84.3309420904624
 20
190.3932019923323
 30
0.0
 10
84.3309420904624
 20
190.3932019923323
 30
0.0
 10
78.33079153857703
 20
190.3932019923323
 30
0.0
 10
78.33079153857703
 20
190.3932019923323
 30
0.0
 10
78.27222491532778
 20
190.3932019923323
 30
0.0
 10
78.22967798608495
 20
190.3460041841844
 30
0.0
 10
78.22967798608495
 20
190.2912271659689
 30
0.0
 10
78.22967798608495
 20
190.2912271659689
 30
0.0
 10
78.22967798608495
 20
187.2912380174133
 30
0.0
 10
78.22967798608495
 20
187.2912380174133
 30
0.0
 10
78.22967798608495
 20
187.3498046406626
 30
0.0
 10
78.27653128468434
 20
187.3932128437767
 30
0.0
 10
78.33079153857703
 20
187.3932128437767
 30
0.0
 10
78.33079153857703
 20
187.3932128437767
 30
0.0
 10
72.3308132414659
 20
187.3932128437767
 30
0.0
 10
72.3308132414659
 20
187.3932128437767
 30
0.0
 10
72.38937986471515
 20
187.3932128437767
 30
0.0
 10
72.43209904873225
 20
187.3460150356288
 30
0.0
 10
72.43209904873225
 20
187.2912380174133
 30
0.0
 10
72.43209904873225
 20
187.2912380174133
 30
0.0
 10
72.43209904873225
 20
190.2912271659689
 30
0.0
 10
72.43209904873225
 20
190.2912271659689
 30
0.0
 10
72.43209904873225
 20
190.3497937892181
 30
0.0
 10
72.3850734953586
 20
190.3932019923323
 30
0.0
 10
72.3308132414659
 20
190.3932019923323
 30
0.0
 10
72.3308132414659
 20
190.3932019923323
 30
0.0
 10
66.33083494435479
 20
190.3932019923323
 30
0.0
 10
66.33083494435479
 20
190.3932019923323
 30
0.0
 10
66.27226832110554
 20
190.3932019923323
 30
0.0
 10
66.22954913708845
 20
190.3460041841844
 30
0.0
 10
66.22954913708845
 20
190.2912271659689
 30
0.0
 10
66.22954913708845
 20
190.2912271659689
 30
0.0
 10
66.22954913708845
 20
187.2912380174133
 30
0.0
 10
66.22954913708845
 20
187.2912380174133
 30
0.0
 10
66.22954913708845
 20
187.3498046406626
 30
0.0
 10
66.27640243568784
 20
187.3932128437767
 30
0.0
 10
66.33083494435479
 20
187.3932128437767
 30
0.0
 10
66.33083494435479
 20
187.3932128437767
 30
0.0
 10
60.33068439246941
 20
187.3932128437767
 30
0.0
 10
60.33068439246941
 20
187.3932128437767
 30
0.0
 10
60.38925101571866
 20
187.3932128437767
 30
0.0
 10
60.43197019973576
 20
187.3460150356288
 30
0.0
 10
60.43197019973576
 20
187.2912380174133
 30
0.0
 10
60.43197019973576
 20
187.2912380174133
 30
0.0
 10
60.43197019973576
 20
190.2912271659689
 30
0.0
 10
60.43197019973576
 20
190.2912271659689
 30
0.0
 10
60.43197019973576
 20
190.3497937892181
 30
0.0
 10
60.38511690113636
 20
190.3932019923323
 30
0.0
 10
60.33068439246941
 20
190.3932019923323
 30
0.0
 10
60.33068439246941
 20
190.3932019923323
 30
0.0
 10
54.33036158580978
 20
190.3932019923323
 30
0.0
 10
54.33036158580978
 20
190.3932019923323
 30
0.0
 10
54.27179496256053
 20
190.3932019923323
 30
0.0
 10
54.22907577854343
 20
190.3460041841844
 30
0.0
 10
54.22907577854343
 20
190.2912271659689
 30
0.0
 10
54.22907577854343
 20
190.2912271659689
 30
0.0
 10
54.22907577854343
 20
187.2912380174133
 30
0.0
 10
54.22907577854343
 20
187.2912380174133
 30
0.0
 10
54.22907577854343
 20
187.3498046406626
 30
0.0
 10
54.27592907714283
 20
187.3932128437767
 30
0.0
 10
54.33036158580978
 20
187.3932128437767
 30
0.0
 10
54.33036158580978
 20
187.3932128437767
 30
0.0
 10
48.33021103392439
 20
187.3932128437767
 30
0.0
 10
48.33021103392439
 20
187.3932128437767
 30
0.0
 10
48.38912216672217
 20
187.3932128437767
 30
0.0
 10
48.43184135073926
 20
187.3460150356288
 30
0.0
 10
48.43184135073926
 20
187.2912380174133
 30
0.0
 10
48.43184135073926
 20
187.2912380174133
 30
0.0
 10
48.43184135073926
 20
190.2912271659689
 30
0.0
 10
48.43184135073926
 20
190.2912271659689
 30
0.0
 10
48.43184135073926
 20
190.3497937892181
 30
0.0
 10
48.38498805213987
 20
190.3932019923323
 30
0.0
 10
48.33021103392439
 20
190.3932019923323
 30
0.0
 10
48.33021103392439
 20
190.3932019923323
 30
0.0
 10
42.33023273681328
 20
190.3932019923323
 30
0.0
 10
42.33023273681328
 20
190.3932019923323
 30
0.0
 10
42.27166611356403
 20
190.3932019923323
 30
0.0
 10
42.22894692954693
 20
190.3460041841844
 30
0.0
 10
42.22894692954693
 20
190.2912271659689
 30
0.0
 10
42.22894692954693
 20
190.2912271659689
 30
0.0
 10
42.22894692954693
 20
187.2912380174133
 30
0.0
 10
42.22894692954693
 20
187.2912380174133
 30
0.0
 10
42.22894692954693
 20
187.3498046406626
 30
0.0
 10
42.27597248292059
 20
187.3932128437767
 30
0.0
 10
42.33023273681328
 20
187.3932128437767
 30
0.0
 10
42.33023273681328
 20
187.3932128437767
 30
0.0
 10
36.33025443970216
 20
187.3932128437767
 30
0.0
 10
36.33025443970216
 20
187.3932128437767
 30
0.0
 10
36.38882106295141
 20
187.3932128437767
 30
0.0
 10
36.43171250174277
 20
187.3460150356288
 30
0.0
 10
36.43171250174277
 20
187.2912380174133
 30
0.0
 10
36.43171250174277
 20
187.2912380174133
 30
0.0
 10
36.43171250174277
 20
190.2912271659689
 30
0.0
 10
36.43171250174277
 20
190.2912271659689
 30
0.0
 10
36.43171250174277
 20
190.3497937892181
 30
0.0
 10
36.38485920314337
 20
190.3932019923323
 30
0.0
 10
36.33025443970216
 20
190.3932019923323
 30
0.0
 10
36.33025443970216
 20
190.3932019923323
 30
0.0
 10
30.33113741646235
 20
190.3932019923323
 30
0.0
 10
30.33113741646235
 20
190.3932019923323
 30
0.0
  0
SPLINE
  5
43
330
1F
100
AcDbEntity
  8
Calque 1
 62
    18
420
    65793
370
     9
100
AcDbSpline
210
0.0
220
0.0
230
1.0
 70
    11
 71
     3
 72
   317
 73
   313
 74
     0
 42
0.0000000001
 43
0.0000000001
 40
0.0
 40
0.0
 40
0.0
 40
0.0
 40
1.0
 40
1.0
 40
1.0
 40
2.0
 40
2.0
 40
2.0
 40
3.0
 40
3.0
 40
3.0
 40
4.0
 40
4.0
 40
4.0
 40
5.0
 40
5.0
 40
5.0
 40
6.0
 40
6.0
 40
6.0
 40
7.0
 40
7.0
 40
7.0
 40
8.0
 40
8.0
 40
8.0
 40
9.0
 40
9.0
 40
9.0
 40
10.0
 40
10.0
 40
10.0
 40
11.0
 40
11.0
 40
11.0
 40
12.0
 40
12.0
 40
12.0
 40
13.0
 40
13.0
 40
13.0
 40
14.0
 40
14.0
 40
14.0
 40
15.0
 40
15.0
 40
15.0
 40
16.0
 40
16.0
 40
16.0
 40
17.0
 40
17.0
 40
17.0
 40
18.0
 40
18.0
 40
18.0
 40
19.0
 40
19.0
 40
19.0
 40
20.0
 40
20.0
 40
20.0
 40
21.0
 40
21.0
 40
21.0
 40
22.0
 40
22.0
 40
22.0
 40
23.0
 40
23.0
 40
23.0
 40
24.0
 40
24.0
 40
24.0
 40
25.0
 40
25.0
 40
25.0
 40
26.0
 40
26.0
 40
26.0
 40
27.0
 40
27.0
 40
27.0
 40
28.0
 40
28.0
 40
28.0
 40
29.0
 40
29.0
 40
29.0
 40
30.0
 40
30.0
 40
30.0
 40
31.0
 40
31.0
 40
31.0
 40
32.0
 40
32.0
 40
32.0
 40
33.0
 40
33.0
 40
33.0
 40
34.0
 40
34.0
 40
34.0
 40
35.0
 40
35.0
 40
35.0
 40
36.0
 40
36.0
 40
36.0
 40
37.0
 40
37.0
 40
37.0
 40
38.0
 40
38.0
 40
38.0
 40
39.0
 40
39.0
 40
39.0
 40
40.0
 40
40.0
 40
40.0
 40
41.0
 40
41.0
 40
41.0
 40
42.0
 40
42.0
 40
42.0
 40
43.0
 40
43.0
 40
43.0
 40
44.0
 40
44.0
 40
44.0
 40
45.0
 40
45.0
 40
45.0
 40
46.0
 40
46.0
 40
46.0
 40
47.0
 40
47.0
 40
47.0
 40
48.0
 40
48.0
 40
48.0
 40
49.0
 40
49.0
 40
49.0
 40
50.0
 40
50.0
 40
50.0
 40
51.0
 40
51.0
 40
51.0
 40
52.0
 40
52.0
 40
52.0
 40
53.0
 40
53.0
 40
53.0
 40
54.0
 40
54.0
 40
54.0
 40
55.0
 40
55.0
 40
55.0
 40
56.0
 40
56.0
 40
56.0
 40
57.0
 40
57.0
 40
57.0
 40
58.0
 40
58.0
 40
58.0
 40
59.0
 40
59.0
 40
59.0
 40
60.0
 40
60.0
 40
60.0
 40
61.0
 40
61.0
 40
61.0
 40
62.0
 40
62.0
 40
62.0
 40
63.0
 40
63.0
 40
63.0
 40
64.0
 40
64.0
 40
64.0
 40
65.0
 40
65.0
 40
65.0
 40
66.0
 40
66.0
 40
66.0
 40
67.0
 40
67.0
 40
67.0
 40
68.0
 40
68.0
 40
68.0
 40
69.0
 40
69.0
 40
69.0
 40
70.0
 40
70.0
 40
70.0
 40
71.0
 40
71.0
 40
71.0
 40
72.0
 40
72.0
 40
72.0
 40
73.0
 40
73.0
 40
73.0
 40
74.0
 40
74.0
 40
74.0
 40
75.0
 40
75.0
 40
75.0
 40
76.0
 40
76.0
 40
76.0
 40
77.0
 40
77.0
 40
77.0
 40
78.0
 40
78.0
 40
78.0
 40
79.0
 40
79.0
 40
79.0
 40
80.0
 40
80.0
 40
80.0
 40
81.0
 40
81.0
 40
81.0
 40
82.0
 40
82.0
 40
82.0
 40
83.0
 40
83.0
 40
83.0
 40
84.0
 40
84.0
 40
84.0
 40
85.0
 40
85.0
 40
85.0
 40
86.0
 40
86.0
 40
86.0
 40
87.0
 40
87.0
 40
87.0
 40
88.0
 40
88.0
 40
88.0
 40
89.0
 40
89.0
 40
89.0
 40
90.0
 40
90.0
 40
90.0
 40
91.0
 40
91.0
 40
91.0
 40
92.0
 40
92.0
 40
92.0
 40
93.0
 40
93.0
 40
93.0
 40
94.0
 40
94.0
 40
94.0
 40
95.0
 40
95.0
 40
95.0
 40
96.0
 40
96.0
 40
96.0
 40
97.0
 40
97.0
 40
97.0
 40
98.0
 40
98.0
 40
98.0
 40
99.0
 40
99.0
 40
99.0
 40
100.0
 40
100.0
 40
100.0
 40
101.0
 40
101.0
 40
101.0
 40
102.0
 40
102.0
 40
102.0
 40
103.0
 40
103.0
 40
103.0
 40
104.0
 40
104.0
 40
104.0
 40
104.0
 10
30.33113741646235
 20
214.7948133143569
 30
0.0
 10
30.33113741646235
 20
214.7948133143569
 30
0.0
 10
27.3311482679068
 20
214.7948133143569
 30
0.0
 10
27.3311482679068
 20
214.7948133143569
 30
0.0
 10
27.27258164465755
 20
214.7948133143569
 30
0.0
 10
27.22951795109193
 20
214.7479600157575
 30
0.0
 10
27.22951795109193
 20
214.693182997542
 30
0.0
 10
27.22951795109193
 20
214.693182997542
 30
0.0
 10
27.22951795109193
 20
211.6931938489864
 30
0.0
 10
27.22951795109193
 20
211.6931938489864
 30
0.0
 10
27.22951795109193
 20
211.6931938489864
 30
0.0
 10
27.22951795109193
 20
206.3419270317479
 30
0.0
 10
27.22951795109193
 20
206.3419270317479
 30
0.0
 10
27.22951795109193
 20
206.3419270317479
 30
0.0
 10
27.22951795109193
 20
200.9903157049608
 30
0.0
 10
27.22951795109193
 20
200.9903157049608
 30
0.0
 10
27.22951795109193
 20
200.9903157049608
 30
0.0
 10
27.22951795109193
 20
200.9903157049608
 30
0.0
 10
27.22951795109193
 20
200.9903157049608
 30
0.0
 10
27.22951795109193
 20
200.9317490817115
 30
0.0
 10
27.27654350446559
 20
200.8890298976944
 30
0.0
 10
27.3311482679068
 20
200.8890298976944
 30
0.0
 10
27.3311482679068
 20
200.8890298976944
 30
0.0
 10
30.33113741646235
 20
200.8890298976944
 30
0.0
 10
30.33113741646235
 20
200.8890298976944
 30
0.0
 10
30.33113741646235
 20
200.8890298976944
 30
0.0
 10
30.33113741646235
 20
200.8890298976944
 30
0.0
 10
30.33113741646235
 20
200.8890298976944
 30
0.0
 10
30.27257079321311
 20
200.8890298976944
 30
0.0
 10
30.22950709964748
 20
200.9358831962938
 30
0.0
 10
30.22950709964748
 20
200.9903157049608
 30
0.0
 10
30.22950709964748
 20
200.9903157049608
 30
0.0
 10
30.22950709964748
 20
196.4786186574776
 30
0.0
 10
30.22950709964748
 20
196.4786186574776
 30
0.0
 10
30.22950709964748
 20
196.5371852807268
 30
0.0
 10
30.27687716256967
 20
196.5795599551954
 30
0.0
 10
30.33113741646235
 20
196.5795599551954
 30
0.0
 10
30.33113741646235
 20
196.5795599551954
 30
0.0
 10
27.3311482679068
 20
196.5795599551954
 30
0.0
 10
27.3311482679068
 20
196.5795599551954
 30
0.0
 10
27.27258164465755
 20
196.5795599551954
 30
0.0
 10
27.22951795109193
 20
196.532706656596
 30
0.0
 10
27.22951795109193
 20
196.4786186574776
 30
0.0
 10
27.22951795109193
 20
196.4786186574776
 30
0.0
 10
27.22951795109193
 20
191.9900037497456
 30
0.0
 10
27.22951795109193
 20
191.9900037497456
 30
0.0
 10
27.22951795109193
 20
191.9314371264963
 30
0.0
 10
27.27654350446559
 20
191.8887179424792
 30
0.0
 10
27.3311482679068
 20
191.8887179424792
 30
0.0
 10
27.3311482679068
 20
191.8887179424792
 30
0.0
 10
147.3314032292262
 20
191.8887179424792
 30
0.0
 10
147.3314032292262
 20
191.8887179424792
 30
0.0
 10
147.3899698524754
 20
191.8887179424792
 30
0.0
 10
147.4326890364925
 20
191.9359157506271
 30
0.0
 10
147.4326890364925
 20
191.9900037497456
 30
0.0
 10
147.4326890364925
 20
191.9900037497456
 30
0.0
 10
147.4326890364925
 20
196.4786186574776
 30
0.0
 10
147.4326890364925
 20
196.4786186574776
 30
0.0
 10
147.4326890364925
 20
196.5371852807268
 30
0.0
 10
147.3858357378931
 20
196.5795599551954
 30
0.0
 10
147.3314032292262
 20
196.5795599551954
 30
0.0
 10
147.3314032292262
 20
196.5795599551954
 30
0.0
 10
144.3314140806706
 20
196.5795599551954
 30
0.0
 10
144.3314140806706
 20
196.5795599551954
 30
0.0
 10
144.3899807039199
 20
196.5795599551954
 30
0.0
 10
144.432699887937
 20
196.532706656596
 30
0.0
 10
144.432699887937
 20
196.4786186574776
 30
0.0
 10
144.432699887937
 20
196.4786186574776
 30
0.0
 10
144.432699887937
 20
200.9903157049608
 30
0.0
 10
144.432699887937
 20
200.9903157049608
 30
0.0
 10
144.432699887937
 20
200.9317490817115
 30
0.0
 10
144.385502079789
 20
200.8890298976944
 30
0.0
 10
144.3314140806706
 20
200.8890298976944
 30
0.0
 10
144.3314140806706
 20
200.8890298976944
 30
0.0
 10
147.3314032292262
 20
200.8890298976944
 30
0.0
 10
147.3314032292262
 20
200.8890298976944
 30
0.0
 10
147.3899698524754
 20
200.8890298976944
 30
0.0
 10
147.4326890364925
 20
200.9358831962938
 30
0.0
 10
147.4326890364925
 20
200.9903157049608
 30
0.0
 10
147.4326890364925
 20
200.9903157049608
 30
0.0
 10
147.4326890364925
 20
206.3419270317479
 30
0.0
 10
147.4326890364925
 20
206.3419270317479
 30
0.0
 10
147.4326890364925
 20
206.3419270317479
 30
0.0
 10
147.4326890364925
 20
211.6931938489864
 30
0.0
 10
147.4326890364925
 20
211.6931938489864
 30
0.0
 10
147.4326890364925
 20
211.6931938489864
 30
0.0
 10
147.4326890364925
 20
214.693182997542
 30
0.0
 10
147.4326890364925
 20
214.693182997542
 30
0.0
 10
147.4326890364925
 20
214.7517496207912
 30
0.0
 10
147.3858357378931
 20
214.7948133143569
 30
0.0
 10
147.3314032292262
 20
214.7948133143569
 30
0.0
 10
147.3314032292262
 20
214.7948133143569
 30
0.0
 10
144.3314140806706
 20
214.7948133143569
 30
0.0
 10
144.3314140806706
 20
214.7948133143569
 30
0.0
 10
144.3314140806706
 20
214.7948133143569
 30
0.0
 10
138.3314357835595
 20
214.7948133143569
 30
0.0
 10
138.3314357835595
 20
214.7948133143569
 30
0.0
 10
138.2728691603103
 20
214.7948133143569
 30
0.0
 10
138.2301499762932
 20
214.7479600157575
 30
0.0
 10
138.2301499762932
 20
214.693182997542
 30
0.0
 10
138.2301499762932
 20
214.693182997542
 30
0.0
 10
138.2301499762932
 20
211.6931938489864
 30
0.0
 10
138.2301499762932
 20
211.6931938489864
 30
0.0
 10
138.2301499762932
 20
211.7517604722357
 30
0.0
 10
138.2770032748926
 20
211.7948241658013
 30
0.0
 10
138.3314357835595
 20
211.7948241658013
 30
0.0
 10
138.3314357835595
 20
211.7948241658013
 30
0.0
 10
132.3311129768999
 20
211.7948241658013
 30
0.0
 10
132.3311129768999
 20
211.7948241658013
 30
0.0
 10
132.3896796001491
 20
211.7948241658013
 30
0.0
 10
132.4323987841662
 20
211.7476263576534
 30
0.0
 10
132.4323987841662
 20
211.6931938489864
 30
0.0
 10
132.4323987841662
 20
211.6931938489864
 30
0.0
 10
132.4323987841662
 20
214.693182997542
 30
0.0
 10
132.4323987841662
 20
214.693182997542
 30
0.0
 10
132.4323987841662
 20
214.7517496207912
 30
0.0
 10
132.3855454855668
 20
214.7948133143569
 30
0.0
 10
132.3311129768999
 20
214.7948133143569
 30
0.0
 10
132.3311129768999
 20
214.7948133143569
 30
0.0
 10
126.3314791893373
 20
214.7948133143569
 30
0.0
 10
126.3314791893373
 20
214.7948133143569
 30
0.0
 10
126.272912566088
 20
214.7948133143569
 30
0.0
 10
126.2295043629739
 20
214.7479600157575
 30
0.0
 10
126.2295043629739
 20
214.693182997542
 30
0.0
 10
126.2295043629739
 20
214.693182997542
 30
0.0
 10
126.2295043629739
 20
211.6931938489864
 30
0.0
 10
126.2295043629739
 20
211.6931938489864
 30
0.0
 10
126.2295043629739
 20
211.7517604722357
 30
0.0
 10
126.2770466806703
 20
211.7948241658013
 30
0.0
 10
126.3314791893373
 20
211.7948241658013
 30
0.0
 10
126.3314791893373
 20
211.7948241658013
 30
0.0
 10
120.3315008922262
 20
211.7948241658013
 30
0.0
 10
120.3315008922262
 20
211.7948241658013
 30
0.0
 10
120.3900675154754
 20
211.7948241658013
 30
0.0
 10
120.4327866994925
 20
211.7476263576534
 30
0.0
 10
120.4327866994925
 20
211.6931938489864
 30
0.0
 10
120.4327866994925
 20
211.6931938489864
 30
0.0
 10
120.4327866994925
 20
214.693182997542
 30
0.0
 10
120.4327866994925
 20
214.693182997542
 30
0.0
 10
120.4327866994925
 20
214.7517496207912
 30
0.0
 10
120.3859334008931
 20
214.7948133143569
 30
0.0
 10
120.3315008922262
 20
214.7948133143569
 30
0.0
 10
120.3315008922262
 20
214.7948133143569
 30
0.0
 10
114.331522595115
 20
214.7948133143569
 30
0.0
 10
114.331522595115
 20
214.7948133143569
 30
0.0
 10
114.2729559718658
 20
214.7948133143569
 30
0.0
 10
114.2295477687516
 20
214.7479600157575
 30
0.0
 10
114.2295477687516
 20
214.693182997542
 30
0.0
 10
114.2295477687516
 20
214.693182997542
 30
0.0
 10
114.2295477687516
 20
211.6931938489864
 30
0.0
 10
114.2295477687516
 20
211.6931938489864
 30
0.0
 10
114.2295477687516
 20
211.7517604722357
 30
0.0
 10
114.276401067351
 20
211.7948241658013
 30
0.0
 10
114.331522595115
 20
211.7948241658013
 30
0.0
 10
114.331522595115
 20
211.7948241658013
 30
0.0
 10
108.3315442980039
 20
211.7948241658013
 30
0.0
 10
108.3315442980039
 20
211.7948241658013
 30
0.0
 10
108.3901109212532
 20
211.7948241658013
 30
0.0
 10
108.4328301052703
 20
211.7476263576534
 30
0.0
 10
108.4328301052703
 20
211.6931938489864
 30
0.0
 10
108.4328301052703
 20
211.6931938489864
 30
0.0
 10
108.4328301052703
 20
214.693182997542
 30
0.0
 10
108.4328301052703
 20
214.693182997542
 30
0.0
 10
108.4328301052703
 20
214.7517496207912
 30
0.0
 10
108.3856322971223
 20
214.7948133143569
 30
0.0
 10
108.3315442980039
 20
214.7948133143569
 30
0.0
 10
108.3315442980039
 20
214.7948133143569
 30
0.0
 10
102.3313937461186
 20
214.7948133143569
 30
0.0
 10
102.3313937461186
 20
214.7948133143569
 30
0.0
 10
102.2728271228693
 20
214.7948133143569
 30
0.0
 10
102.2294189197551
 20
214.7479600157575
 30
0.0
 10
102.2294189197551
 20
214.693182997542
 30
0.0
 10
102.2294189197551
 20
214.693182997542
 30
0.0
 10
102.2294189197551
 20
211.6931938489864
 30
0.0
 10
102.2294189197551
 20
211.6931938489864
 30
0.0
 10
102.2294189197551
 20
211.7517604722357
 30
0.0
 10
102.2762722183545
 20
211.7948241658013
 30
0.0
 10
102.3313937461186
 20
211.7948241658013
 30
0.0
 10
102.3313937461186
 20
211.7948241658013
 30
0.0
 10
96.33124319423317
 20
211.7948241658013
 30
0.0
 10
96.33124319423317
 20
211.7948241658013
 30
0.0
 10
96.38980981748242
 20
211.7948241658013
 30
0.0
 10
96.43252900149952
 20
211.7476263576534
 30
0.0
 10
96.43252900149952
 20
211.6931938489864
 30
0.0
 10
96.43252900149952
 20
211.6931938489864
 30
0.0
 10
96.43252900149952
 20
214.693182997542
 30
0.0
 10
96.43252900149952
 20
214.693182997542
 30
0.0
 10
96.43252900149952
 20
214.7517496207912
 30
0.0
 10
96.38567570290012
 20
214.7948133143569
 30
0.0
 10
96.33124319423317
 20
214.7948133143569
 30
0.0
 10
96.33124319423317
 20
214.7948133143569
 30
0.0
 10
90.33126489712205
 20
214.7948133143569
 30
0.0
 10
90.33126489712205
 20
214.7948133143569
 30
0.0
 10
90.2726982738728
 20
214.7948133143569
 30
0.0
 10
90.22929007075865
 20
214.7479600157575
 30
0.0
 10
90.22929007075865
 20
214.693182997542
 30
0.0
 10
90.22929007075865
 20
214.693182997542
 30
0.0
 10
90.22929007075865
 20
211.6931938489864
 30
0.0
 10
90.22929007075865
 20
211.6931938489864
 30
0.0
 10
90.22929007075865
 20
211.7517604722357
 30
0.0
 10
90.27631562413231
 20
211.7948241658013
 30
0.0
 10
90.33126489712205
 20
211.7948241658013
 30
0.0
 10
90.33126489712205
 20
211.7948241658013
 30
0.0
 10
84.3309420904624
 20
211.7948241658013
 30
0.0
 10
84.3309420904624
 20
211.7948241658013
 30
0.0
 10
84.38950871371165
 20
211.7948241658013
 30
0.0
 10
84.4329169168258
 20
211.7476263576534
 30
0.0
 10
84.4329169168258
 20
211.6931938489864
 30
0.0
 10
84.4329169168258
 20
211.6931938489864
 30
0.0
 10
84.4329169168258
 20
214.693182997542
 30
0.0
 10
84.4329169168258
 20
214.693182997542
 30
0.0
 10
84.4329169168258
 20
214.7517496207912
 30
0.0
 10
84.38589136345215
 20
214.7948133143569
 30
0.0
 10
84.3309420904624
 20
214.7948133143569
 30
0.0
 10
84.3309420904624
 20
214.7948133143569
 30
0.0
 10
78.33079153857703
 20
214.7948133143569
 30
0.0
 10
78.33079153857703
 20
214.7948133143569
 30
0.0
 10
78.27222491532778
 20
214.7948133143569
 30
0.0
 10
78.22967798608495
 20
214.7479600157575
 30
0.0
 10
78.22967798608495
 20
214.693182997542
 30
0.0
 10
78.22967798608495
 20
214.693182997542
 30
0.0
 10
78.22967798608495
 20
211.6931938489864
 30
0.0
 10
78.22967798608495
 20
211.6931938489864
 30
0.0
 10
78.22967798608495
 20
211.7517604722357
 30
0.0
 10
78.27653128468434
 20
211.7948241658013
 30
0.0
 10
78.33079153857703
 20
211.7948241658013
 30
0.0
 10
78.33079153857703
 20
211.7948241658013
 30
0.0
 10
72.3308132414659
 20
211.7948241658013
 30
0.0
 10
72.3308132414659
 20
211.7948241658013
 30
0.0
 10
72.38937986471515
 20
211.7948241658013
 30
0.0
 10
72.43209904873225
 20
211.7476263576534
 30
0.0
 10
72.43209904873225
 20
211.6931938489864
 30
0.0
 10
72.43209904873225
 20
211.6931938489864
 30
0.0
 10
72.43209904873225
 20
214.693182997542
 30
0.0
 10
72.43209904873225
 20
214.693182997542
 30
0.0
 10
72.43209904873225
 20
214.7517496207912
 30
0.0
 10
72.3850734953586
 20
214.7948133143569
 30
0.0
 10
72.3308132414659
 20
214.7948133143569
 30
0.0
 10
72.3308132414659
 20
214.7948133143569
 30
0.0
 10
66.33117945390332
 20
214.7948133143569
 30
0.0
 10
66.33117945390332
 20
214.7948133143569
 30
0.0
 10
66.27261283065407
 20
214.7948133143569
 30
0.0
 10
66.22989364663698
 20
214.7479600157575
 30
0.0
 10
66.22989364663698
 20
214.693182997542
 30
0.0
 10
66.22989364663698
 20
214.693182997542
 30
0.0
 10
66.22989364663698
 20
211.6931938489864
 30
0.0
 10
66.22989364663698
 20
211.6931938489864
 30
0.0
 10
66.22989364663698
 20
211.7517604722357
 30
0.0
 10
66.27674694523637
 20
211.7948241658013
 30
0.0
 10
66.33117945390332
 20
211.7948241658013
 30
0.0
 10
66.33117945390332
 20
211.7948241658013
 30
0.0
 10
60.33137341156647
 20
211.7948241658013
 30
0.0
 10
60.33137341156647
 20
211.7948241658013
 30
0.0
 10
60.38994003481571
 20
211.7948241658013
 30
0.0
 10
60.43265921883281
 20
211.7476263576534
 30
0.0
 10
60.43265921883281
 20
211.6931938489864
 30
0.0
 10
60.43265921883281
 20
211.6931938489864
 30
0.0
 10
60.43265921883281
 20
214.693182997542
 30
0.0
 10
60.43265921883281
 20
214.693182997542
 30
0.0
 10
60.43265921883281
 20
214.7517496207912
 30
0.0
 10
60.38580592023341
 20
214.7948133143569
 30
0.0
 10
60.33137341156647
 20
214.7948133143569
 30
0.0
 10
60.33137341156647
 20
214.7948133143569
 30
0.0
 10
54.33105060490682
 20
214.7948133143569
 30
0.0
 10
54.33105060490682
 20
214.7948133143569
 30
0.0
 10
54.27248398165758
 20
214.7948133143569
 30
0.0
 10
54.22976479764048
 20
214.7479600157575
 30
0.0
 10
54.22976479764048
 20
214.693182997542
 30
0.0
 10
54.22976479764048
 20
214.693182997542
 30
0.0
 10
54.22976479764048
 20
211.6931938489864
 30
0.0
 10
54.22976479764048
 20
211.6931938489864
 30
0.0
 10
54.22976479764048
 20
211.7517604722357
 30
0.0
 10
54.27661809623988
 20
211.7948241658013
 30
0.0
 10
54.33105060490682
 20
211.7948241658013
 30
0.0
 10
54.33105060490682
 20
211.7948241658013
 30
0.0
 10
48.33090005302144
 20
211.7948241658013
 30
0.0
 10
48.33090005302144
 20
211.7948241658013
 30
0.0
 10
48.38981118581922
 20
211.7948241658013
 30
0.0
 10
48.43253036983631
 20
211.7476263576534
 30
0.0
 10
48.43253036983631
 20
211.6931938489864
 30
0.0
 10
48.43253036983631
 20
211.6931938489864
 30
0.0
 10
48.43253036983631
 20
214.693182997542
 30
0.0
 10
48.43253036983631
 20
214.693182997542
 30
0.0
 10
48.43253036983631
 20
214.7517496207912
 30
0.0
 10
48.38567707123692
 20
214.7948133143569
 30
0.0
 10
48.33090005302144
 20
214.7948133143569
 30
0.0
 10
48.33090005302144
 20
214.7948133143569
 30
0.0
 10
42.33092175591032
 20
214.7948133143569
 30
0.0
 10
42.33092175591032
 20
214.7948133143569
 30
0.0
 10
42.27235513266108
 20
214.7948133143569
 30
0.0
 10
42.22963594864398
 20
214.7479600157575
 30
0.0
 10
42.22963594864398
 20
214.693182997542
 30
0.0
 10
42.22963594864398
 20
214.693182997542
 30
0.0
 10
42.22963594864398
 20
211.6931938489864
 30
0.0
 10
42.22963594864398
 20
211.6931938489864
 30
0.0
 10
42.22963594864398
 20
211.7517604722357
 30
0.0
 10
42.27666150201764
 20
211.7948241658013
 30
0.0
 10
42.33092175591032
 20
211.7948241658013
 30
0.0
 10
42.33092175591032
 20
211.7948241658013
 30
0.0
 10
36.33094345879921
 20
211.7948241658013
 30
0.0
 10
36.33094345879921
 20
211.7948241658013
 30
0.0
 10
36.38951008204846
 20
211.7948241658013
 30
0.0
 10
36.43240152083982
 20
211.7476263576534
 30
0.0
 10
36.43240152083982
 20
211.6931938489864
 30
0.0
 10
36.43240152083982
 20
211.6931938489864
 30
0.0
 10
36.43240152083982
 20
214.693182997542
 30
0.0
 10
36.43240152083982
 20
214.693182997542
 30
0.0
 10
36.43240152083982
 20
214.7517496207912
 30
0.0
 10
36.38554822224042
 20
214.7948133143569
 30
0.0
 10
36.33094345879921
 20
214.7948133143569
 30
0.0
 10
36.33094345879921
 20
214.7948133143569
 30
0.0
 10
30.33113741646235
 20
214.7948133143569
 30
0.0
 10
30.33113741646235
 20
214.7948133143569
 30
0.0
  0
SPLINE
  5
44
330
1F
100
AcDbEntity
  8
Calque 1
 62
    18
420
    65793
370
     9
100
AcDbSpline
210
0.0
220
0.0
230
1.0
 70
    11
 71
     3
 72
   905
 73
   901
 74
     0
 42
0.0000000001
 43
0.0000000001
 40
0.0
 40
0.0
 40
0.0
 40
0.0
 40
1.0
 40
1.0
 40
1.0
 40
2.0
 40
2.0
 40
2.0
 40
3.0
 40
3.0
 40
3.0
 40
4.0
 40
4.0
 40
4.0
 40
5.0
 40
5.0
 40
5.0
 40
6.0
 40
6.0
 40
6.0
 40
7.0
 40
7.0
 40
7.0
 40
8.0
 40
8.0
 40
8.0
 40
9.0
 40
9.0
 40
9.0
 40
10.0
 40
10.0
 40
10.0
 40
11.0
 40
11.0
 40
11.0
 40
12.0
 40
12.0
 40
12.0
 40
13.0
 40
13.0
 40
13.0
 40
14.0
 40
14.0
 40
14.0
 40
15.0
 40
15.0
 40
15.0
 40
16.0
 40
16.0
 40
16.0
 40
17.0
 40
17.0
 40
17.0
 40
18.0
 40
18.0
 40
18.0
 40
19.0
 40
19.0
 40
19.0
 40
20.0
 40
20.0
 40
20.0
 40
21.0
 40
21.0
 40
21.0
 40
22.0
 40
22.0
 40
22.0
 40
23.0
 40
23.0
 40
23.0
 40
24.0
 40
24.0
 40
24.0
 40
25.0
 40
25.0
 40
25.0
 40
26.0
 40
26.0
 40
26.0
 40
27.0
 40
27.0
 40
27.0
 40
28.0
 40
28.0
 40
28.0
 40
29.0
 40
29.0
 40
29.0
 40
30.0
 40
30.0
 40
30.0
 40
31.0
 40
31.0
 40
31.0
 40
32.0
 40
32.0
 40
32.0
 40
33.0
 40
33.0
 40
33.0
 40
34.0
 40
34.0
 40
34.0
 40
35.0
 40
35.0
 40
35.0
 40
36.0
 40
36.0
 40
36.0
 40
37.0
 40
37.0
 40
37.0
 40
38.0
 40
38.0
 40
38.0
 40
39.0
 40
39.0
 40
39.0
 40
40.0
 40
40.0
 40
40.0
 40
41.0
 40
41.0
 40
41.0
 40
42.0
 40
42.0
 40
42.0
 40
43.0
 40
43.0
 40
43.0
 40
44.0
 40
44.0
 40
44.0
 40
45.0
 40
45.0
 40
45.0
 40
46.0
 40
46.0
 40
46.0
 40
47.0
 40
47.0
 40
47.0
 40
48.0
 40
48.0
 40
48.0
 40
49.0
 40
49.0
 40
49.0
 40
50.0
 40
50.0
 40
50.0
 40
51.0
 40
51.0
 40
51.0
 40
52.0
 40
52.0
 40
52.0
 40
53.0
 40
53.0
 40
53.0
 40
54.0
 40
54.0
 40
54.0
 40
55.0
 40
55.0
 40
55.0
 40
56.0
 40
56.0
 40
56.0
 40
57.0
 40
57.0
 40
57.0
 40
58.0
 40
58.0
 40
58.0
 40
59.0
 40
59.0
 40
59.0
 40
60.0
 40
60.0
 40
60.0
 40
61.0
 40
61.0
 40
61.0
 40
62.0
 40
62.0
 40
62.0
 40
63.0
 40
63.0
 40
63.0
 40
64.0
 40
64.0
 40
64.0
 40
65.0
 40
65.0
 40
65.0
 40
66.0
 40
66.0
 40
66.0
 40
67.0
 40
67.0
 40
67.0
 40
68.0
 40
68.0
 40
68.0
 40
69.0
 40
69.0
 40
69.0
 40
70.0
 40
70.0
 40
70.0
 40
71.0
 40
71.0
 40
71.0
 40
72.0
 40
72.0
 40
72.0
 40
73.0
 40
73.0
 40
73.0
 40
74.0
 40
74.0
 40
74.0
 40
75.0
 40
75.0
 40
75.0
 40
76.0
 40
76.0
 40
76.0
 40
77.0
 40
77.0
 40
77.0
 40
78.0
 40
78.0
 40
78.0
 40
79.0
 40
79.0
 40
79.0
 40
80.0
 40
80.0
 40
80.0
 40
81.0
 40
81.0
 40
81.0
 40
82.0
 40
82.0
 40
82.0
 40
83.0
 40
83.0
 40
83.0
 40
84.0
 40
84.0
 40
84.0
 40
85.0
 40
85.0
 40
85.0
 40
86.0
 40
86.0
 40
86.0
 40
87.0
 40
87.0
 40
87.0
 40
88.0
 40
88.0
 40
88.0
 40
89.0
 40
89.0
 40
89.0
 40
90.0
 40
90.0
 40
90.0
 40
91.0
 40
91.0
 40
91.0
 40
92.0
 40
92.0
 40
92.0
 40
93.0
 40
93.0
 40
93.0
 40
94.0
 40
94.0
 40
94.0
 40
95.0
 40
95.0
 40
95.0
 40
96.0
 40
96.0
 40
96.0
 40
97.0
 40
97.0
 40
97.0
 40
98.0
 40
98.0
 40
98.0
 40
99.0
 40
99.0
 40
99.0
 40
100.0
 40
100.0
 40
100.0
 40
101.0
 40
101.0
 40
101.0
 40
102.0
 40
102.0
 40
102.0
 40
103.0
 40
103.0
 40
103.0
 40
104.0
 40
104.0
 40
104.0
 40
105.0
 40
105.0
 40
105.0
 40
106.0
 40
106.0
 40
106.0
 40
107.0
 40
107.0
 40
107.0
 40
108.0
 40
108.0
 40
108.0
 40
109.0
 40
109.0
 40
109.0
 40
110.0
 40
110.0
 40
110.0
 40
111.0
 40
111.0
 40
111.0
 40
112.0
 40
112.0
 40
112.0
 40
113.0
 40
113.0
 40
113.0
 40
114.0
 40
114.0
 40
114.0
 40
115.0
 40
115.0
 40
115.0
 40
116.0
 40
116.0
 40
116.0
 40
117.0
 40
117.0
 40
117.0
 40
118.0
 40
118.0
 40
118.0
 40
119.0
 40
119.0
 40
119.0
 40
120.0
 40
120.0
 40
120.0
 40
121.0
 40
121.0
 40
121.0
 40
122.0
 40
122.0
 40
122.0
 40
123.0
 40
123.0
 40
123.0
 40
124.0
 40
124.0
 40
124.0
 40
125.0
 40
125.0
 40
125.0
 40
126.0
 40
126.0
 40
126.0
 40
127.0
 40
127.0
 40
127.0
 40
128.0
 40
128.0
 40
128.0
 40
129.0
 40
129.0
 40
129.0
 40
130.0
 40
130.0
 40
130.0
 40
131.0
 40
131.0
 40
131.0
 40
132.0
 40
132.0
 40
132.0
 40
133.0
 40
133.0
 40
133.0
 40
134.0
 40
134.0
 40
134.0
 40
135.0
 40
135.0
 40
135.0
 40
136.0
 40
136.0
 40
136.0
 40
137.0
 40
137.0
 40
137.0
 40
138.0
 40
138.0
 40
138.0
 40
139.0
 40
139.0
 40
139.0
 40
140.0
 40
140.0
 40
140.0
 40
141.0
 40
141.0
 40
141.0
 40
142.0
 40
142.0
 40
142.0
 40
143.0
 40
143.0
 40
143.0
 40
144.0
 40
144.0
 40
144.0
 40
145.0
 40
145.0
 40
145.0
 40
146.0
 40
146.0
 40
146.0
 40
147.0
 40
147.0
 40
147.0
 40
148.0
 40
148.0
 40
148.0
 40
149.0
 40
149.0
 40
149.0
 40
150.0
 40
150.0
 40
150.0
 40
151.0
 40
151.0
 40
151.0
 40
152.0
 40
152.0
 40
152.0
 40
153.0
 40
153.0
 40
153.0
 40
154.0
 40
154.0
 40
154.0
 40
155.0
 40
155.0
 40
155.0
 40
156.0
 40
156.0
 40
156.0
 40
157.0
 40
157.0
 40
157.0
 40
158.0
 40
158.0
 40
158.0
 40
159.0
 40
159.0
 40
159.0
 40
160.0
 40
160.0
 40
160.0
 40
161.0
 40
161.0
 40
161.0
 40
162.0
 40
162.0
 40
162.0
 40
163.0
 40
163.0
 40
163.0
 40
164.0
 40
164.0
 40
164.0
 40
165.0
 40
165.0
 40
165.0
 40
166.0
 40
166.0
 40
166.0
 40
167.0
 40
167.0
 40
167.0
 40
168.0
 40
168.0
 40
168.0
 40
169.0
 40
169.0
 40
169.0
 40
170.0
 40
170.0
 40
170.0
 40
171.0
 40
171.0
 40
171.0
 40
172.0
 40
172.0
 40
172.0
 40
173.0
 40
173.0
 40
173.0
 40
174.0
 40
174.0
 40
174.0
 40
175.0
 40
175.0
 40
175.0
 40
176.0
 40
176.0
 40
176.0
 40
177.0
 40
177.0
 40
177.0
 40
178.0
 40
178.0
 40
178.0
 40
179.0
 40
179.0
 40
179.0
 40
180.0
 40
180.0
 40
180.0
 40
181.0
 40
181.0
 40
181.0
 40
182.0
 40
182.0
 40
182.0
 40
183.0
 40
183.0
 40
183.0
 40
184.0
 40
184.0
 40
184.0
 40
185.0
 40
185.0
 40
185.0
 40
186.0
 40
186.0
 40
186.0
 40
187.0
 40
187.0
 40
187.0
 40
188.0
 40
188.0
 40
188.0
 40
189.0
 40
189.0
 40
189.0
 40
190.0
 40
190.0
 40
190.0
 40
191.0
 40
191.0
 40
191.0
 40
192.0
 40
192.0
 40
192.0
 40
193.0
 40
193.0
 40
193.0
 40
194.0
 40
194.0
 40
194.0
 40
195.0
 40
195.0
 40
195.0
 40
196.0
 40
196.0
 40
196.0
 40
197.0
 40
197.0
 40
197.0
 40
198.0
 40
198.0
 40
198.0
 40
199.0
 40
199.0
 40
199.0
 40
200.0
 40
200.0
 40
200.0
 40
201.0
 40
201.0
 40
201.0
 40
202.0
 40
202.0
 40
202.0
 40
203.0
 40
203.0
 40
203.0
 40
204.0
 40
204.0
 40
204.0
 40
205.0
 40
205.0
 40
205.0
 40
206.0
 40
206.0
 40
206.0
 40
207.0
 40
207.0
 40
207.0
 40
208.0
 40
208.0
 40
208.0
 40
209.0
 40
209.0
 40
209.0
 40
210.0
 40
210.0
 40
210.0
 40
211.0
 40
211.0
 40
211.0
 40
212.0
 40
212.0
 40
212.0
 40
213.0
 40
213.0
 40
213.0
 40
214.0
 40
214.0
 40
214.0
 40
215.0
 40
215.0
 40
215.0
 40
216.0
 40
216.0
 40
216.0
 40
217.0
 40
217.0
 40
217.0
 40
218.0
 40
218.0
 40
218.0
 40
219.0
 40
219.0
 40
219.0
 40
220.0
 40
220.0
 40
220.0
 40
221.0
 40
221.0
 40
221.0
 40
222.0
 40
222.0
 40
222.0
 40
223.0
 40
223.0
 40
223.0
 40
224.0
 40
224.0
 40
224.0
 40
225.0
 40
225.0
 40
225.0
 40
226.0
 40
226.0
 40
226.0
 40
227.0
 40
227.0
 40
227.0
 40
228.0
 40
228.0
 40
228.0
 40
229.0
 40
229.0
 40
229.0
 40
230.0
 40
230.0
 40
230.0
 40
231.0
 40
231.0
 40
231.0
 40
232.0
 40
232.0
 40
232.0
 40
233.0
 40
233.0
 40
233.0
 40
234.0
 40
234.0
 40
234.0
 40
235.0
 40
235.0
 40
235.0
 40
236.0
 40
236.0
 40
236.0
 40
237.0
 40
237.0
 40
237.0
 40
238.0
 40
238.0
 40
238.0
 40
239.0
 40
239.0
 40
239.0
 40
240.0
 40
240.0
 40
240.0
 40
241.0
 40
241.0
 40
241.0
 40
242.0
 40
242.0
 40
242.0
 40
243.0
 40
243.0
 40
243.0
 40
244.0
 40
244.0
 40
244.0
 40
245.0
 40
245.0
 40
245.0
 40
246.0
 40
246.0
 40
246.0
 40
247.0
 40
247.0
 40
247.0
 40
248.0
 40
248.0
 40
248.0
 40
249.0
 40
249.0
 40
249.0
 40
250.0
 40
250.0
 40
250.0
 40
251.0
 40
251.0
 40
251.0
 40
252.0
 40
252.0
 40
252.0
 40
253.0
 40
253.0
 40
253.0
 40
254.0
 40
254.0
 40
254.0
 40
255.0
 40
255.0
 40
255.0
 40
256.0
 40
256.0
 40
256.0
 40
257.0
 40
257.0
 40
257.0
 40
258.0
 40
258.0
 40
258.0
 40
259.0
 40
259.0
 40
259.0
 40
260.0
 40
260.0
 40
260.0
 40
261.0
 40
261.0
 40
261.0
 40
262.0
 40
262.0
 40
262.0
 40
263.0
 40
263.0
 40
263.0
 40
264.0
 40
264.0
 40
264.0
 40
265.0
 40
265.0
 40
265.0
 40
266.0
 40
266.0
 40
266.0
 40
267.0
 40
267.0
 40
267.0
 40
268.0
 40
268.0
 40
268.0
 40
269.0
 40
269.0
 40
269.0
 40
270.0
 40
270.0
 40
270.0
 40
271.0
 40
271.0
 40
271.0
 40
272.0
 40
272.0
 40
272.0
 40
273.0
 40
273.0
 40
273.0
 40
274.0
 40
274.0
 40
274.0
 40
275.0
 40
275.0
 40
275.0
 40
276.0
 40
276.0
 40
276.0
 40
277.0
 40
277.0
 40
277.0
 40
278.0
 40
278.0
 40
278.0
 40
279.0
 40
279.0
 40
279.0
 40
280.0
 40
280.0
 40
280.0
 40
281.0
 40
281.0
 40
281.0
 40
282.0
 40
282.0
 40
282.0
 40
283.0
 40
283.0
 40
283.0
 40
284.0
 40
284.0
 40
284.0
 40
285.0
 40
285.0
 40
285.0
 40
286.0
 40
286.0
 40
286.0
 40
287.0
 40
287.0
 40
287.0
 40
288.0
 40
288.0
 40
288.0
 40
289.0
 40
289.0
 40
289.0
 40
290.0
 40
290.0
 40
290.0
 40
291.0
 40
291.0
 40
291.0
 40
292.0
 40
292.0
 40
292.0
 40
293.0
 40
293.0
 40
293.0
 40
294.0
 40
294.0
 40
294.0
 40
295.0
 40
295.0
 40
295.0
 40
296.0
 40
296.0
 40
296.0
 40
297.0
 40
297.0
 40
297.0
 40
298.0
 40
298.0
 40
298.0
 40
299.0
 40
299.0
 40
299.0
 40
300.0
 40
300.0
 40
300.0
 40
300.0
 10
156.1896049956748
 20
223.2328856863793
 30
0.0
 10
156.1896049956748
 20
223.2328856863793
 30
0.0
 10
162.189583292786
 20
223.2328856863793
 30
0.0
 10
162.189583292786
 20
223.2328856863793
 30
0.0
 10
162.135150784119
 20
223.2328856863793
 30
0.0
 10
162.0882974855196
 20
223.2759493799449
 30
0.0
 10
162.0882974855196
 20
223.3345160031942
 30
0.0
 10
162.0882974855196
 20
223.3345160031942
 30
0.0
 10
162.0882974855196
 20
220.3345268546386
 30
0.0
 10
162.0882974855196
 20
220.3345268546386
 30
0.0
 10
162.0882974855196
 20
220.2797498364231
 30
0.0
 10
162.1310166695367
 20
220.2328965378237
 30
0.0
 10
162.189583292786
 20
220.2328965378237
 30
0.0
 10
162.189583292786
 20
220.2328965378237
 30
0.0
 10
168.1895615898971
 20
220.2328965378237
 30
0.0
 10
168.1895615898971
 20
220.2328965378237
 30
0.0
 10
168.2446831176611
 20
220.2328965378237
 30
0.0
 10
168.2915364162605
 20
220.2759602313893
 30
0.0
 10
168.2915364162605
 20
220.3345268546386
 30
0.0
 10
168.2915364162605
 20
220.3345268546386
 30
0.0
 10
168.2915364162605
 20
223.3345160031942
 30
0.0
 10
168.2915364162605
 20
223.3345160031942
 30
0.0
 10
168.2915364162605
 20
223.2797389849787
 30
0.0
 10
168.2481282131463
 20
223.2328856863793
 30
0.0
 10
168.1895615898971
 20
223.2328856863793
 30
0.0
 10
168.1895615898971
 20
223.2328856863793
 30
0.0
 10
174.1895398870082
 20
223.2328856863793
 30
0.0
 10
174.1895398870082
 20
223.2328856863793
 30
0.0
 10
174.1351073783412
 20
223.2328856863793
 30
0.0
 10
174.0882540797418
 20
223.2759493799449
 30
0.0
 10
174.0882540797418
 20
223.3345160031942
 30
0.0
 10
174.0882540797418
 20
223.3345160031942
 30
0.0
 10
174.0882540797418
 20
220.3345268546386
 30
0.0
 10
174.0882540797418
 20
220.3345268546386
 30
0.0
 10
174.0882540797418
 20
220.2797498364231
 30
0.0
 10
174.1309732637589
 20
220.2328965378237
 30
0.0
 10
174.1895398870082
 20
220.2328965378237
 30
0.0
 10
174.1895398870082
 20
220.2328965378237
 30
0.0
 10
180.1895181841193
 20
220.2328965378237
 30
0.0
 10
180.1895181841193
 20
220.2328965378237
 30
0.0
 10
180.2446397118833
 20
220.2328965378237
 30
0.0
 10
180.2914930104827
 20
220.2759602313893
 30
0.0
 10
180.2914930104827
 20
220.3345268546386
 30
0.0
 10
180.2914930104827
 20
220.3345268546386
 30
0.0
 10
180.2914930104827
 20
223.3345160031942
 30
0.0
 10
180.2914930104827
 20
223.3345160031942
 30
0.0
 10
180.2914930104827
 20
223.2797389849787
 30
0.0
 10
180.2487738264656
 20
223.2328856863793
 30
0.0
 10
180.1895181841193
 20
223.2328856863793
 30
0.0
 10
180.1895181841193
 20
223.2328856863793
 30
0.0
 10
186.1901855003275
 20
223.2328856863793
 30
0.0
 10
186.1901855003275
 20
223.2328856863793
 30
0.0
 10
186.1357529916605
 20
223.2328856863793
 30
0.0
 10
186.0888996930611
 20
223.2759493799449
 30
0.0
 10
186.0888996930611
 20
223.3345160031942
 30
0.0
 10
186.0888996930611
 20
223.3345160031942
 30
0.0
 10
186.0888996930611
 20
220.3345268546386
 30
0.0
 10
186.0888996930611
 20
220.3345268546386
 30
0.0
 10
186.0888996930611
 20
220.2797498364231
 30
0.0
 10
186.1309298579812
 20
220.2328965378237
 30
0.0
 10
186.1901855003275
 20
220.2328965378237
 30
0.0
 10
186.1901855003275
 20
220.2328965378237
 30
0.0
 10
192.1901637974386
 20
220.2328965378237
 30
0.0
 10
192.1901637974386
 20
220.2328965378237
 30
0.0
 10
192.2445963061055
 20
220.2328965378237
 30
0.0
 10
192.2914496047049
 20
220.2759602313893
 30
0.0
 10
192.2914496047049
 20
220.3345268546386
 30
0.0
 10
192.2914496047049
 20
220.3345268546386
 30
0.0
 10
192.2914496047049
 20
223.3345160031942
 30
0.0
 10
192.2914496047049
 20
223.3345160031942
 30
0.0
 10
192.2914496047049
 20
223.2797389849787
 30
0.0
 10
192.2487304206878
 20
223.2328856863793
 30
0.0
 10
192.1901637974386
 20
223.2328856863793
 30
0.0
 10
192.1901637974386
 20
223.2328856863793
 30
0.0
 10
198.1901420945497
 20
223.2328856863793
 30
0.0
 10
198.1901420945497
 20
223.2328856863793
 30
0.0
 10
198.1357095858828
 20
223.2328856863793
 30
0.0
 10
198.0888562872834
 20
223.2759493799449
 30
0.0
 10
198.0888562872834
 20
223.3345160031942
 30
0.0
 10
198.0888562872834
 20
223.3345160031942
 30
0.0
 10
198.0888562872834
 20
220.3345268546386
 30
0.0
 10
198.0888562872834
 20
220.3345268546386
 30
0.0
 10
198.0888562872834
 20
220.2797498364231
 30
0.0
 10
198.1315754713004
 20
220.2328965378237
 30
0.0
 10
198.1901420945497
 20
220.2328965378237
 30
0.0
 10
198.1901420945497
 20
220.2328965378237
 30
0.0
 10
204.1901203916608
 20
220.2328965378237
 30
0.0
 10
204.1901203916608
 20
220.2328965378237
 30
0.0
 10
204.2445529003278
 20
220.2328965378237
 30
0.0
 10
204.2920952180242
 20
220.2759602313893
 30
0.0
 10
204.2920952180242
 20
220.3345268546386
 30
0.0
 10
204.2920952180242
 20
220.3345268546386
 30
0.0
 10
204.2920952180242
 20
223.3345160031942
 30
0.0
 10
204.2920952180242
 20
223.3345160031942
 30
0.0
 10
204.2920952180242
 20
223.2797389849787
 30
0.0
 10
204.24868701491
 20
223.2328856863793
 30
0.0
 10
204.1901203916608
 20
223.2328856863793
 30
0.0
 10
204.1901203916608
 20
223.2328856863793
 30
0.0
 10
210.1900986887719
 20
223.2328856863793
 30
0.0
 10
210.1900986887719
 20
223.2328856863793
 30
0.0
 10
210.136355199202
 20
223.2328856863793
 30
0.0
 10
210.0888128815056
 20
223.2759493799449
 30
0.0
 10
210.0888128815056
 20
223.3345160031942
 30
0.0
 10
210.0888128815056
 20
223.3345160031942
 30
0.0
 10
210.0888128815056
 20
220.3345268546386
 30
0.0
 10
210.0888128815056
 20
220.3345268546386
 30
0.0
 10
210.0888128815056
 20
220.2797498364231
 30
0.0
 10
210.1315320655227
 20
220.2328965378237
 30
0.0
 10
210.1900986887719
 20
220.2328965378237
 30
0.0
 10
210.1900986887719
 20
220.2328965378237
 30
0.0
 10
216.1900769858831
 20
220.2328965378237
 30
0.0
 10
216.1900769858831
 20
220.2328965378237
 30
0.0
 10
216.24450949455
 20
220.2328965378237
 30
0.0
 10
216.2913627931494
 20
220.2759602313893
 30
0.0
 10
216.2913627931494
 20
220.3345268546386
 30
0.0
 10
216.2913627931494
 20
220.3345268546386
 30
0.0
 10
216.2913627931494
 20
223.3345160031942
 30
0.0
 10
216.2913627931494
 20
223.3345160031942
 30
0.0
 10
216.2913627931494
 20
223.2797389849787
 30
0.0
 10
216.2486436091323
 20
223.2328856863793
 30
0.0
 10
216.1900769858831
 20
223.2328856863793
 30
0.0
 10
216.1900769858831
 20
223.2328856863793
 30
0.0
 10
222.1907443020912
 20
223.2328856863793
 30
0.0
 10
222.1907443020912
 20
223.2328856863793
 30
0.0
 10
222.1356227743272
 20
223.2328856863793
 30
0.0
 10
222.0887694757278
 20
223.2759493799449
 30
0.0
 10
222.0887694757278
 20
223.3345160031942
 30
0.0
 10
222.0887694757278
 20
223.3345160031942
 30
0.0
 10
222.0887694757278
 20
220.3345268546386
 30
0.0
 10
222.0887694757278
 20
220.3345268546386
 30
0.0
 10
222.0887694757278
 20
220.2797498364231
 30
0.0
 10
222.132177678842
 20
220.2328965378237
 30
0.0
 10
222.1907443020912
 20
220.2328965378237
 30
0.0
 10
222.1907443020912
 20
220.2328965378237
 30
0.0
 10
228.1907225992023
 20
220.2328965378237
 30
0.0
 10
228.1907225992023
 20
220.2328965378237
 30
0.0
 10
228.2451551078693
 20
220.2328965378237
 30
0.0
 10
228.2920084064687
 20
220.2759602313893
 30
0.0
 10
228.2920084064687
 20
220.3345268546386
 30
0.0
 10
228.2920084064687
 20
220.3345268546386
 30
0.0
 10
228.2920084064687
 20
223.3345160031942
 30
0.0
 10
228.2920084064687
 20
223.3345160031942
 30
0.0
 10
228.2920084064687
 20
223.2797389849787
 30
0.0
 10
228.2492892224516
 20
223.2328856863793
 30
0.0
 10
228.1907225992023
 20
223.2328856863793
 30
0.0
 10
228.1907225992023
 20
223.2328856863793
 30
0.0
 10
234.1907008963134
 20
223.2328856863793
 30
0.0
 10
234.1907008963134
 20
223.2328856863793
 30
0.0
 10
234.1355793685495
 20
223.2328856863793
 30
0.0
 10
234.08872606995
 20
223.2759493799449
 30
0.0
 10
234.08872606995
 20
223.3345160031942
 30
0.0
 10
234.08872606995
 20
223.3345160031942
 30
0.0
 10
234.08872606995
 20
220.3345268546386
 30
0.0
 10
234.08872606995
 20
220.3345268546386
 30
0.0
 10
234.08872606995
 20
220.2797498364231
 30
0.0
 10
234.1321342730642
 20
220.2328965378237
 30
0.0
 10
234.1907008963134
 20
220.2328965378237
 30
0.0
 10
234.1907008963134
 20
220.2328965378237
 30
0.0
 10
240.1906791934246
 20
220.2328965378237
 30
0.0
 10
240.1906791934246
 20
220.2328965378237
 30
0.0
 10
240.2451117020915
 20
220.2328965378237
 30
0.0
 10
240.2919650006909
 20
220.2759602313893
 30
0.0
 10
240.2919650006909
 20
220.3345268546386
 30
0.0
 10
240.2919650006909
 20
220.3345268546386
 30
0.0
 10
240.2919650006909
 20
223.3345160031942
 30
0.0
 10
240.2919650006909
 20
223.3345160031942
 30
0.0
 10
240.2919650006909
 20
223.2797389849787
 30
0.0
 10
240.2492458166738
 20
223.2328856863793
 30
0.0
 10
240.1906791934246
 20
223.2328856863793
 30
0.0
 10
240.1906791934246
 20
223.2328856863793
 30
0.0
 10
246.1906574905357
 20
223.2328856863793
 30
0.0
 10
246.1906574905357
 20
223.2328856863793
 30
0.0
 10
246.1362249818687
 20
223.2328856863793
 30
0.0
 10
246.0886826641723
 20
223.2759493799449
 30
0.0
 10
246.0886826641723
 20
223.3345160031942
 30
0.0
 10
246.0886826641723
 20
223.3345160031942
 30
0.0
 10
246.0886826641723
 20
220.3345268546386
 30
0.0
 10
246.0886826641723
 20
220.3345268546386
 30
0.0
 10
246.0886826641723
 20
220.2797498364231
 30
0.0
 10
246.1320908672864
 20
220.2328965378237
 30
0.0
 10
246.1906574905357
 20
220.2328965378237
 30
0.0
 10
246.1906574905357
 20
220.2328965378237
 30
0.0
 10
252.1913248067438
 20
220.2328965378237
 30
0.0
 10
252.1913248067438
 20
220.2328965378237
 30
0.0
 10
252.2450682963137
 20
220.2328965378237
 30
0.0
 10
252.2919215949131
 20
220.2759602313893
 30
0.0
 10
252.2919215949131
 20
220.3345268546386
 30
0.0
 10
252.2919215949131
 20
220.3345268546386
 30
0.0
 10
252.2919215949131
 20
223.3345160031942
 30
0.0
 10
252.2919215949131
 20
223.3345160031942
 30
0.0
 10
252.2919215949131
 20
223.2797389849787
 30
0.0
 10
252.2498914299931
 20
223.2328856863793
 30
0.0
 10
252.1913248067438
 20
223.2328856863793
 30
0.0
 10
252.1913248067438
 20
223.2328856863793
 30
0.0
 10
258.191303103855
 20
223.2328856863793
 30
0.0
 10
258.191303103855
 20
223.2328856863793
 30
0.0
 10
258.136870595188
 20
223.2328856863793
 30
0.0
 10
258.0893282774916
 20
223.2759493799449
 30
0.0
 10
258.0893282774916
 20
223.3345160031942
 30
0.0
 10
258.0893282774916
 20
223.3345160031942
 30
0.0
 10
258.0893282774916
 20
220.3345268546386
 30
0.0
 10
258.0893282774916
 20
220.3345268546386
 30
0.0
 10
258.0893282774916
 20
220.2797498364231
 30
0.0
 10
258.1327364806057
 20
220.2328965378237
 30
0.0
 10
258.191303103855
 20
220.2328965378237
 30
0.0
 10
258.191303103855
 20
220.2328965378237
 30
0.0
 10
264.1912814009661
 20
220.2328965378237
 30
0.0
 10
264.1912814009661
 20
220.2328965378237
 30
0.0
 10
264.245713909633
 20
220.2328965378237
 30
0.0
 10
264.2925672082324
 20
220.2759602313893
 30
0.0
 10
264.2925672082324
 20
220.3345268546386
 30
0.0
 10
264.2925672082324
 20
220.3345268546386
 30
0.0
 10
264.2925672082324
 20
223.3345160031942
 30
0.0
 10
264.2925672082324
 20
223.3345160031942
 30
0.0
 10
264.2925672082324
 20
223.2797389849787
 30
0.0
 10
264.2498480242153
 20
223.2328856863793
 30
0.0
 10
264.1912814009661
 20
223.2328856863793
 30
0.0
 10
264.1912814009661
 20
223.2328856863793
 30
0.0
 10
270.1912596980772
 20
223.2328856863793
 30
0.0
 10
270.1912596980772
 20
223.2328856863793
 30
0.0
 10
270.2456922067441
 20
223.2328856863793
 30
0.0
 10
270.2925455053435
 20
223.2759493799449
 30
0.0
 10
270.2925455053435
 20
223.3345160031942
 30
0.0
 10
270.2925455053435
 20
223.3345160031942
 30
0.0
 10
270.2925455053435
 20
223.3345160031942
 30
0.0
 10
270.2925455053435
 20
223.3345160031942
 30
0.0
 10
270.2925455053435
 20
223.3345160031942
 30
0.0
 10
270.2925455053435
 20
229.3344943003053
 30
0.0
 10
270.2925455053435
 20
229.3344943003053
 30
0.0
 10
270.2925455053435
 20
229.2797172820898
 30
0.0
 10
270.2498263213265
 20
229.2328639834904
 30
0.0
 10
270.1912596980772
 20
229.2328639834904
 30
0.0
 10
270.1912596980772
 20
229.2328639834904
 30
0.0
 10
273.1912488466327
 20
229.2328639834904
 30
0.0
 10
273.1912488466327
 20
229.2328639834904
 30
0.0
 10
273.2456813552997
 20
229.2328639834904
 30
0.0
 10
273.2925346538991
 20
229.275927677056
 30
0.0
 10
273.2925346538991
 20
229.3344943003053
 30
0.0
 10
273.2925346538991
 20
229.3344943003053
 30
0.0
 10
273.2925346538991
 20
235.3344725974164
 30
0.0
 10
273.2925346538991
 20
235.3344725974164
 30
0.0
 10
273.2925346538991
 20
235.3892496156319
 30
0.0
 10
273.249815469882
 20
235.4361029142313
 30
0.0
 10
273.1912488466327
 20
235.4361029142313
 30
0.0
 10
273.1912488466327
 20
235.4361029142313
 30
0.0
 10
270.1912596980772
 20
235.4361029142313
 30
0.0
 10
270.1912596980772
 20
235.4361029142313
 30
0.0
 10
270.2456922067441
 20
235.4361029142313
 30
0.0
 10
270.2925455053435
 20
235.3930392206656
 30
0.0
 10
270.2925455053435
 20
235.3344725974164
 30
0.0
 10
270.2925455053435
 20
235.3344725974164
 30
0.0
 10
270.2925455053435
 20
241.3344508945275
 30
0.0
 10
270.2925455053435
 20
241.3344508945275
 30
0.0
 10
270.2925455053435
 20
241.2800183858606
 30
0.0
 10
270.2498263213265
 20
241.2328205777126
 30
0.0
 10
270.1912596980772
 20
241.2328205777126
 30
0.0
 10
270.1912596980772
 20
241.2328205777126
 30
0.0
 10
273.1912488466327
 20
241.2328205777126
 30
0.0
 10
273.1912488466327
 20
241.2328205777126
 30
0.0
 10
273.2456813552997
 20
241.2328205777126
 30
0.0
 10
273.2925346538991
 20
241.2758842712783
 30
0.0
 10
273.2925346538991
 20
241.3344508945275
 30
0.0
 10
273.2925346538991
 20
241.3344508945275
 30
0.0
 10
273.2925346538991
 20
247.3344291916386
 30
0.0
 10
273.2925346538991
 20
247.3344291916386
 30
0.0
 10
273.2925346538991
 20
247.3892062098541
 30
0.0
 10
273.249815469882
 20
247.4360595084535
 30
0.0
 10
273.1912488466327
 20
247.4360595084535
 30
0.0
 10
273.1912488466327
 20
247.4360595084535
 30
0.0
 10
270.1912596980772
 20
247.4360595084535
 30
0.0
 10
270.1912596980772
 20
247.4360595084535
 30
0.0
 10
270.2456922067441
 20
247.4360595084535
 30
0.0
 10
270.2925455053435
 20
247.3929958148879
 30
0.0
 10
270.2925455053435
 20
247.3344291916386
 30
0.0
 10
270.2925455053435
 20
247.3344291916386
 30
0.0
 10
270.2925455053435
 20
253.3347519982983
 30
0.0
 10
270.2925455053435
 20
253.3347519982983
 30
0.0
 10
270.2925455053435
 20
253.2803194896313
 30
0.0
 10
270.2498263213265
 20
253.2334661910319
 30
0.0
 10
270.1912596980772
 20
253.2334661910319
 30
0.0
 10
270.1912596980772
 20
253.2334661910319
 30
0.0
 10
273.1912488466327
 20
253.2334661910319
 30
0.0
 10
273.1912488466327
 20
253.2334661910319
 30
0.0
 10
273.2456813552997
 20
253.2334661910319
 30
0.0
 10
273.2925346538991
 20
253.276185375049
 30
0.0
 10
273.2925346538991
 20
253.3347519982983
 30
0.0
 10
273.2925346538991
 20
253.3347519982983
 30
0.0
 10
273.2925346538991
 20
259.3347302954094
 30
0.0
 10
273.2925346538991
 20
259.3347302954094
 30
0.0
 10
273.2925346538991
 20
259.3895073136248
 30
0.0
 10
273.249815469882
 20
259.4363606122242
 30
0.0
 10
273.1912488466327
 20
259.4363606122242
 30
0.0
 10
273.1912488466327
 20
259.4363606122242
 30
0.0
 10
270.1912596980772
 20
259.4363606122242
 30
0.0
 10
270.1912596980772
 20
259.4363606122242
 30
0.0
 10
270.2456922067441
 20
259.4363606122242
 30
0.0
 10
270.2925455053435
 20
259.3932969186586
 30
0.0
 10
270.2925455053435
 20
259.3347302954094
 30
0.0
 10
270.2925455053435
 20
259.3347302954094
 30
0.0
 10
270.2925455053435
 20
265.3347085925205
 30
0.0
 10
270.2925455053435
 20
265.3347085925205
 30
0.0
 10
270.2925455053435
 20
265.2802760838536
 30
0.0
 10
270.2498263213265
 20
265.2334227852542
 30
0.0
 10
270.1912596980772
 20
265.2334227852542
 30
0.0
 10
270.1912596980772
 20
265.2334227852542
 30
0.0
 10
273.1912488466327
 20
265.2334227852542
 30
0.0
 10
273.1912488466327
 20
265.2334227852542
 30
0.0
 10
273.2456813552997
 20
265.2334227852542
 30
0.0
 10
273.2925346538991
 20
265.2761419692712
 30
0.0
 10
273.2925346538991
 20
265.3347085925205
 30
0.0
 10
273.2925346538991
 20
265.3347085925205
 30
0.0
 10
273.2925346538991
 20
271.3350313991801
 30
0.0
 10
273.2925346538991
 20
271.3350313991801
 30
0.0
 10
273.2925346538991
 20
271.3894639078471
 30
0.0
 10
273.249815469882
 20
271.4363172064465
 30
0.0
 10
273.1912488466327
 20
271.4363172064465
 30
0.0
 10
273.1912488466327
 20
271.4363172064465
 30
0.0
 10
270.1912596980772
 20
271.4363172064465
 30
0.0
 10
270.1912596980772
 20
271.4363172064465
 30
0.0
 10
270.2456922067441
 20
271.4363172064465
 30
0.0
 10
270.2925455053435
 20
271.3935980224294
 30
0.0
 10
270.2925455053435
 20
271.3350313991801
 30
0.0
 10
270.2925455053435
 20
271.3350313991801
 30
0.0
 10
270.2925455053435
 20
277.3353542058398
 30
0.0
 10
270.2925455053435
 20
277.3353542058398
 30
0.0
 10
270.2925455053435
 20
277.2805771876243
 30
0.0
 10
270.2498263213265
 20
277.2337238890249
 30
0.0
 10
270.1912596980772
 20
277.2337238890249
 30
0.0
 10
270.1912596980772
 20
277.2337238890249
 30
0.0
 10
273.1912488466327
 20
277.2337238890249
 30
0.0
 10
273.1912488466327
 20
277.2337238890249
 30
0.0
 10
273.2456813552997
 20
277.2337238890249
 30
0.0
 10
273.2925346538991
 20
277.276443073042
 30
0.0
 10
273.2925346538991
 20
277.3353542058398
 30
0.0
 10
273.2925346538991
 20
277.3353542058398
 30
0.0
 10
273.2925346538991
 20
283.3353325029509
 30
0.0
 10
273.2925346538991
 20
283.3353325029509
 30
0.0
 10
273.2925346538991
 20
283.3894205020693
 30
0.0
 10
273.249815469882
 20
283.4366183102172
 30
0.0
 10
273.1912488466327
 20
283.4366183102172
 30
0.0
 10
273.1912488466327
 20
283.4366183102172
 30
0.0
 10
270.1912596980772
 20
283.4366183102172
 30
0.0
 10
270.1912596980772
 20
283.4366183102172
 30
0.0
 10
270.2456922067441
 20
283.4366183102172
 30
0.0
 10
270.2925455053435
 20
283.3938991262002
 30
0.0
 10
270.2925455053435
 20
283.3353325029509
 30
0.0
 10
270.2925455053435
 20
283.3353325029509
 30
0.0
 10
270.2925455053435
 20
289.335310800062
 30
0.0
 10
270.2925455053435
 20
289.335310800062
 30
0.0
 10
270.2925455053435
 20
289.2805337818465
 30
0.0
 10
270.2498263213265
 20
289.2336804832472
 30
0.0
 10
270.1912596980772
 20
289.2336804832472
 30
0.0
 10
270.1912596980772
 20
289.2336804832472
 30
0.0
 10
273.1912488466327
 20
289.2336804832472
 30
0.0
 10
273.1912488466327
 20
289.2336804832472
 30
0.0
 10
273.2456813552997
 20
289.2336804832472
 30
0.0
 10
273.2925346538991
 20
289.2767441768128
 30
0.0
 10
273.2925346538991
 20
289.335310800062
 30
0.0
 10
273.2925346538991
 20
289.335310800062
 30
0.0
 10
273.2925346538991
 20
295.3352890971731
 30
0.0
 10
273.2925346538991
 20
295.3352890971731
 30
0.0
 10
273.2925346538991
 20
295.3897216058401
 30
0.0
 10
273.249815469882
 20
295.436919413988
 30
0.0
 10
273.1912488466327
 20
295.436919413988
 30
0.0
 10
273.1912488466327
 20
295.436919413988
 30
0.0
 10
270.1912596980772
 20
295.436919413988
 30
0.0
 10
270.1912596980772
 20
295.436919413988
 30
0.0
 10
270.2456922067441
 20
295.436919413988
 30
0.0
 10
270.2925455053435
 20
295.3938557204224
 30
0.0
 10
270.2925455053435
 20
295.3352890971731
 30
0.0
 10
270.2925455053435
 20
295.3352890971731
 30
0.0
 10
270.2925455053435
 20
301.3352673942842
 30
0.0
 10
270.2925455053435
 20
301.3352673942842
 30
0.0
 10
270.2925455053435
 20
301.2808348856173
 30
0.0
 10
270.2498263213265
 20
301.2336370774694
 30
0.0
 10
270.1912596980772
 20
301.2336370774694
 30
0.0
 10
270.1912596980772
 20
301.2336370774694
 30
0.0
 10
273.1912488466327
 20
301.2336370774694
 30
0.0
 10
273.1912488466327
 20
301.2336370774694
 30
0.0
 10
273.2456813552997
 20
301.2336370774694
 30
0.0
 10
273.2925346538991
 20
301.276700771035
 30
0.0
 10
273.2925346538991
 20
301.3352673942842
 30
0.0
 10
273.2925346538991
 20
301.3352673942842
 30
0.0
 10
273.2925346538991
 20
307.3349011818468
 30
0.0
 10
273.2925346538991
 20
307.3349011818468
 30
0.0
 10
273.2925346538991
 20
307.3893336905138
 30
0.0
 10
273.249815469882
 20
307.4361869891132
 30
0.0
 10
273.1912488466327
 20
307.4361869891132
 30
0.0
 10
273.1912488466327
 20
307.4361869891132
 30
0.0
 10
270.1912596980772
 20
307.4361869891132
 30
0.0
 10
270.1912596980772
 20
307.4361869891132
 30
0.0
 10
270.2456922067441
 20
307.4361869891132
 30
0.0
 10
270.2925455053435
 20
307.3934678050961
 30
0.0
 10
270.2925455053435
 20
307.3349011818468
 30
0.0
 10
270.2925455053435
 20
307.3349011818468
 30
0.0
 10
270.2925455053435
 20
313.334879478958
 30
0.0
 10
270.2925455053435
 20
313.334879478958
 30
0.0
 10
270.2925455053435
 20
313.2801024607425
 30
0.0
 10
270.2498263213265
 20
313.2332491621431
 30
0.0
 10
270.1912596980772
 20
313.2332491621431
 30
0.0
 10
270.1912596980772
 20
313.2332491621431
 30
0.0
 10
273.1912488466327
 20
313.2332491621431
 30
0.0
 10
273.1912488466327
 20
313.2332491621431
 30
0.0
 10
273.2456813552997
 20
313.2332491621431
 30
0.0
 10
273.2925346538991
 20
313.2763128557087
 30
0.0
 10
273.2925346538991
 20
313.334879478958
 30
0.0
 10
273.2925346538991
 20
313.334879478958
 30
0.0
 10
273.2925346538991
 20
319.3348577760691
 30
0.0
 10
273.2925346538991
 20
319.3348577760691
 30
0.0
 10
273.2925346538991
 20
319.3896347942846
 30
0.0
 10
273.249815469882
 20
319.436488092884
 30
0.0
 10
273.1912488466327
 20
319.436488092884
 30
0.0
 10
273.1912488466327
 20
319.436488092884
 30
0.0
 10
270.1912596980772
 20
319.436488092884
 30
0.0
 10
270.1912596980772
 20
319.436488092884
 30
0.0
 10
270.2456922067441
 20
319.436488092884
 30
0.0
 10
270.2925455053435
 20
319.3934243993183
 30
0.0
 10
270.2925455053435
 20
319.3348577760691
 30
0.0
 10
270.2925455053435
 20
319.3348577760691
 30
0.0
 10
270.2925455053435
 20
325.3348360731802
 30
0.0
 10
270.2925455053435
 20
325.3348360731802
 30
0.0
 10
270.2925455053435
 20
325.2800590549647
 30
0.0
 10
270.2498263213265
 20
325.2332057563654
 30
0.0
 10
270.1912596980772
 20
325.2332057563654
 30
0.0
 10
270.1912596980772
 20
325.2332057563654
 30
0.0
 10
273.1912488466327
 20
325.2332057563654
 30
0.0
 10
273.1912488466327
 20
325.2332057563654
 30
0.0
 10
273.2456813552997
 20
325.2332057563654
 30
0.0
 10
273.2925346538991
 20
325.276269449931
 30
0.0
 10
273.2925346538991
 20
325.3348360731802
 30
0.0
 10
273.2925346538991
 20
325.3348360731802
 30
0.0
 10
273.2925346538991
 20
331.3348143702913
 30
0.0
 10
273.2925346538991
 20
331.3348143702913
 30
0.0
 10
273.2925346538991
 20
331.3895913885068
 30
0.0
 10
273.249815469882
 20
331.4364446871062
 30
0.0
 10
273.1912488466327
 20
331.4364446871062
 30
0.0
 10
273.1912488466327
 20
331.4364446871062
 30
0.0
 10
270.1912596980772
 20
331.4364446871062
 30
0.0
 10
270.1912596980772
 20
331.4364446871062
 30
0.0
 10
270.2456922067441
 20
331.4364446871062
 30
0.0
 10
270.2925455053435
 20
331.3933809935406
 30
0.0
 10
270.2925455053435
 20
331.3348143702913
 30
0.0
 10
270.2925455053435
 20
331.3348143702913
 30
0.0
 10
270.2925455053435
 20
337.3347926674024
 30
0.0
 10
270.2925455053435
 20
337.3347926674024
 30
0.0
 10
270.2925455053435
 20
337.3895696856179
 30
0.0
 10
270.2498263213265
 20
337.4364229842173
 30
0.0
 10
270.1912596980772
 20
337.4364229842173
 30
0.0
 10
270.1912596980772
 20
337.4364229842173
 30
0.0
 10
270.1912596980772
 20
337.4364229842173
 30
0.0
 10
270.1912596980772
 20
337.4364229842173
 30
0.0
 10
270.1912596980772
 20
337.4364229842173
 30
0.0
 10
264.1912814009661
 20
337.4364229842173
 30
0.0
 10
264.1912814009661
 20
337.4364229842173
 30
0.0
 10
264.245713909633
 20
337.4364229842173
 30
0.0
 10
264.2925672082324
 20
337.3933592906517
 30
0.0
 10
264.2925672082324
 20
337.3347926674024
 30
0.0
 10
264.2925672082324
 20
337.3347926674024
 30
0.0
 10
264.2925672082324
 20
340.3351263255065
 30
0.0
 10
264.2925672082324
 20
340.3351263255065
 30
0.0
 10
264.2925672082324
 20
340.3895588341734
 30
0.0
 10
264.2498480242153
 20
340.4364121327728
 30
0.0
 10
264.1912814009661
 20
340.4364121327728
 30
0.0
 10
264.1912814009661
 20
340.4364121327728
 30
0.0
 10
258.191303103855
 20
340.4364121327728
 30
0.0
 10
258.191303103855
 20
340.4364121327728
 30
0.0
 10
258.136870595188
 20
340.4364121327728
 30
0.0
 10
258.0893282774916
 20
340.3936929487558
 30
0.0
 10
258.0893282774916
 20
340.3351263255065
 30
0.0
 10
258.0893282774916
 20
340.3351263255065
 30
0.0
 10
258.0893282774916
 20
337.3347926674024
 30
0.0
 10
258.0893282774916
 20
337.3347926674024
 30
0.0
 10
258.0893282774916
 20
337.3895696856179
 30
0.0
 10
258.1327364806057
 20
337.4364229842173
 30
0.0
 10
258.191303103855
 20
337.4364229842173
 30
0.0
 10
258.191303103855
 20
337.4364229842173
 30
0.0
 10
252.1906357876468
 20
337.4364229842173
 30
0.0
 10
252.1906357876468
 20
337.4364229842173
 30
0.0
 10
252.2450682963137
 20
337.4364229842173
 30
0.0
 10
252.2919215949131
 20
337.3933592906517
 30
0.0
 10
252.2919215949131
 20
337.3347926674024
 30
0.0
 10
252.2919215949131
 20
337.3347926674024
 30
0.0
 10
252.2919215949131
 20
340.3351263255065
 30
0.0
 10
252.2919215949131
 20
340.3351263255065
 30
0.0
 10
252.2919215949131
 20
340.3895588341734
 30
0.0
 10
252.249202410896
 20
340.4364121327728
 30
0.0
 10
252.1906357876468
 20
340.4364121327728
 30
0.0
 10
252.1906357876468
 20
340.4364121327728
 30
0.0
 10
246.1906574905357
 20
340.4364121327728
 30
0.0
 10
246.1906574905357
 20
340.4364121327728
 30
0.0
 10
246.1355359627717
 20
340.4364121327728
 30
0.0
 10
246.0886826641723
 20
340.3936929487558
 30
0.0
 10
246.0886826641723
 20
340.3351263255065
 30
0.0
 10
246.0886826641723
 20
340.3351263255065
 30
0.0
 10
246.0886826641723
 20
337.3347926674024
 30
0.0
 10
246.0886826641723
 20
337.3347926674024
 30
0.0
 10
246.0886826641723
 20
337.3895696856179
 30
0.0
 10
246.1320908672864
 20
337.4364229842173
 30
0.0
 10
246.1906574905357
 20
337.4364229842173
 30
0.0
 10
246.1906574905357
 20
337.4364229842173
 30
0.0
 10
240.1906791934246
 20
337.4364229842173
 30
0.0
 10
240.1906791934246
 20
337.4364229842173
 30
0.0
 10
240.2451117020915
 20
337.4364229842173
 30
0.0
 10
240.2919650006909
 20
337.3933592906517
 30
0.0
 10
240.2919650006909
 20
337.3347926674024
 30
0.0
 10
240.2919650006909
 20
337.3347926674024
 30
0.0
 10
240.2919650006909
 20
340.3351263255065
 30
0.0
 10
240.2919650006909
 20
340.3351263255065
 30
0.0
 10
240.2919650006909
 20
340.3895588341734
 30
0.0
 10
240.2492458166738
 20
340.4364121327728
 30
0.0
 10
240.1906791934246
 20
340.4364121327728
 30
0.0
 10
240.1906791934246
 20
340.4364121327728
 30
0.0
 10
234.1907008963134
 20
340.4364121327728
 30
0.0
 10
234.1907008963134
 20
340.4364121327728
 30
0.0
 10
234.1355793685495
 20
340.4364121327728
 30
0.0
 10
234.08872606995
 20
340.3936929487558
 30
0.0
 10
234.08872606995
 20
340.3351263255065
 30
0.0
 10
234.08872606995
 20
340.3351263255065
 30
0.0
 10
234.08872606995
 20
337.3347926674024
 30
0.0
 10
234.08872606995
 20
337.3347926674024
 30
0.0
 10
234.08872606995
 20
337.3895696856179
 30
0.0
 10
234.1321342730642
 20
337.4364229842173
 30
0.0
 10
234.1907008963134
 20
337.4364229842173
 30
0.0
 10
234.1907008963134
 20
337.4364229842173
 30
0.0
 10
228.1907225992023
 20
337.4364229842173
 30
0.0
 10
228.1907225992023
 20
337.4364229842173
 30
0.0
 10
228.2444660887722
 20
337.4364229842173
 30
0.0
 10
228.2920084064687
 20
337.3933592906517
 30
0.0
 10
228.2920084064687
 20
337.3347926674024
 30
0.0
 10
228.2920084064687
 20
337.3347926674024
 30
0.0
 10
228.2920084064687
 20
340.3351263255065
 30
0.0
 10
228.2920084064687
 20
340.3351263255065
 30
0.0
 10
228.2920084064687
 20
340.3895588341734
 30
0.0
 10
228.2492892224516
 20
340.4364121327728
 30
0.0
 10
228.1907225992023
 20
340.4364121327728
 30
0.0
 10
228.1907225992023
 20
340.4364121327728
 30
0.0
 10
222.1907443020912
 20
340.4364121327728
 30
0.0
 10
222.1907443020912
 20
340.4364121327728
 30
0.0
 10
222.1356227743272
 20
340.4364121327728
 30
0.0
 10
222.0887694757278
 20
340.3936929487558
 30
0.0
 10
222.0887694757278
 20
340.3351263255065
 30
0.0
 10
222.0887694757278
 20
340.3351263255065
 30
0.0
 10
222.0887694757278
 20
337.3347926674024
 30
0.0
 10
222.0887694757278
 20
337.3347926674024
 30
0.0
 10
222.0887694757278
 20
337.3895696856179
 30
0.0
 10
222.132177678842
 20
337.4364229842173
 30
0.0
 10
222.1907443020912
 20
337.4364229842173
 30
0.0
 10
222.1907443020912
 20
337.4364229842173
 30
0.0
 10
216.1900769858831
 20
337.4364229842173
 30
0.0
 10
216.1900769858831
 20
337.4364229842173
 30
0.0
 10
216.24450949455
 20
337.4364229842173
 30
0.0
 10
216.2913627931494
 20
337.3933592906517
 30
0.0
 10
216.2913627931494
 20
337.3347926674024
 30
0.0
 10
216.2913627931494
 20
337.3347926674024
 30
0.0
 10
216.2913627931494
 20
340.3351263255065
 30
0.0
 10
216.2913627931494
 20
340.3351263255065
 30
0.0
 10
216.2913627931494
 20
340.3895588341734
 30
0.0
 10
216.2486436091323
 20
340.4364121327728
 30
0.0
 10
216.1900769858831
 20
340.4364121327728
 30
0.0
 10
216.1900769858831
 20
340.4364121327728
 30
0.0
 10
210.1900986887719
 20
340.4364121327728
 30
0.0
 10
210.1900986887719
 20
340.4364121327728
 30
0.0
 10
210.136355199202
 20
340.4364121327728
 30
0.0
 10
210.0888128815056
 20
340.3936929487558
 30
0.0
 10
210.0888128815056
 20
340.3351263255065
 30
0.0
 10
210.0888128815056
 20
340.3351263255065
 30
0.0
 10
210.0888128815056
 20
337.3347926674024
 30
0.0
 10
210.0888128815056
 20
337.3347926674024
 30
0.0
 10
210.0888128815056
 20
337.3895696856179
 30
0.0
 10
210.1315320655227
 20
337.4364229842173
 30
0.0
 10
210.1900986887719
 20
337.4364229842173
 30
0.0
 10
210.1900986887719
 20
337.4364229842173
 30
0.0
 10
204.1894313725638
 20
337.4364229842173
 30
0.0
 10
204.1894313725638
 20
337.4364229842173
 30
0.0
 10
204.2438638812307
 20
337.4364229842173
 30
0.0
 10
204.2914061989271
 20
337.3933592906517
 30
0.0
 10
204.2914061989271
 20
337.3347926674024
 30
0.0
 10
204.2914061989271
 20
337.3347926674024
 30
0.0
 10
204.2914061989271
 20
340.3351263255065
 30
0.0
 10
204.2914061989271
 20
340.3351263255065
 30
0.0
 10
204.2914061989271
 20
340.3895588341734
 30
0.0
 10
204.247997995813
 20
340.4364121327728
 30
0.0
 10
204.1894313725638
 20
340.4364121327728
 30
0.0
 10
204.1894313725638
 20
340.4364121327728
 30
0.0
 10
198.1894530754526
 20
340.4364121327728
 30
0.0
 10
198.1894530754526
 20
340.4364121327728
 30
0.0
 10
198.1350205667857
 20
340.4364121327728
 30
0.0
 10
198.0881672681863
 20
340.3936929487558
 30
0.0
 10
198.0881672681863
 20
340.3351263255065
 30
0.0
 10
198.0881672681863
 20
340.3351263255065
 30
0.0
 10
198.0881672681863
 20
337.3347926674024
 30
0.0
 10
198.0881672681863
 20
337.3347926674024
 30
0.0
 10
198.0881672681863
 20
337.3895696856179
 30
0.0
 10
198.1308864522034
 20
337.4364229842173
 30
0.0
 10
198.1894530754526
 20
337.4364229842173
 30
0.0
 10
198.1894530754526
 20
337.4364229842173
 30
0.0
 10
192.1894747783415
 20
337.4364229842173
 30
0.0
 10
192.1894747783415
 20
337.4364229842173
 30
0.0
 10
192.2439072870085
 20
337.4364229842173
 30
0.0
 10
192.2907605856079
 20
337.3933592906517
 30
0.0
 10
192.2907605856079
 20
337.3347926674024
 30
0.0
 10
192.2907605856079
 20
337.3347926674024
 30
0.0
 10
192.2907605856079
 20
340.3351263255065
 30
0.0
 10
192.2907605856079
 20
340.3351263255065
 30
0.0
 10
192.2907605856079
 20
340.3895588341734
 30
0.0
 10
192.2480414015908
 20
340.4364121327728
 30
0.0
 10
192.1894747783415
 20
340.4364121327728
 30
0.0
 10
192.1894747783415
 20
340.4364121327728
 30
0.0
 10
186.1894964812304
 20
340.4364121327728
 30
0.0
 10
186.1894964812304
 20
340.4364121327728
 30
0.0
 10
186.1350639725635
 20
340.4364121327728
 30
0.0
 10
186.0882106739641
 20
340.3936929487558
 30
0.0
 10
186.0882106739641
 20
340.3351263255065
 30
0.0
 10
186.0882106739641
 20
340.3351263255065
 30
0.0
 10
186.0882106739641
 20
337.3347926674024
 30
0.0
 10
186.0882106739641
 20
337.3347926674024
 30
0.0
 10
186.0882106739641
 20
337.3895696856179
 30
0.0
 10
186.1302408388841
 20
337.4364229842173
 30
0.0
 10
186.1894964812304
 20
337.4364229842173
 30
0.0
 10
186.1894964812304
 20
337.4364229842173
 30
0.0
 10
180.1888291650222
 20
337.4364229842173
 30
0.0
 10
180.1888291650222
 20
337.4364229842173
 30
0.0
 10
180.2439506927863
 20
337.4364229842173
 30
0.0
 10
180.2908039913856
 20
337.3933592906517
 30
0.0
 10
180.2908039913856
 20
337.3347926674024
 30
0.0
 10
180.2908039913856
 20
337.3347926674024
 30
0.0
 10
180.2908039913856
 20
340.3351263255065
 30
0.0
 10
180.2908039913856
 20
340.3351263255065
 30
0.0
 10
180.2908039913856
 20
340.3895588341734
 30
0.0
 10
180.2480848073685
 20
340.4364121327728
 30
0.0
 10
180.1888291650222
 20
340.4364121327728
 30
0.0
 10
180.1888291650222
 20
340.4364121327728
 30
0.0
 10
174.1895398870082
 20
340.4364121327728
 30
0.0
 10
174.1895398870082
 20
340.4364121327728
 30
0.0
 10
174.1351073783412
 20
340.4364121327728
 30
0.0
 10
174.0882540797418
 20
340.3936929487558
 30
0.0
 10
174.0882540797418
 20
340.3351263255065
 30
0.0
 10
174.0882540797418
 20
340.3351263255065
 30
0.0
 10
174.0882540797418
 20
337.3347926674024
 30
0.0
 10
174.0882540797418
 20
337.3347926674024
 30
0.0
 10
174.0882540797418
 20
337.3895696856179
 30
0.0
 10
174.1309732637589
 20
337.4364229842173
 30
0.0
 10
174.1895398870082
 20
337.4364229842173
 30
0.0
 10
174.1895398870082
 20
337.4364229842173
 30
0.0
 10
168.1895615898971
 20
337.4364229842173
 30
0.0
 10
168.1895615898971
 20
337.4364229842173
 30
0.0
 10
168.243994098564
 20
337.4364229842173
 30
0.0
 10
168.2908473971634
 20
337.3933592906517
 30
0.0
 10
168.2908473971634
 20
337.3347926674024
 30
0.0
 10
168.2908473971634
 20
337.3347926674024
 30
0.0
 10
168.2908473971634
 20
340.3351263255065
 30
0.0
 10
168.2908473971634
 20
340.3351263255065
 30
0.0
 10
168.2908473971634
 20
340.3895588341734
 30
0.0
 10
168.2481282131463
 20
340.4364121327728
 30
0.0
 10
168.1895615898971
 20
340.4364121327728
 30
0.0
 10
168.1895615898971
 20
340.4364121327728
 30
0.0
 10
162.189583292786
 20
340.4364121327728
 30
0.0
 10
162.189583292786
 20
340.4364121327728
 30
0.0
 10
162.135150784119
 20
340.4364121327728
 30
0.0
 10
162.0882974855196
 20
340.3936929487558
 30
0.0
 10
162.0882974855196
 20
340.3351263255065
 30
0.0
 10
162.0882974855196
 20
340.3351263255065
 30
0.0
 10
162.0882974855196
 20
337.3347926674024
 30
0.0
 10
162.0882974855196
 20
337.3347926674024
 30
0.0
 10
162.0882974855196
 20
337.3895696856179
 30
0.0
 10
162.1310166695367
 20
337.4364229842173
 30
0.0
 10
162.189583292786
 20
337.4364229842173
 30
0.0
 10
162.189583292786
 20
337.4364229842173
 30
0.0
 10
156.1896049956748
 20
337.4364229842173
 30
0.0
 10
156.1896049956748
 20
337.4364229842173
 30
0.0
 10
156.1351724870079
 20
337.4364229842173
 30
0.0
 10
156.0876301693114
 20
337.3933592906517
 30
0.0
 10
156.0876301693114
 20
337.3347926674024
 30
0.0
 10
156.0876301693114
 20
337.3347926674024
 30
0.0
 10
156.0876301693114
 20
337.3347926674024
 30
0.0
 10
156.0876301693114
 20
337.3347926674024
 30
0.0
 10
156.0876301693114
 20
337.3347926674024
 30
0.0
 10
156.0876301693114
 20
331.3348143702913
 30
0.0
 10
156.0876301693114
 20
331.3348143702913
 30
0.0
 10
156.0876301693114
 20
331.3895913885068
 30
0.0
 10
156.1310383724256
 20
331.4364446871062
 30
0.0
 10
156.1896049956748
 20
331.4364446871062
 30
0.0
 10
156.1896049956748
 20
331.4364446871062
 30
0.0
 10
153.1889268280222
 20
331.4364446871062
 30
0.0
 10
153.1889268280222
 20
331.4364446871062
 30
0.0
 10
153.1344943193553
 20
331.4364446871062
 30
0.0
 10
153.0876410207559
 20
331.3933809935406
 30
0.0
 10
153.0876410207559
 20
331.3348143702913
 30
0.0
 10
153.0876410207559
 20
331.3348143702913
 30
0.0
 10
153.0876410207559
 20
325.3348360731802
 30
0.0
 10
153.0876410207559
 20
325.3348360731802
 30
0.0
 10
153.0876410207559
 20
325.2800590549647
 30
0.0
 10
153.130360204773
 20
325.2332057563654
 30
0.0
 10
153.1889268280222
 20
325.2332057563654
 30
0.0
 10
153.1889268280222
 20
325.2332057563654
 30
0.0
 10
156.1896049956748
 20
325.2332057563654
 30
0.0
 10
156.1896049956748
 20
325.2332057563654
 30
0.0
 10
156.1351724870079
 20
325.2332057563654
 30
0.0
 10
156.0876301693114
 20
325.276269449931
 30
0.0
 10
156.0876301693114
 20
325.3348360731802
 30
0.0
 10
156.0876301693114
 20
325.3348360731802
 30
0.0
 10
156.0876301693114
 20
319.3348577760691
 30
0.0
 10
156.0876301693114
 20
319.3348577760691
 30
0.0
 10
156.0876301693114
 20
319.3896347942846
 30
0.0
 10
156.1310383724256
 20
319.436488092884
 30
0.0
 10
156.1896049956748
 20
319.436488092884
 30
0.0
 10
156.1896049956748
 20
319.436488092884
 30
0.0
 10
153.1889268280222
 20
319.436488092884
 30
0.0
 10
153.1889268280222
 20
319.436488092884
 30
0.0
 10
153.1344943193553
 20
319.436488092884
 30
0.0
 10
153.0876410207559
 20
319.3934243993183
 30
0.0
 10
153.0876410207559
 20
319.3348577760691
 30
0.0
 10
153.0876410207559
 20
319.3348577760691
 30
0.0
 10
153.0876410207559
 20
313.334879478958
 30
0.0
 10
153.0876410207559
 20
313.334879478958
 30
0.0
 10
153.0876410207559
 20
313.2801024607425
 30
0.0
 10
153.130360204773
 20
313.2332491621431
 30
0.0
 10
153.1889268280222
 20
313.2332491621431
 30
0.0
 10
153.1889268280222
 20
313.2332491621431
 30
0.0
 10
156.1896049956748
 20
313.2332491621431
 30
0.0
 10
156.1896049956748
 20
313.2332491621431
 30
0.0
 10
156.1351724870079
 20
313.2332491621431
 30
0.0
 10
156.0876301693114
 20
313.2763128557087
 30
0.0
 10
156.0876301693114
 20
313.334879478958
 30
0.0
 10
156.0876301693114
 20
313.334879478958
 30
0.0
 10
156.0876301693114
 20
307.3349011818468
 30
0.0
 10
156.0876301693114
 20
307.3349011818468
 30
0.0
 10
156.0876301693114
 20
307.3893336905138
 30
0.0
 10
156.1310383724256
 20
307.4361869891132
 30
0.0
 10
156.1896049956748
 20
307.4361869891132
 30
0.0
 10
156.1896049956748
 20
307.4361869891132
 30
0.0
 10
153.1889268280222
 20
307.4361869891132
 30
0.0
 10
153.1889268280222
 20
307.4361869891132
 30
0.0
 10
153.1344943193553
 20
307.4361869891132
 30
0.0
 10
153.0876410207559
 20
307.3934678050961
 30
0.0
 10
153.0876410207559
 20
307.3349011818468
 30
0.0
 10
153.0876410207559
 20
307.3349011818468
 30
0.0
 10
153.0876410207559
 20
301.3345783751872
 30
0.0
 10
153.0876410207559
 20
301.3345783751872
 30
0.0
 10
153.0876410207559
 20
301.2801458665202
 30
0.0
 10
153.130360204773
 20
301.2329480583724
 30
0.0
 10
153.1889268280222
 20
301.2329480583724
 30
0.0
 10
153.1889268280222
 20
301.2329480583724
 30
0.0
 10
156.1896049956748
 20
301.2329480583724
 30
0.0
 10
156.1896049956748
 20
301.2329480583724
 30
0.0
 10
156.1351724870079
 20
301.2329480583724
 30
0.0
 10
156.0876301693114
 20
301.276011751938
 30
0.0
 10
156.0876301693114
 20
301.3345783751872
 30
0.0
 10
156.0876301693114
 20
301.3345783751872
 30
0.0
 10
156.0876301693114
 20
295.3346000780761
 30
0.0
 10
156.0876301693114
 20
295.3346000780761
 30
0.0
 10
156.0876301693114
 20
295.389032586743
 30
0.0
 10
156.1310383724256
 20
295.436230394891
 30
0.0
 10
156.1896049956748
 20
295.436230394891
 30
0.0
 10
156.1896049956748
 20
295.436230394891
 30
0.0
 10
153.1889268280222
 20
295.436230394891
 30
0.0
 10
153.1889268280222
 20
295.436230394891
 30
0.0
 10
153.1344943193553
 20
295.436230394891
 30
0.0
 10
153.0876410207559
 20
295.3931667013254
 30
0.0
 10
153.0876410207559
 20
295.3346000780761
 30
0.0
 10
153.0876410207559
 20
295.3346000780761
 30
0.0
 10
153.0876410207559
 20
289.334621780965
 30
0.0
 10
153.0876410207559
 20
289.334621780965
 30
0.0
 10
153.0876410207559
 20
289.2798447627495
 30
0.0
 10
153.130360204773
 20
289.2329914641501
 30
0.0
 10
153.1889268280222
 20
289.2329914641501
 30
0.0
 10
153.1889268280222
 20
289.2329914641501
 30
0.0
 10
156.1896049956748
 20
289.2329914641501
 30
0.0
 10
156.1896049956748
 20
289.2329914641501
 30
0.0
 10
156.1351724870079
 20
289.2329914641501
 30
0.0
 10
156.0876301693114
 20
289.2760551577157
 30
0.0
 10
156.0876301693114
 20
289.334621780965
 30
0.0
 10
156.0876301693114
 20
289.334621780965
 30
0.0
 10
156.0876301693114
 20
283.3346434838538
 30
0.0
 10
156.0876301693114
 20
283.3346434838538
 30
0.0
 10
156.0876301693114
 20
283.3887314829723
 30
0.0
 10
156.1310383724256
 20
283.4359292911202
 30
0.0
 10
156.1896049956748
 20
283.4359292911202
 30
0.0
 10
156.1896049956748
 20
283.4359292911202
 30
0.0
 10
153.1889268280222
 20
283.4359292911202
 30
0.0
 10
153.1889268280222
 20
283.4359292911202
 30
0.0
 10
153.1344943193553
 20
283.4359292911202
 30
0.0
 10
153.0876410207559
 20
283.3932101071031
 30
0.0
 10
153.0876410207559
 20
283.3346434838538
 30
0.0
 10
153.0876410207559
 20
283.3346434838538
 30
0.0
 10
153.0876410207559
 20
277.3346651867427
 30
0.0
 10
153.0876410207559
 20
277.3346651867427
 30
0.0
 10
153.0876410207559
 20
277.2798881685272
 30
0.0
 10
153.130360204773
 20
277.2330348699278
 30
0.0
 10
153.1889268280222
 20
277.2330348699278
 30
0.0
 10
153.1889268280222
 20
277.2330348699278
 30
0.0
 10
156.1896049956748
 20
277.2330348699278
 30
0.0
 10
156.1896049956748
 20
277.2330348699278
 30
0.0
 10
156.1351724870079
 20
277.2330348699278
 30
0.0
 10
156.0876301693114
 20
277.275754053945
 30
0.0
 10
156.0876301693114
 20
277.3346651867427
 30
0.0
 10
156.0876301693114
 20
277.3346651867427
 30
0.0
 10
156.0876301693114
 20
271.3343423800831
 30
0.0
 10
156.0876301693114
 20
271.3343423800831
 30
0.0
 10
156.0876301693114
 20
271.38877488875
 30
0.0
 10
156.1310383724256
 20
271.4356281873494
 30
0.0
 10
156.1896049956748
 20
271.4356281873494
 30
0.0
 10
156.1896049956748
 20
271.4356281873494
 30
0.0
 10
153.1889268280222
 20
271.4356281873494
 30
0.0
 10
153.1889268280222
 20
271.4356281873494
 30
0.0
 10
153.1344943193553
 20
271.4356281873494
 30
0.0
 10
153.0876410207559
 20
271.3929090033324
 30
0.0
 10
153.0876410207559
 20
271.3343423800831
 30
0.0
 10
153.0876410207559
 20
271.3343423800831
 30
0.0
 10
153.0876410207559
 20
265.3340195734235
 30
0.0
 10
153.0876410207559
 20
265.3340195734235
 30
0.0
 10
153.0876410207559
 20
265.2795870647565
 30
0.0
 10
153.130360204773
 20
265.2327337661571
 30
0.0
 10
153.1889268280222
 20
265.2327337661571
 30
0.0
 10
153.1889268280222
 20
265.2327337661571
 30
0.0
 10
156.1896049956748
 20
265.2327337661571
 30
0.0
 10
156.1896049956748
 20
265.2327337661571
 30
0.0
 10
156.1351724870079
 20
265.2327337661571
 30
0.0
 10
156.0876301693114
 20
265.2754529501742
 30
0.0
 10
156.0876301693114
 20
265.3340195734235
 30
0.0
 10
156.0876301693114
 20
265.3340195734235
 30
0.0
 10
156.0876301693114
 20
259.3340412763123
 30
0.0
 10
156.0876301693114
 20
259.3340412763123
 30
0.0
 10
156.0876301693114
 20
259.3888182945278
 30
0.0
 10
156.1310383724256
 20
259.4356715931272
 30
0.0
 10
156.1896049956748
 20
259.4356715931272
 30
0.0
 10
156.1896049956748
 20
259.4356715931272
 30
0.0
 10
153.1889268280222
 20
259.4356715931272
 30
0.0
 10
153.1889268280222
 20
259.4356715931272
 30
0.0
 10
153.1344943193553
 20
259.4356715931272
 30
0.0
 10
153.0876410207559
 20
259.3926078995616
 30
0.0
 10
153.0876410207559
 20
259.3340412763123
 30
0.0
 10
153.0876410207559
 20
259.3340412763123
 30
0.0
 10
153.0876410207559
 20
253.3340629792012
 30
0.0
 10
153.0876410207559
 20
253.3340629792012
 30
0.0
 10
153.0876410207559
 20
253.2796304705343
 30
0.0
 10
153.130360204773
 20
253.2327771719349
 30
0.0
 10
153.1889268280222
 20
253.2327771719349
 30
0.0
 10
153.1889268280222
 20
253.2327771719349
 30
0.0
 10
156.1896049956748
 20
253.2327771719349
 30
0.0
 10
156.1896049956748
 20
253.2327771719349
 30
0.0
 10
156.1351724870079
 20
253.2327771719349
 30
0.0
 10
156.0876301693114
 20
253.275496355952
 30
0.0
 10
156.0876301693114
 20
253.3340629792012
 30
0.0
 10
156.0876301693114
 20
253.3340629792012
 30
0.0
 10
156.0876301693114
 20
247.3337401725416
 30
0.0
 10
156.0876301693114
 20
247.3337401725416
 30
0.0
 10
156.0876301693114
 20
247.3885171907571
 30
0.0
 10
156.1310383724256
 20
247.4353704893564
 30
0.0
 10
156.1896049956748
 20
247.4353704893564
 30
0.0
 10
156.1896049956748
 20
247.4353704893564
 30
0.0
 10
153.1889268280222
 20
247.4353704893564
 30
0.0
 10
153.1889268280222
 20
247.4353704893564
 30
0.0
 10
153.1344943193553
 20
247.4353704893564
 30
0.0
 10
153.0876410207559
 20
247.3923067957908
 30
0.0
 10
153.0876410207559
 20
247.3337401725416
 30
0.0
 10
153.0876410207559
 20
247.3337401725416
 30
0.0
 10
153.0876410207559
 20
241.3337618754305
 30
0.0
 10
153.0876410207559
 20
241.3337618754305
 30
0.0
 10
153.0876410207559
 20
241.2793293667635
 30
0.0
 10
153.130360204773
 20
241.2321315586156
 30
0.0
 10
153.1889268280222
 20
241.2321315586156
 30
0.0
 10
153.1889268280222
 20
241.2321315586156
 30
0.0
 10
156.1896049956748
 20
241.2321315586156
 30
0.0
 10
156.1896049956748
 20
241.2321315586156
 30
0.0
 10
156.1351724870079
 20
241.2321315586156
 30
0.0
 10
156.0876301693114
 20
241.2751952521812
 30
0.0
 10
156.0876301693114
 20
241.3337618754305
 30
0.0
 10
156.0876301693114
 20
241.3337618754305
 30
0.0
 10
156.0876301693114
 20
235.3337835783194
 30
0.0
 10
156.0876301693114
 20
235.3337835783194
 30
0.0
 10
156.0876301693114
 20
235.3885605965348
 30
0.0
 10
156.1310383724256
 20
235.4354138951342
 30
0.0
 10
156.1896049956748
 20
235.4354138951342
 30
0.0
 10
156.1896049956748
 20
235.4354138951342
 30
0.0
 10
153.1889268280222
 20
235.4354138951342
 30
0.0
 10
153.1889268280222
 20
235.4354138951342
 30
0.0
 10
153.1344943193553
 20
235.4354138951342
 30
0.0
 10
153.0876410207559
 20
235.3923502015686
 30
0.0
 10
153.0876410207559
 20
235.3337835783194
 30
0.0
 10
153.0876410207559
 20
235.3337835783194
 30
0.0
 10
153.0876410207559
 20
229.3338052812082
 30
0.0
 10
153.0876410207559
 20
229.3338052812082
 30
0.0
 10
153.0876410207559
 20
229.2790282629928
 30
0.0
 10
153.130360204773
 20
229.2321749643934
 30
0.0
 10
153.1889268280222
 20
229.2321749643934
 30
0.0
 10
153.1889268280222
 20
229.2321749643934
 30
0.0
 10
156.1896049956748
 20
229.2321749643934
 30
0.0
 10
156.1896049956748
 20
229.2321749643934
 30
0.0
 10
156.1351724870079
 20
229.2321749643934
 30
0.0
 10
156.0876301693114
 20
229.275238657959
 30
0.0
 10
156.0876301693114
 20
229.3338052812082
 30
0.0
 10
156.0876301693114
 20
229.3338052812082
 30
0.0
 10
156.0876301693114
 20
223.3338269840971
 30
0.0
 10
156.0876301693114
 20
223.3338269840971
 30
0.0
 10
156.0876301693114
 20
223.2797389849787
 30
0.0
 10
156.1310383724256
 20
223.2328856863793
 30
0.0
 10
156.1896049956748
 20
223.2328856863793
 30
0.0
 10
156.1896049956748
 20
223.2328856863793
 30
0.0
 10
156.1896049956748
 20
223.2328856863793
 30
0.0
 10
156.1896049956748
 20
223.2328856863793
 30
0.0
  0
SPLINE
  5
45
330
1F
100
AcDbEntity
  8
Calque 1
 62
    18
420
    65793
370
     9
100
AcDbSpline
210
0.0
220
0.0
230
1.0
 70
    11
 71
     3
 72
   905
 73
   901
 74
     0
 42
0.0000000001
 43
0.0000000001
 40
0.0
 40
0.0
 40
0.0
 40
0.0
 40
1.0
 40
1.0
 40
1.0
 40
2.0
 40
2.0
 40
2.0
 40
3.0
 40
3.0
 40
3.0
 40
4.0
 40
4.0
 40
4.0
 40
5.0
 40
5.0
 40
5.0
 40
6.0
 40
6.0
 40
6.0
 40
7.0
 40
7.0
 40
7.0
 40
8.0
 40
8.0
 40
8.0
 40
9.0
 40
9.0
 40
9.0
 40
10.0
 40
10.0
 40
10.0
 40
11.0
 40
11.0
 40
11.0
 40
12.0
 40
12.0
 40
12.0
 40
13.0
 40
13.0
 40
13.0
 40
14.0
 40
14.0
 40
14.0
 40
15.0
 40
15.0
 40
15.0
 40
16.0
 40
16.0
 40
16.0
 40
17.0
 40
17.0
 40
17.0
 40
18.0
 40
18.0
 40
18.0
 40
19.0
 40
19.0
 40
19.0
 40
20.0
 40
20.0
 40
20.0
 40
21.0
 40
21.0
 40
21.0
 40
22.0
 40
22.0
 40
22.0
 40
23.0
 40
23.0
 40
23.0
 40
24.0
 40
24.0
 40
24.0
 40
25.0
 40
25.0
 40
25.0
 40
26.0
 40
26.0
 40
26.0
 40
27.0
 40
27.0
 40
27.0
 40
28.0
 40
28.0
 40
28.0
 40
29.0
 40
29.0
 40
29.0
 40
30.0
 40
30.0
 40
30.0
 40
31.0
 40
31.0
 40
31.0
 40
32.0
 40
32.0
 40
32.0
 40
33.0
 40
33.0
 40
33.0
 40
34.0
 40
34.0
 40
34.0
 40
35.0
 40
35.0
 40
35.0
 40
36.0
 40
36.0
 40
36.0
 40
37.0
 40
37.0
 40
37.0
 40
38.0
 40
38.0
 40
38.0
 40
39.0
 40
39.0
 40
39.0
 40
40.0
 40
40.0
 40
40.0
 40
41.0
 40
41.0
 40
41.0
 40
42.0
 40
42.0
 40
42.0
 40
43.0
 40
43.0
 40
43.0
 40
44.0
 40
44.0
 40
44.0
 40
45.0
 40
45.0
 40
45.0
 40
46.0
 40
46.0
 40
46.0
 40
47.0
 40
47.0
 40
47.0
 40
48.0
 40
48.0
 40
48.0
 40
49.0
 40
49.0
 40
49.0
 40
50.0
 40
50.0
 40
50.0
 40
51.0
 40
51.0
 40
51.0
 40
52.0
 40
52.0
 40
52.0
 40
53.0
 40
53.0
 40
53.0
 40
54.0
 40
54.0
 40
54.0
 40
55.0
 40
55.0
 40
55.0
 40
56.0
 40
56.0
 40
56.0
 40
57.0
 40
57.0
 40
57.0
 40
58.0
 40
58.0
 40
58.0
 40
59.0
 40
59.0
 40
59.0
 40
60.0
 40
60.0
 40
60.0
 40
61.0
 40
61.0
 40
61.0
 40
62.0
 40
62.0
 40
62.0
 40
63.0
 40
63.0
 40
63.0
 40
64.0
 40
64.0
 40
64.0
 40
65.0
 40
65.0
 40
65.0
 40
66.0
 40
66.0
 40
66.0
 40
67.0
 40
67.0
 40
67.0
 40
68.0
 40
68.0
 40
68.0
 40
69.0
 40
69.0
 40
69.0
 40
70.0
 40
70.0
 40
70.0
 40
71.0
 40
71.0
 40
71.0
 40
72.0
 40
72.0
 40
72.0
 40
73.0
 40
73.0
 40
73.0
 40
74.0
 40
74.0
 40
74.0
 40
75.0
 40
75.0
 40
75.0
 40
76.0
 40
76.0
 40
76.0
 40
77.0
 40
77.0
 40
77.0
 40
78.0
 40
78.0
 40
78.0
 40
79.0
 40
79.0
 40
79.0
 40
80.0
 40
80.0
 40
80.0
 40
81.0
 40
81.0
 40
81.0
 40
82.0
 40
82.0
 40
82.0
 40
83.0
 40
83.0
 40
83.0
 40
84.0
 40
84.0
 40
84.0
 40
85.0
 40
85.0
 40
85.0
 40
86.0
 40
86.0
 40
86.0
 40
87.0
 40
87.0
 40
87.0
 40
88.0
 40
88.0
 40
88.0
 40
89.0
 40
89.0
 40
89.0
 40
90.0
 40
90.0
 40
90.0
 40
91.0
 40
91.0
 40
91.0
 40
92.0
 40
92.0
 40
92.0
 40
93.0
 40
93.0
 40
93.0
 40
94.0
 40
94.0
 40
94.0
 40
95.0
 40
95.0
 40
95.0
 40
96.0
 40
96.0
 40
96.0
 40
97.0
 40
97.0
 40
97.0
 40
98.0
 40
98.0
 40
98.0
 40
99.0
 40
99.0
 40
99.0
 40
100.0
 40
100.0
 40
100.0
 40
101.0
 40
101.0
 40
101.0
 40
102.0
 40
102.0
 40
102.0
 40
103.0
 40
103.0
 40
103.0
 40
104.0
 40
104.0
 40
104.0
 40
105.0
 40
105.0
 40
105.0
 40
106.0
 40
106.0
 40
106.0
 40
107.0
 40
107.0
 40
107.0
 40
108.0
 40
108.0
 40
108.0
 40
109.0
 40
109.0
 40
109.0
 40
110.0
 40
110.0
 40
110.0
 40
111.0
 40
111.0
 40
111.0
 40
112.0
 40
112.0
 40
112.0
 40
113.0
 40
113.0
 40
113.0
 40
114.0
 40
114.0
 40
114.0
 40
115.0
 40
115.0
 40
115.0
 40
116.0
 40
116.0
 40
116.0
 40
117.0
 40
117.0
 40
117.0
 40
118.0
 40
118.0
 40
118.0
 40
119.0
 40
119.0
 40
119.0
 40
120.0
 40
120.0
 40
120.0
 40
121.0
 40
121.0
 40
121.0
 40
122.0
 40
122.0
 40
122.0
 40
123.0
 40
123.0
 40
123.0
 40
124.0
 40
124.0
 40
124.0
 40
125.0
 40
125.0
 40
125.0
 40
126.0
 40
126.0
 40
126.0
 40
127.0
 40
127.0
 40
127.0
 40
128.0
 40
128.0
 40
128.0
 40
129.0
 40
129.0
 40
129.0
 40
130.0
 40
130.0
 40
130.0
 40
131.0
 40
131.0
 40
131.0
 40
132.0
 40
132.0
 40
132.0
 40
133.0
 40
133.0
 40
133.0
 40
134.0
 40
134.0
 40
134.0
 40
135.0
 40
135.0
 40
135.0
 40
136.0
 40
136.0
 40
136.0
 40
137.0
 40
137.0
 40
137.0
 40
138.0
 40
138.0
 40
138.0
 40
139.0
 40
139.0
 40
139.0
 40
140.0
 40
140.0
 40
140.0
 40
141.0
 40
141.0
 40
141.0
 40
142.0
 40
142.0
 40
142.0
 40
143.0
 40
143.0
 40
143.0
 40
144.0
 40
144.0
 40
144.0
 40
145.0
 40
145.0
 40
145.0
 40
146.0
 40
146.0
 40
146.0
 40
147.0
 40
147.0
 40
147.0
 40
148.0
 40
148.0
 40
148.0
 40
149.0
 40
149.0
 40
149.0
 40
150.0
 40
150.0
 40
150.0
 40
151.0
 40
151.0
 40
151.0
 40
152.0
 40
152.0
 40
152.0
 40
153.0
 40
153.0
 40
153.0
 40
154.0
 40
154.0
 40
154.0
 40
155.0
 40
155.0
 40
155.0
 40
156.0
 40
156.0
 40
156.0
 40
157.0
 40
157.0
 40
157.0
 40
158.0
 40
158.0
 40
158.0
 40
159.0
 40
159.0
 40
159.0
 40
160.0
 40
160.0
 40
160.0
 40
161.0
 40
161.0
 40
161.0
 40
162.0
 40
162.0
 40
162.0
 40
163.0
 40
163.0
 40
163.0
 40
164.0
 40
164.0
 40
164.0
 40
165.0
 40
165.0
 40
165.0
 40
166.0
 40
166.0
 40
166.0
 40
167.0
 40
167.0
 40
167.0
 40
168.0
 40
168.0
 40
168.0
 40
169.0
 40
169.0
 40
169.0
 40
170.0
 40
170.0
 40
170.0
 40
171.0
 40
171.0
 40
171.0
 40
172.0
 40
172.0
 40
172.0
 40
173.0
 40
173.0
 40
173.0
 40
174.0
 40
174.0
 40
174.0
 40
175.0
 40
175.0
 40
175.0
 40
176.0
 40
176.0
 40
176.0
 40
177.0
 40
177.0
 40
177.0
 40
178.0
 40
178.0
 40
178.0
 40
179.0
 40
179.0
 40
179.0
 40
180.0
 40
180.0
 40
180.0
 40
181.0
 40
181.0
 40
181.0
 40
182.0
 40
182.0
 40
182.0
 40
183.0
 40
183.0
 40
183.0
 40
184.0
 40
184.0
 40
184.0
 40
185.0
 40
185.0
 40
185.0
 40
186.0
 40
186.0
 40
186.0
 40
187.0
 40
187.0
 40
187.0
 40
188.0
 40
188.0
 40
188.0
 40
189.0
 40
189.0
 40
189.0
 40
190.0
 40
190.0
 40
190.0
 40
191.0
 40
191.0
 40
191.0
 40
192.0
 40
192.0
 40
192.0
 40
193.0
 40
193.0
 40
193.0
 40
194.0
 40
194.0
 40
194.0
 40
195.0
 40
195.0
 40
195.0
 40
196.0
 40
196.0
 40
196.0
 40
197.0
 40
197.0
 40
197.0
 40
198.0
 40
198.0
 40
198.0
 40
199.0
 40
199.0
 40
199.0
 40
200.0
 40
200.0
 40
200.0
 40
201.0
 40
201.0
 40
201.0
 40
202.0
 40
202.0
 40
202.0
 40
203.0
 40
203.0
 40
203.0
 40
204.0
 40
204.0
 40
204.0
 40
205.0
 40
205.0
 40
205.0
 40
206.0
 40
206.0
 40
206.0
 40
207.0
 40
207.0
 40
207.0
 40
208.0
 40
208.0
 40
208.0
 40
209.0
 40
209.0
 40
209.0
 40
210.0
 40
210.0
 40
210.0
 40
211.0
 40
211.0
 40
211.0
 40
212.0
 40
212.0
 40
212.0
 40
213.0
 40
213.0
 40
213.0
 40
214.0
 40
214.0
 40
214.0
 40
215.0
 40
215.0
 40
215.0
 40
216.0
 40
216.0
 40
216.0
 40
217.0
 40
217.0
 40
217.0
 40
218.0
 40
218.0
 40
218.0
 40
219.0
 40
219.0
 40
219.0
 40
220.0
 40
220.0
 40
220.0
 40
221.0
 40
221.0
 40
221.0
 40
222.0
 40
222.0
 40
222.0
 40
223.0
 40
223.0
 40
223.0
 40
224.0
 40
224.0
 40
224.0
 40
225.0
 40
225.0
 40
225.0
 40
226.0
 40
226.0
 40
226.0
 40
227.0
 40
227.0
 40
227.0
 40
228.0
 40
228.0
 40
228.0
 40
229.0
 40
229.0
 40
229.0
 40
230.0
 40
230.0
 40
230.0
 40
231.0
 40
231.0
 40
231.0
 40
232.0
 40
232.0
 40
232.0
 40
233.0
 40
233.0
 40
233.0
 40
234.0
 40
234.0
 40
234.0
 40
235.0
 40
235.0
 40
235.0
 40
236.0
 40
236.0
 40
236.0
 40
237.0
 40
237.0
 40
237.0
 40
238.0
 40
238.0
 40
238.0
 40
239.0
 40
239.0
 40
239.0
 40
240.0
 40
240.0
 40
240.0
 40
241.0
 40
241.0
 40
241.0
 40
242.0
 40
242.0
 40
242.0
 40
243.0
 40
243.0
 40
243.0
 40
244.0
 40
244.0
 40
244.0
 40
245.0
 40
245.0
 40
245.0
 40
246.0
 40
246.0
 40
246.0
 40
247.0
 40
247.0
 40
247.0
 40
248.0
 40
248.0
 40
248.0
 40
249.0
 40
249.0
 40
249.0
 40
250.0
 40
250.0
 40
250.0
 40
251.0
 40
251.0
 40
251.0
 40
252.0
 40
252.0
 40
252.0
 40
253.0
 40
253.0
 40
253.0
 40
254.0
 40
254.0
 40
254.0
 40
255.0
 40
255.0
 40
255.0
 40
256.0
 40
256.0
 40
256.0
 40
257.0
 40
257.0
 40
257.0
 40
258.0
 40
258.0
 40
258.0
 40
259.0
 40
259.0
 40
259.0
 40
260.0
 40
260.0
 40
260.0
 40
261.0
 40
261.0
 40
261.0
 40
262.0
 40
262.0
 40
262.0
 40
263.0
 40
263.0
 40
263.0
 40
264.0
 40
264.0
 40
264.0
 40
265.0
 40
265.0
 40
265.0
 40
266.0
 40
266.0
 40
266.0
 40
267.0
 40
267.0
 40
267.0
 40
268.0
 40
268.0
 40
268.0
 40
269.0
 40
269.0
 40
269.0
 40
270.0
 40
270.0
 40
270.0
 40
271.0
 40
271.0
 40
271.0
 40
272.0
 40
272.0
 40
272.0
 40
273.0
 40
273.0
 40
273.0
 40
274.0
 40
274.0
 40
274.0
 40
275.0
 40
275.0
 40
275.0
 40
276.0
 40
276.0
 40
276.0
 40
277.0
 40
277.0
 40
277.0
 40
278.0
 40
278.0
 40
278.0
 40
279.0
 40
279.0
 40
279.0
 40
280.0
 40
280.0
 40
280.0
 40
281.0
 40
281.0
 40
281.0
 40
282.0
 40
282.0
 40
282.0
 40
283.0
 40
283.0
 40
283.0
 40
284.0
 40
284.0
 40
284.0
 40
285.0
 40
285.0
 40
285.0
 40
286.0
 40
286.0
 40
286.0
 40
287.0
 40
287.0
 40
287.0
 40
288.0
 40
288.0
 40
288.0
 40
289.0
 40
289.0
 40
289.0
 40
290.0
 40
290.0
 40
290.0
 40
291.0
 40
291.0
 40
291.0
 40
292.0
 40
292.0
 40
292.0
 40
293.0
 40
293.0
 40
293.0
 40
294.0
 40
294.0
 40
294.0
 40
295.0
 40
295.0
 40
295.0
 40
296.0
 40
296.0
 40
296.0
 40
297.0
 40
297.0
 40
297.0
 40
298.0
 40
298.0
 40
298.0
 40
299.0
 40
299.0
 40
299.0
 40
300.0
 40
300.0
 40
300.0
 40
300.0
 10
30.19109428498695
 20
223.2328856863793
 30
0.0
 10
30.19109428498695
 20
223.2328856863793
 30
0.0
 10
36.19124483687233
 20
223.2328856863793
 30
0.0
 10
36.19124483687233
 20
223.2328856863793
 30
0.0
 10
36.13681232820538
 20
223.2328856863793
 30
0.0
 10
36.08995902960599
 20
223.2756048703964
 30
0.0
 10
36.08995902960599
 20
223.3341714936456
 30
0.0
 10
36.08995902960599
 20
223.3341714936456
 30
0.0
 10
36.08995902960599
 20
220.3338378355415
 30
0.0
 10
36.08995902960599
 20
220.3338378355415
 30
0.0
 10
36.08995902960599
 20
220.2797498364231
 30
0.0
 10
36.13267821362308
 20
220.2328965378237
 30
0.0
 10
36.19124483687233
 20
220.2328965378237
 30
0.0
 10
36.19124483687233
 20
220.2328965378237
 30
0.0
 10
42.19122313398345
 20
220.2328965378237
 30
0.0
 10
42.19122313398345
 20
220.2328965378237
 30
0.0
 10
42.24582789742465
 20
220.2328965378237
 30
0.0
 10
42.29285345079832
 20
220.2752712122923
 30
0.0
 10
42.29285345079832
 20
220.3338378355415
 30
0.0
 10
42.29285345079832
 20
220.3338378355415
 30
0.0
 10
42.29285345079832
 20
223.3341714936456
 30
0.0
 10
42.29285345079832
 20
223.3341714936456
 30
0.0
 10
42.29285345079832
 20
223.2797389849787
 30
0.0
 10
42.24978975723269
 20
223.2328856863793
 30
0.0
 10
42.19122313398345
 20
223.2328856863793
 30
0.0
 10
42.19122313398345
 20
223.2328856863793
 30
0.0
 10
48.19120143109456
 20
223.2328856863793
 30
0.0
 10
48.19120143109456
 20
223.2328856863793
 30
0.0
 10
48.13694117720188
 20
223.2328856863793
 30
0.0
 10
48.09008787860248
 20
223.2756048703964
 30
0.0
 10
48.09008787860248
 20
223.3341714936456
 30
0.0
 10
48.09008787860248
 20
223.3341714936456
 30
0.0
 10
48.09008787860248
 20
220.3338378355415
 30
0.0
 10
48.09008787860248
 20
220.3338378355415
 30
0.0
 10
48.09008787860248
 20
220.2797498364231
 30
0.0
 10
48.13263480784531
 20
220.2328965378237
 30
0.0
 10
48.19120143109456
 20
220.2328965378237
 30
0.0
 10
48.19120143109456
 20
220.2328965378237
 30
0.0
 10
54.19135198297995
 20
220.2328965378237
 30
0.0
 10
54.19135198297995
 20
220.2328965378237
 30
0.0
 10
54.24595674642115
 20
220.2328965378237
 30
0.0
 10
54.29298229979482
 20
220.2752712122923
 30
0.0
 10
54.29298229979482
 20
220.3338378355415
 30
0.0
 10
54.29298229979482
 20
220.3338378355415
 30
0.0
 10
54.29298229979482
 20
223.3341714936456
 30
0.0
 10
54.29298229979482
 20
223.3341714936456
 30
0.0
 10
54.29298229979482
 20
223.2797389849787
 30
0.0
 10
54.25026311577771
 20
223.2328856863793
 30
0.0
 10
54.19135198297995
 20
223.2328856863793
 30
0.0
 10
54.19135198297995
 20
223.2328856863793
 30
0.0
 10
60.19167478963958
 20
223.2328856863793
 30
0.0
 10
60.19167478963958
 20
223.2328856863793
 30
0.0
 10
60.13707002619837
 20
223.2328856863793
 30
0.0
 10
60.09004447282472
 20
223.2756048703964
 30
0.0
 10
60.09004447282472
 20
223.3341714936456
 30
0.0
 10
60.09004447282472
 20
223.3341714936456
 30
0.0
 10
60.09004447282472
 20
220.3338378355415
 30
0.0
 10
60.09004447282472
 20
220.3338378355415
 30
0.0
 10
60.09004447282472
 20
220.2797498364231
 30
0.0
 10
60.13276365684181
 20
220.2328965378237
 30
0.0
 10
60.19167478963958
 20
220.2328965378237
 30
0.0
 10
60.19167478963958
 20
220.2328965378237
 30
0.0
 10
66.19148083197643
 20
220.2328965378237
 30
0.0
 10
66.19148083197643
 20
220.2328965378237
 30
0.0
 10
66.24574108586913
 20
220.2328965378237
 30
0.0
 10
66.29259438446852
 20
220.2752712122923
 30
0.0
 10
66.29259438446852
 20
220.3338378355415
 30
0.0
 10
66.29259438446852
 20
220.3338378355415
 30
0.0
 10
66.29259438446852
 20
223.3341714936456
 30
0.0
 10
66.29259438446852
 20
223.3341714936456
 30
0.0
 10
66.29259438446852
 20
223.2797389849787
 30
0.0
 10
66.25004745522568
 20
223.2328856863793
 30
0.0
 10
66.19148083197643
 20
223.2328856863793
 30
0.0
 10
66.19148083197643
 20
223.2328856863793
 30
0.0
 10
72.19145912908756
 20
223.2328856863793
 30
0.0
 10
72.19145912908756
 20
223.2328856863793
 30
0.0
 10
72.13702662042061
 20
223.2328856863793
 30
0.0
 10
72.09017332182121
 20
223.2756048703964
 30
0.0
 10
72.09017332182121
 20
223.3341714936456
 30
0.0
 10
72.09017332182121
 20
223.3341714936456
 30
0.0
 10
72.09017332182121
 20
220.3338378355415
 30
0.0
 10
72.09017332182121
 20
220.3338378355415
 30
0.0
 10
72.09017332182121
 20
220.2797498364231
 30
0.0
 10
72.13289250583831
 20
220.2328965378237
 30
0.0
 10
72.19145912908756
 20
220.2328965378237
 30
0.0
 10
72.19145912908756
 20
220.2328965378237
 30
0.0
 10
78.19143742619868
 20
220.2328965378237
 30
0.0
 10
78.19143742619868
 20
220.2328965378237
 30
0.0
 10
78.24586993486562
 20
220.2328965378237
 30
0.0
 10
78.29341225256206
 20
220.2752712122923
 30
0.0
 10
78.29341225256206
 20
220.3338378355415
 30
0.0
 10
78.29341225256206
 20
220.3338378355415
 30
0.0
 10
78.29341225256206
 20
223.3341714936456
 30
0.0
 10
78.29341225256206
 20
223.3341714936456
 30
0.0
 10
78.29341225256206
 20
223.2797389849787
 30
0.0
 10
78.25000404944792
 20
223.2328856863793
 30
0.0
 10
78.19143742619868
 20
223.2328856863793
 30
0.0
 10
78.19143742619868
 20
223.2328856863793
 30
0.0
 10
84.19158797808406
 20
223.2328856863793
 30
0.0
 10
84.19158797808406
 20
223.2328856863793
 30
0.0
 10
84.13715546941711
 20
223.2328856863793
 30
0.0
 10
84.09030217081771
 20
223.2756048703964
 30
0.0
 10
84.09030217081771
 20
223.3341714936456
 30
0.0
 10
84.09030217081771
 20
223.3341714936456
 30
0.0
 10
84.09030217081771
 20
220.3338378355415
 30
0.0
 10
84.09030217081771
 20
220.3338378355415
 30
0.0
 10
84.09030217081771
 20
220.2797498364231
 30
0.0
 10
84.13302135483481
 20
220.2328965378237
 30
0.0
 10
84.19158797808406
 20
220.2328965378237
 30
0.0
 10
84.19158797808406
 20
220.2328965378237
 30
0.0
 10
90.1919107847437
 20
220.2328965378237
 30
0.0
 10
90.1919107847437
 20
220.2328965378237
 30
0.0
 10
90.24617103863638
 20
220.2328965378237
 30
0.0
 10
90.29319659201003
 20
220.2752712122923
 30
0.0
 10
90.29319659201003
 20
220.3338378355415
 30
0.0
 10
90.29319659201003
 20
220.3338378355415
 30
0.0
 10
90.29319659201003
 20
223.3341714936456
 30
0.0
 10
90.29319659201003
 20
223.3341714936456
 30
0.0
 10
90.29319659201003
 20
223.2797389849787
 30
0.0
 10
90.25047740799295
 20
223.2328856863793
 30
0.0
 10
90.1919107847437
 20
223.2328856863793
 30
0.0
 10
90.1919107847437
 20
223.2328856863793
 30
0.0
 10
96.19188908185481
 20
223.2328856863793
 30
0.0
 10
96.19188908185481
 20
223.2328856863793
 30
0.0
 10
96.13693980886508
 20
223.2328856863793
 30
0.0
 10
96.09008651026568
 20
223.2756048703964
 30
0.0
 10
96.09008651026568
 20
223.3341714936456
 30
0.0
 10
96.09008651026568
 20
223.3341714936456
 30
0.0
 10
96.09008651026568
 20
220.3338378355415
 30
0.0
 10
96.09008651026568
 20
220.3338378355415
 30
0.0
 10
96.09008651026568
 20
220.2797498364231
 30
0.0
 10
96.13332245860556
 20
220.2328965378237
 30
0.0
 10
96.19188908185481
 20
220.2328965378237
 30
0.0
 10
96.19188908185481
 20
220.2328965378237
 30
0.0
 10
102.1920396337402
 20
220.2328965378237
 30
0.0
 10
102.1920396337402
 20
220.2328965378237
 30
0.0
 10
102.2462998876329
 20
220.2328965378237
 30
0.0
 10
102.2933254410065
 20
220.2752712122923
 30
0.0
 10
102.2933254410065
 20
220.3338378355415
 30
0.0
 10
102.2933254410065
 20
220.3338378355415
 30
0.0
 10
102.2933254410065
 20
223.3341714936456
 30
0.0
 10
102.2933254410065
 20
223.3341714936456
 30
0.0
 10
102.2933254410065
 20
223.2797389849787
 30
0.0
 10
102.2506062569894
 20
223.2328856863793
 30
0.0
 10
102.1920396337402
 20
223.2328856863793
 30
0.0
 10
102.1920396337402
 20
223.2328856863793
 30
0.0
 10
108.1920179308513
 20
223.2328856863793
 30
0.0
 10
108.1920179308513
 20
223.2328856863793
 30
0.0
 10
108.1368964030873
 20
223.2328856863793
 30
0.0
 10
108.0900431044879
 20
223.2756048703964
 30
0.0
 10
108.0900431044879
 20
223.3341714936456
 30
0.0
 10
108.0900431044879
 20
223.3341714936456
 30
0.0
 10
108.0900431044879
 20
220.3338378355415
 30
0.0
 10
108.0900431044879
 20
220.3338378355415
 30
0.0
 10
108.0900431044879
 20
220.2797498364231
 30
0.0
 10
108.1334513076021
 20
220.2328965378237
 30
0.0
 10
108.1920179308513
 20
220.2328965378237
 30
0.0
 10
108.1920179308513
 20
220.2328965378237
 30
0.0
 10
114.1919962279624
 20
220.2328965378237
 30
0.0
 10
114.1919962279624
 20
220.2328965378237
 30
0.0
 10
114.2464287366294
 20
220.2328965378237
 30
0.0
 10
114.2932820352288
 20
220.2752712122923
 30
0.0
 10
114.2932820352288
 20
220.3338378355415
 30
0.0
 10
114.2932820352288
 20
220.3338378355415
 30
0.0
 10
114.2932820352288
 20
223.3341714936456
 30
0.0
 10
114.2932820352288
 20
223.3341714936456
 30
0.0
 10
114.2932820352288
 20
223.2797389849787
 30
0.0
 10
114.2505628512117
 20
223.2328856863793
 30
0.0
 10
114.1919962279624
 20
223.2328856863793
 30
0.0
 10
114.1919962279624
 20
223.2328856863793
 30
0.0
 10
120.1919745250735
 20
223.2328856863793
 30
0.0
 10
120.1919745250735
 20
223.2328856863793
 30
0.0
 10
120.1371975068581
 20
223.2328856863793
 30
0.0
 10
120.0903442082587
 20
223.2756048703964
 30
0.0
 10
120.0903442082587
 20
223.3341714936456
 30
0.0
 10
120.0903442082587
 20
223.3341714936456
 30
0.0
 10
120.0903442082587
 20
220.3338378355415
 30
0.0
 10
120.0903442082587
 20
220.3338378355415
 30
0.0
 10
120.0903442082587
 20
220.2797498364231
 30
0.0
 10
120.1334079018243
 20
220.2328965378237
 30
0.0
 10
120.1919745250735
 20
220.2328965378237
 30
0.0
 10
120.1919745250735
 20
220.2328965378237
 30
0.0
 10
126.1922973317332
 20
220.2328965378237
 30
0.0
 10
126.1922973317332
 20
220.2328965378237
 30
0.0
 10
126.2463853308516
 20
220.2328965378237
 30
0.0
 10
126.2935831389995
 20
220.2752712122923
 30
0.0
 10
126.2935831389995
 20
220.3338378355415
 30
0.0
 10
126.2935831389995
 20
220.3338378355415
 30
0.0
 10
126.2935831389995
 20
223.3341714936456
 30
0.0
 10
126.2935831389995
 20
223.3341714936456
 30
0.0
 10
126.2935831389995
 20
223.2797389849787
 30
0.0
 10
126.2508639549824
 20
223.2328856863793
 30
0.0
 10
126.1922973317332
 20
223.2328856863793
 30
0.0
 10
126.1922973317332
 20
223.2328856863793
 30
0.0
 10
132.1922756288443
 20
223.2328856863793
 30
0.0
 10
132.1922756288443
 20
223.2328856863793
 30
0.0
 10
132.1378431201773
 20
223.2328856863793
 30
0.0
 10
132.0903008024809
 20
223.2756048703964
 30
0.0
 10
132.0903008024809
 20
223.3341714936456
 30
0.0
 10
132.0903008024809
 20
223.3341714936456
 30
0.0
 10
132.0903008024809
 20
220.3338378355415
 30
0.0
 10
132.0903008024809
 20
220.3338378355415
 30
0.0
 10
132.0903008024809
 20
220.2797498364231
 30
0.0
 10
132.1337090055951
 20
220.2328965378237
 30
0.0
 10
132.1922756288443
 20
220.2328965378237
 30
0.0
 10
132.1922756288443
 20
220.2328965378237
 30
0.0
 10
138.1922539259554
 20
220.2328965378237
 30
0.0
 10
138.1922539259554
 20
220.2328965378237
 30
0.0
 10
138.2466864346224
 20
220.2328965378237
 30
0.0
 10
138.2935397332218
 20
220.2752712122923
 30
0.0
 10
138.2935397332218
 20
220.3338378355415
 30
0.0
 10
138.2935397332218
 20
220.3338378355415
 30
0.0
 10
138.2935397332218
 20
223.3341714936456
 30
0.0
 10
138.2935397332218
 20
223.3341714936456
 30
0.0
 10
138.2935397332218
 20
223.2797389849787
 30
0.0
 10
138.2508205492047
 20
223.2328856863793
 30
0.0
 10
138.1922539259554
 20
223.2328856863793
 30
0.0
 10
138.1922539259554
 20
223.2328856863793
 30
0.0
 10
144.1922322230665
 20
223.2328856863793
 30
0.0
 10
144.1922322230665
 20
223.2328856863793
 30
0.0
 10
144.2466647317335
 20
223.2328856863793
 30
0.0
 10
144.2935180303329
 20
223.2756048703964
 30
0.0
 10
144.2935180303329
 20
223.3341714936456
 30
0.0
 10
144.2935180303329
 20
223.3341714936456
 30
0.0
 10
144.2935180303329
 20
223.3341714936456
 30
0.0
 10
144.2935180303329
 20
223.3341714936456
 30
0.0
 10
144.2935180303329
 20
223.3341714936456
 30
0.0
 10
144.2935180303329
 20
229.3344943003053
 30
0.0
 10
144.2935180303329
 20
229.3344943003053
 30
0.0
 10
144.2935180303329
 20
229.2797172820898
 30
0.0
 10
144.2507988463158
 20
229.2328639834904
 30
0.0
 10
144.1922322230665
 20
229.2328639834904
 30
0.0
 10
144.1922322230665
 20
229.2328639834904
 30
0.0
 10
147.1922213716221
 20
229.2328639834904
 30
0.0
 10
147.1922213716221
 20
229.2328639834904
 30
0.0
 10
147.246653880289
 20
229.2328639834904
 30
0.0
 10
147.2935071788884
 20
229.2755831675075
 30
0.0
 10
147.2935071788884
 20
229.3344943003053
 30
0.0
 10
147.2935071788884
 20
229.3344943003053
 30
0.0
 10
147.2935071788884
 20
235.3344725974164
 30
0.0
 10
147.2935071788884
 20
235.3344725974164
 30
0.0
 10
147.2935071788884
 20
235.3889051060833
 30
0.0
 10
147.2507879948713
 20
235.4357584046827
 30
0.0
 10
147.1922213716221
 20
235.4357584046827
 30
0.0
 10
147.1922213716221
 20
235.4357584046827
 30
0.0
 10
144.1922322230665
 20
235.4357584046827
 30
0.0
 10
144.1922322230665
 20
235.4357584046827
 30
0.0
 10
144.2466647317335
 20
235.4357584046827
 30
0.0
 10
144.2935180303329
 20
235.3930392206656
 30
0.0
 10
144.2935180303329
 20
235.3344725974164
 30
0.0
 10
144.2935180303329
 20
235.3344725974164
 30
0.0
 10
144.2935180303329
 20
241.3344508945275
 30
0.0
 10
144.2935180303329
 20
241.3344508945275
 30
0.0
 10
144.2935180303329
 20
241.279673876312
 30
0.0
 10
144.2507988463158
 20
241.2328205777126
 30
0.0
 10
144.1922322230665
 20
241.2328205777126
 30
0.0
 10
144.1922322230665
 20
241.2328205777126
 30
0.0
 10
147.1922213716221
 20
241.2328205777126
 30
0.0
 10
147.1922213716221
 20
241.2328205777126
 30
0.0
 10
147.246653880289
 20
241.2328205777126
 30
0.0
 10
147.2935071788884
 20
241.2758842712783
 30
0.0
 10
147.2935071788884
 20
241.3344508945275
 30
0.0
 10
147.2935071788884
 20
241.3344508945275
 30
0.0
 10
147.2935071788884
 20
247.3344291916386
 30
0.0
 10
147.2935071788884
 20
247.3344291916386
 30
0.0
 10
147.2935071788884
 20
247.3892062098541
 30
0.0
 10
147.2507879948713
 20
247.4360595084535
 30
0.0
 10
147.1922213716221
 20
247.4360595084535
 30
0.0
 10
147.1922213716221
 20
247.4360595084535
 30
0.0
 10
144.1922322230665
 20
247.4360595084535
 30
0.0
 10
144.1922322230665
 20
247.4360595084535
 30
0.0
 10
144.2466647317335
 20
247.4360595084535
 30
0.0
 10
144.2935180303329
 20
247.3929958148879
 30
0.0
 10
144.2935180303329
 20
247.3344291916386
 30
0.0
 10
144.2935180303329
 20
247.3344291916386
 30
0.0
 10
144.2935180303329
 20
253.3347519982983
 30
0.0
 10
144.2935180303329
 20
253.3347519982983
 30
0.0
 10
144.2935180303329
 20
253.2799749800828
 30
0.0
 10
144.2507988463158
 20
253.2331216814834
 30
0.0
 10
144.1922322230665
 20
253.2331216814834
 30
0.0
 10
144.1922322230665
 20
253.2331216814834
 30
0.0
 10
147.1922213716221
 20
253.2331216814834
 30
0.0
 10
147.1922213716221
 20
253.2331216814834
 30
0.0
 10
147.246653880289
 20
253.2331216814834
 30
0.0
 10
147.2935071788884
 20
253.276185375049
 30
0.0
 10
147.2935071788884
 20
253.3347519982983
 30
0.0
 10
147.2935071788884
 20
253.3347519982983
 30
0.0
 10
147.2935071788884
 20
259.3347302954094
 30
0.0
 10
147.2935071788884
 20
259.3347302954094
 30
0.0
 10
147.2935071788884
 20
259.3895073136248
 30
0.0
 10
147.2507879948713
 20
259.4363606122242
 30
0.0
 10
147.1922213716221
 20
259.4363606122242
 30
0.0
 10
147.1922213716221
 20
259.4363606122242
 30
0.0
 10
144.1922322230665
 20
259.4363606122242
 30
0.0
 10
144.1922322230665
 20
259.4363606122242
 30
0.0
 10
144.2466647317335
 20
259.4363606122242
 30
0.0
 10
144.2935180303329
 20
259.3932969186586
 30
0.0
 10
144.2935180303329
 20
259.3347302954094
 30
0.0
 10
144.2935180303329
 20
259.3347302954094
 30
0.0
 10
144.2935180303329
 20
265.3347085925205
 30
0.0
 10
144.2935180303329
 20
265.3347085925205
 30
0.0
 10
144.2935180303329
 20
265.279931574305
 30
0.0
 10
144.2507988463158
 20
265.2330782757056
 30
0.0
 10
144.1922322230665
 20
265.2330782757056
 30
0.0
 10
144.1922322230665
 20
265.2330782757056
 30
0.0
 10
147.1922213716221
 20
265.2330782757056
 30
0.0
 10
147.1922213716221
 20
265.2330782757056
 30
0.0
 10
147.246653880289
 20
265.2330782757056
 30
0.0
 10
147.2935071788884
 20
265.2761419692712
 30
0.0
 10
147.2935071788884
 20
265.3347085925205
 30
0.0
 10
147.2935071788884
 20
265.3347085925205
 30
0.0
 10
147.2935071788884
 20
271.3346868896316
 30
0.0
 10
147.2935071788884
 20
271.3346868896316
 30
0.0
 10
147.2935071788884
 20
271.3894639078471
 30
0.0
 10
147.2507879948713
 20
271.4363172064465
 30
0.0
 10
147.1922213716221
 20
271.4363172064465
 30
0.0
 10
147.1922213716221
 20
271.4363172064465
 30
0.0
 10
144.1922322230665
 20
271.4363172064465
 30
0.0
 10
144.1922322230665
 20
271.4363172064465
 30
0.0
 10
144.2466647317335
 20
271.4363172064465
 30
0.0
 10
144.2935180303329
 20
271.3932535128808
 30
0.0
 10
144.2935180303329
 20
271.3346868896316
 30
0.0
 10
144.2935180303329
 20
271.3346868896316
 30
0.0
 10
144.2935180303329
 20
277.3346651867427
 30
0.0
 10
144.2935180303329
 20
277.3346651867427
 30
0.0
 10
144.2935180303329
 20
277.2802326780758
 30
0.0
 10
144.2507988463158
 20
277.2330348699278
 30
0.0
 10
144.1922322230665
 20
277.2330348699278
 30
0.0
 10
144.1922322230665
 20
277.2330348699278
 30
0.0
 10
147.1922213716221
 20
277.2330348699278
 30
0.0
 10
147.1922213716221
 20
277.2330348699278
 30
0.0
 10
147.246653880289
 20
277.2330348699278
 30
0.0
 10
147.2935071788884
 20
277.2760985634935
 30
0.0
 10
147.2935071788884
 20
277.3346651867427
 30
0.0
 10
147.2935071788884
 20
277.3346651867427
 30
0.0
 10
147.2935071788884
 20
283.3346434838538
 30
0.0
 10
147.2935071788884
 20
283.3346434838538
 30
0.0
 10
147.2935071788884
 20
283.3890759925208
 30
0.0
 10
147.2507879948713
 20
283.4362738006687
 30
0.0
 10
147.1922213716221
 20
283.4362738006687
 30
0.0
 10
147.1922213716221
 20
283.4362738006687
 30
0.0
 10
144.1922322230665
 20
283.4362738006687
 30
0.0
 10
144.1922322230665
 20
283.4362738006687
 30
0.0
 10
144.2466647317335
 20
283.4362738006687
 30
0.0
 10
144.2935180303329
 20
283.3932101071031
 30
0.0
 10
144.2935180303329
 20
283.3346434838538
 30
0.0
 10
144.2935180303329
 20
283.3346434838538
 30
0.0
 10
144.2935180303329
 20
289.334621780965
 30
0.0
 10
144.2935180303329
 20
289.334621780965
 30
0.0
 10
144.2935180303329
 20
289.280189272298
 30
0.0
 10
144.2507988463158
 20
289.2333359736986
 30
0.0
 10
144.1922322230665
 20
289.2333359736986
 30
0.0
 10
144.1922322230665
 20
289.2333359736986
 30
0.0
 10
147.1922213716221
 20
289.2333359736986
 30
0.0
 10
147.1922213716221
 20
289.2333359736986
 30
0.0
 10
147.246653880289
 20
289.2333359736986
 30
0.0
 10
147.2935071788884
 20
289.2760551577157
 30
0.0
 10
147.2935071788884
 20
289.334621780965
 30
0.0
 10
147.2935071788884
 20
289.334621780965
 30
0.0
 10
147.2935071788884
 20
295.3346000780761
 30
0.0
 10
147.2935071788884
 20
295.3346000780761
 30
0.0
 10
147.2935071788884
 20
295.3893770962916
 30
0.0
 10
147.2507879948713
 20
295.436230394891
 30
0.0
 10
147.1922213716221
 20
295.436230394891
 30
0.0
 10
147.1922213716221
 20
295.436230394891
 30
0.0
 10
144.1922322230665
 20
295.436230394891
 30
0.0
 10
144.1922322230665
 20
295.436230394891
 30
0.0
 10
144.2466647317335
 20
295.436230394891
 30
0.0
 10
144.2935180303329
 20
295.3935112108738
 30
0.0
 10
144.2935180303329
 20
295.3346000780761
 30
0.0
 10
144.2935180303329
 20
295.3346000780761
 30
0.0
 10
144.2935180303329
 20
301.3349228847357
 30
0.0
 10
144.2935180303329
 20
301.3349228847357
 30
0.0
 10
144.2935180303329
 20
301.2804903760688
 30
0.0
 10
144.2507988463158
 20
301.2332925679208
 30
0.0
 10
144.1922322230665
 20
301.2332925679208
 30
0.0
 10
144.1922322230665
 20
301.2332925679208
 30
0.0
 10
147.1922213716221
 20
301.2332925679208
 30
0.0
 10
147.1922213716221
 20
301.2332925679208
 30
0.0
 10
147.246653880289
 20
301.2332925679208
 30
0.0
 10
147.2935071788884
 20
301.276011751938
 30
0.0
 10
147.2935071788884
 20
301.3349228847357
 30
0.0
 10
147.2935071788884
 20
301.3349228847357
 30
0.0
 10
147.2935071788884
 20
307.3349011818468
 30
0.0
 10
147.2935071788884
 20
307.3349011818468
 30
0.0
 10
147.2935071788884
 20
307.3889891809653
 30
0.0
 10
147.2507879948713
 20
307.4358424795647
 30
0.0
 10
147.1922213716221
 20
307.4358424795647
 30
0.0
 10
147.1922213716221
 20
307.4358424795647
 30
0.0
 10
144.1922322230665
 20
307.4358424795647
 30
0.0
 10
144.1922322230665
 20
307.4358424795647
 30
0.0
 10
144.2466647317335
 20
307.4358424795647
 30
0.0
 10
144.2935180303329
 20
307.3934678050961
 30
0.0
 10
144.2935180303329
 20
307.3349011818468
 30
0.0
 10
144.2935180303329
 20
307.3349011818468
 30
0.0
 10
144.2935180303329
 20
313.334879478958
 30
0.0
 10
144.2935180303329
 20
313.334879478958
 30
0.0
 10
144.2935180303329
 20
313.2801024607425
 30
0.0
 10
144.2507988463158
 20
313.2332491621431
 30
0.0
 10
144.1922322230665
 20
313.2332491621431
 30
0.0
 10
144.1922322230665
 20
313.2332491621431
 30
0.0
 10
147.1922213716221
 20
313.2332491621431
 30
0.0
 10
147.1922213716221
 20
313.2332491621431
 30
0.0
 10
147.246653880289
 20
313.2332491621431
 30
0.0
 10
147.2935071788884
 20
313.2763128557087
 30
0.0
 10
147.2935071788884
 20
313.334879478958
 30
0.0
 10
147.2935071788884
 20
313.334879478958
 30
0.0
 10
147.2935071788884
 20
319.3348577760691
 30
0.0
 10
147.2935071788884
 20
319.3348577760691
 30
0.0
 10
147.2935071788884
 20
319.389290284736
 30
0.0
 10
147.2507879948713
 20
319.436488092884
 30
0.0
 10
147.1922213716221
 20
319.436488092884
 30
0.0
 10
147.1922213716221
 20
319.436488092884
 30
0.0
 10
144.1922322230665
 20
319.436488092884
 30
0.0
 10
144.1922322230665
 20
319.436488092884
 30
0.0
 10
144.2466647317335
 20
319.436488092884
 30
0.0
 10
144.2935180303329
 20
319.3934243993183
 30
0.0
 10
144.2935180303329
 20
319.3348577760691
 30
0.0
 10
144.2935180303329
 20
319.3348577760691
 30
0.0
 10
144.2935180303329
 20
325.3348360731802
 30
0.0
 10
144.2935180303329
 20
325.3348360731802
 30
0.0
 10
144.2935180303329
 20
325.2800590549647
 30
0.0
 10
144.2507988463158
 20
325.2332057563654
 30
0.0
 10
144.1922322230665
 20
325.2332057563654
 30
0.0
 10
144.1922322230665
 20
325.2332057563654
 30
0.0
 10
147.1922213716221
 20
325.2332057563654
 30
0.0
 10
147.1922213716221
 20
325.2332057563654
 30
0.0
 10
147.246653880289
 20
325.2332057563654
 30
0.0
 10
147.2935071788884
 20
325.276269449931
 30
0.0
 10
147.2935071788884
 20
325.3348360731802
 30
0.0
 10
147.2935071788884
 20
325.3348360731802
 30
0.0
 10
147.2935071788884
 20
331.3348143702913
 30
0.0
 10
147.2935071788884
 20
331.3348143702913
 30
0.0
 10
147.2935071788884
 20
331.3895913885068
 30
0.0
 10
147.2507879948713
 20
331.4364446871062
 30
0.0
 10
147.1922213716221
 20
331.4364446871062
 30
0.0
 10
147.1922213716221
 20
331.4364446871062
 30
0.0
 10
144.1922322230665
 20
331.4364446871062
 30
0.0
 10
144.1922322230665
 20
331.4364446871062
 30
0.0
 10
144.2466647317335
 20
331.4364446871062
 30
0.0
 10
144.2935180303329
 20
331.3933809935406
 30
0.0
 10
144.2935180303329
 20
331.3348143702913
 30
0.0
 10
144.2935180303329
 20
331.3348143702913
 30
0.0
 10
144.2935180303329
 20
337.3347926674024
 30
0.0
 10
144.2935180303329
 20
337.3347926674024
 30
0.0
 10
144.2935180303329
 20
337.3895696856179
 30
0.0
 10
144.2507988463158
 20
337.4364229842173
 30
0.0
 10
144.1922322230665
 20
337.4364229842173
 30
0.0
 10
144.1922322230665
 20
337.4364229842173
 30
0.0
 10
144.1922322230665
 20
337.4364229842173
 30
0.0
 10
144.1922322230665
 20
337.4364229842173
 30
0.0
 10
144.1922322230665
 20
337.4364229842173
 30
0.0
 10
138.1922539259554
 20
337.4364229842173
 30
0.0
 10
138.1922539259554
 20
337.4364229842173
 30
0.0
 10
138.2466864346224
 20
337.4364229842173
 30
0.0
 10
138.2935397332218
 20
337.3933592906517
 30
0.0
 10
138.2935397332218
 20
337.3347926674024
 30
0.0
 10
138.2935397332218
 20
337.3347926674024
 30
0.0
 10
138.2935397332218
 20
340.3351263255065
 30
0.0
 10
138.2935397332218
 20
340.3351263255065
 30
0.0
 10
138.2935397332218
 20
340.3895588341734
 30
0.0
 10
138.2508205492047
 20
340.4364121327728
 30
0.0
 10
138.1922539259554
 20
340.4364121327728
 30
0.0
 10
138.1922539259554
 20
340.4364121327728
 30
0.0
 10
132.1922756288443
 20
340.4364121327728
 30
0.0
 10
132.1922756288443
 20
340.4364121327728
 30
0.0
 10
132.1378431201773
 20
340.4364121327728
 30
0.0
 10
132.0903008024809
 20
340.3936929487558
 30
0.0
 10
132.0903008024809
 20
340.3351263255065
 30
0.0
 10
132.0903008024809
 20
340.3351263255065
 30
0.0
 10
132.0903008024809
 20
337.3347926674024
 30
0.0
 10
132.0903008024809
 20
337.3347926674024
 30
0.0
 10
132.0903008024809
 20
337.3895696856179
 30
0.0
 10
132.1337090055951
 20
337.4364229842173
 30
0.0
 10
132.1922756288443
 20
337.4364229842173
 30
0.0
 10
132.1922756288443
 20
337.4364229842173
 30
0.0
 10
126.1922973317332
 20
337.4364229842173
 30
0.0
 10
126.1922973317332
 20
337.4364229842173
 30
0.0
 10
126.2463853308516
 20
337.4364229842173
 30
0.0
 10
126.2935831389995
 20
337.3933592906517
 30
0.0
 10
126.2935831389995
 20
337.3347926674024
 30
0.0
 10
126.2935831389995
 20
337.3347926674024
 30
0.0
 10
126.2935831389995
 20
340.3351263255065
 30
0.0
 10
126.2935831389995
 20
340.3351263255065
 30
0.0
 10
126.2935831389995
 20
340.3895588341734
 30
0.0
 10
126.2508639549824
 20
340.4364121327728
 30
0.0
 10
126.1922973317332
 20
340.4364121327728
 30
0.0
 10
126.1922973317332
 20
340.4364121327728
 30
0.0
 10
120.1919745250735
 20
340.4364121327728
 30
0.0
 10
120.1919745250735
 20
340.4364121327728
 30
0.0
 10
120.1371975068581
 20
340.4364121327728
 30
0.0
 10
120.0903442082587
 20
340.3936929487558
 30
0.0
 10
120.0903442082587
 20
340.3351263255065
 30
0.0
 10
120.0903442082587
 20
340.3351263255065
 30
0.0
 10
120.0903442082587
 20
337.3347926674024
 30
0.0
 10
120.0903442082587
 20
337.3347926674024
 30
0.0
 10
120.0903442082587
 20
337.3895696856179
 30
0.0
 10
120.1334079018243
 20
337.4364229842173
 30
0.0
 10
120.1919745250735
 20
337.4364229842173
 30
0.0
 10
120.1919745250735
 20
337.4364229842173
 30
0.0
 10
114.1919962279624
 20
337.4364229842173
 30
0.0
 10
114.1919962279624
 20
337.4364229842173
 30
0.0
 10
114.2464287366294
 20
337.4364229842173
 30
0.0
 10
114.2932820352288
 20
337.3933592906517
 30
0.0
 10
114.2932820352288
 20
337.3347926674024
 30
0.0
 10
114.2932820352288
 20
337.3347926674024
 30
0.0
 10
114.2932820352288
 20
340.3351263255065
 30
0.0
 10
114.2932820352288
 20
340.3351263255065
 30
0.0
 10
114.2932820352288
 20
340.3895588341734
 30
0.0
 10
114.2505628512117
 20
340.4364121327728
 30
0.0
 10
114.1919962279624
 20
340.4364121327728
 30
0.0
 10
114.1919962279624
 20
340.4364121327728
 30
0.0
 10
108.1920179308513
 20
340.4364121327728
 30
0.0
 10
108.1920179308513
 20
340.4364121327728
 30
0.0
 10
108.1368964030873
 20
340.4364121327728
 30
0.0
 10
108.0900431044879
 20
340.3936929487558
 30
0.0
 10
108.0900431044879
 20
340.3351263255065
 30
0.0
 10
108.0900431044879
 20
340.3351263255065
 30
0.0
 10
108.0900431044879
 20
337.3347926674024
 30
0.0
 10
108.0900431044879
 20
337.3347926674024
 30
0.0
 10
108.0900431044879
 20
337.3895696856179
 30
0.0
 10
108.1334513076021
 20
337.4364229842173
 30
0.0
 10
108.1920179308513
 20
337.4364229842173
 30
0.0
 10
108.1920179308513
 20
337.4364229842173
 30
0.0
 10
102.1920396337402
 20
337.4364229842173
 30
0.0
 10
102.1920396337402
 20
337.4364229842173
 30
0.0
 10
102.2462998876329
 20
337.4364229842173
 30
0.0
 10
102.2933254410065
 20
337.3933592906517
 30
0.0
 10
102.2933254410065
 20
337.3347926674024
 30
0.0
 10
102.2933254410065
 20
337.3347926674024
 30
0.0
 10
102.2933254410065
 20
340.3351263255065
 30
0.0
 10
102.2933254410065
 20
340.3351263255065
 30
0.0
 10
102.2933254410065
 20
340.3895588341734
 30
0.0
 10
102.2506062569894
 20
340.4364121327728
 30
0.0
 10
102.1920396337402
 20
340.4364121327728
 30
0.0
 10
102.1920396337402
 20
340.4364121327728
 30
0.0
 10
96.19188908185481
 20
340.4364121327728
 30
0.0
 10
96.19188908185481
 20
340.4364121327728
 30
0.0
 10
96.13693980886508
 20
340.4364121327728
 30
0.0
 10
96.09008651026568
 20
340.3936929487558
 30
0.0
 10
96.09008651026568
 20
340.3351263255065
 30
0.0
 10
96.09008651026568
 20
340.3351263255065
 30
0.0
 10
96.09008651026568
 20
337.3347926674024
 30
0.0
 10
96.09008651026568
 20
337.3347926674024
 30
0.0
 10
96.09008651026568
 20
337.3895696856179
 30
0.0
 10
96.13332245860556
 20
337.4364229842173
 30
0.0
 10
96.19188908185481
 20
337.4364229842173
 30
0.0
 10
96.19188908185481
 20
337.4364229842173
 30
0.0
 10
90.1919107847437
 20
337.4364229842173
 30
0.0
 10
90.1919107847437
 20
337.4364229842173
 30
0.0
 10
90.24617103863638
 20
337.4364229842173
 30
0.0
 10
90.29319659201003
 20
337.3933592906517
 30
0.0
 10
90.29319659201003
 20
337.3347926674024
 30
0.0
 10
90.29319659201003
 20
337.3347926674024
 30
0.0
 10
90.29319659201003
 20
340.3351263255065
 30
0.0
 10
90.29319659201003
 20
340.3351263255065
 30
0.0
 10
90.29319659201003
 20
340.3895588341734
 30
0.0
 10
90.25047740799295
 20
340.4364121327728
 30
0.0
 10
90.1919107847437
 20
340.4364121327728
 30
0.0
 10
90.1919107847437
 20
340.4364121327728
 30
0.0
 10
84.19158797808406
 20
340.4364121327728
 30
0.0
 10
84.19158797808406
 20
340.4364121327728
 30
0.0
 10
84.13715546941711
 20
340.4364121327728
 30
0.0
 10
84.09030217081771
 20
340.3936929487558
 30
0.0
 10
84.09030217081771
 20
340.3351263255065
 30
0.0
 10
84.09030217081771
 20
340.3351263255065
 30
0.0
 10
84.09030217081771
 20
337.3347926674024
 30
0.0
 10
84.09030217081771
 20
337.3347926674024
 30
0.0
 10
84.09030217081771
 20
337.3895696856179
 30
0.0
 10
84.13302135483481
 20
337.4364229842173
 30
0.0
 10
84.19158797808406
 20
337.4364229842173
 30
0.0
 10
84.19158797808406
 20
337.4364229842173
 30
0.0
 10
78.19143742619868
 20
337.4364229842173
 30
0.0
 10
78.19143742619868
 20
337.4364229842173
 30
0.0
 10
78.24586993486562
 20
337.4364229842173
 30
0.0
 10
78.29341225256206
 20
337.3933592906517
 30
0.0
 10
78.29341225256206
 20
337.3347926674024
 30
0.0
 10
78.29341225256206
 20
337.3347926674024
 30
0.0
 10
78.29341225256206
 20
340.3351263255065
 30
0.0
 10
78.29341225256206
 20
340.3351263255065
 30
0.0
 10
78.29341225256206
 20
340.3895588341734
 30
0.0
 10
78.25000404944792
 20
340.4364121327728
 30
0.0
 10
78.19143742619868
 20
340.4364121327728
 30
0.0
 10
78.19143742619868
 20
340.4364121327728
 30
0.0
 10
72.19145912908756
 20
340.4364121327728
 30
0.0
 10
72.19145912908756
 20
340.4364121327728
 30
0.0
 10
72.13702662042061
 20
340.4364121327728
 30
0.0
 10
72.09017332182121
 20
340.3936929487558
 30
0.0
 10
72.09017332182121
 20
340.3351263255065
 30
0.0
 10
72.09017332182121
 20
340.3351263255065
 30
0.0
 10
72.09017332182121
 20
337.3347926674024
 30
0.0
 10
72.09017332182121
 20
337.3347926674024
 30
0.0
 10
72.09017332182121
 20
337.3895696856179
 30
0.0
 10
72.13289250583831
 20
337.4364229842173
 30
0.0
 10
72.19145912908756
 20
337.4364229842173
 30
0.0
 10
72.19145912908756
 20
337.4364229842173
 30
0.0
 10
66.19148083197643
 20
337.4364229842173
 30
0.0
 10
66.19148083197643
 20
337.4364229842173
 30
0.0
 10
66.24574108586913
 20
337.4364229842173
 30
0.0
 10
66.29259438446852
 20
337.3933592906517
 30
0.0
 10
66.29259438446852
 20
337.3347926674024
 30
0.0
 10
66.29259438446852
 20
337.3347926674024
 30
0.0
 10
66.29259438446852
 20
340.3351263255065
 30
0.0
 10
66.29259438446852
 20
340.3351263255065
 30
0.0
 10
66.29259438446852
 20
340.3895588341734
 30
0.0
 10
66.25004745522568
 20
340.4364121327728
 30
0.0
 10
66.19148083197643
 20
340.4364121327728
 30
0.0
 10
66.19148083197643
 20
340.4364121327728
 30
0.0
 10
60.19167478963958
 20
340.4364121327728
 30
0.0
 10
60.19167478963958
 20
340.4364121327728
 30
0.0
 10
60.13707002619837
 20
340.4364121327728
 30
0.0
 10
60.09004447282472
 20
340.3936929487558
 30
0.0
 10
60.09004447282472
 20
340.3351263255065
 30
0.0
 10
60.09004447282472
 20
340.3351263255065
 30
0.0
 10
60.09004447282472
 20
337.3347926674024
 30
0.0
 10
60.09004447282472
 20
337.3347926674024
 30
0.0
 10
60.09004447282472
 20
337.3895696856179
 30
0.0
 10
60.13276365684181
 20
337.4364229842173
 30
0.0
 10
60.19167478963958
 20
337.4364229842173
 30
0.0
 10
60.19167478963958
 20
337.4364229842173
 30
0.0
 10
54.19135198297995
 20
337.4364229842173
 30
0.0
 10
54.19135198297995
 20
337.4364229842173
 30
0.0
 10
54.24595674642115
 20
337.4364229842173
 30
0.0
 10
54.29281004502055
 20
337.3933592906517
 30
0.0
 10
54.29281004502055
 20
337.3347926674024
 30
0.0
 10
54.29281004502055
 20
337.3347926674024
 30
0.0
 10
54.29281004502055
 20
340.3351263255065
 30
0.0
 10
54.29281004502055
 20
340.3351263255065
 30
0.0
 10
54.29281004502055
 20
340.3895588341734
 30
0.0
 10
54.25026311577771
 20
340.4364121327728
 30
0.0
 10
54.19135198297995
 20
340.4364121327728
 30
0.0
 10
54.19135198297995
 20
340.4364121327728
 30
0.0
 10
48.19120143109456
 20
340.4364121327728
 30
0.0
 10
48.19120143109456
 20
340.4364121327728
 30
0.0
 10
48.13694117720188
 20
340.4364121327728
 30
0.0
 10
48.09008787860248
 20
340.3936929487558
 30
0.0
 10
48.09008787860248
 20
340.3351263255065
 30
0.0
 10
48.09008787860248
 20
340.3351263255065
 30
0.0
 10
48.09008787860248
 20
337.3347926674024
 30
0.0
 10
48.09008787860248
 20
337.3347926674024
 30
0.0
 10
48.09008787860248
 20
337.3895696856179
 30
0.0
 10
48.13263480784531
 20
337.4364229842173
 30
0.0
 10
48.19120143109456
 20
337.4364229842173
 30
0.0
 10
48.19120143109456
 20
337.4364229842173
 30
0.0
 10
42.19122313398345
 20
337.4364229842173
 30
0.0
 10
42.19122313398345
 20
337.4364229842173
 30
0.0
 10
42.24582789742465
 20
337.4364229842173
 30
0.0
 10
42.29285345079832
 20
337.3933592906517
 30
0.0
 10
42.29285345079832
 20
337.3347926674024
 30
0.0
 10
42.29285345079832
 20
337.3347926674024
 30
0.0
 10
42.29285345079832
 20
340.3351263255065
 30
0.0
 10
42.29285345079832
 20
340.3351263255065
 30
0.0
 10
42.29285345079832
 20
340.3895588341734
 30
0.0
 10
42.24978975723269
 20
340.4364121327728
 30
0.0
 10
42.19122313398345
 20
340.4364121327728
 30
0.0
 10
42.19122313398345
 20
340.4364121327728
 30
0.0
 10
36.19124483687233
 20
340.4364121327728
 30
0.0
 10
36.19124483687233
 20
340.4364121327728
 30
0.0
 10
36.13681232820538
 20
340.4364121327728
 30
0.0
 10
36.08995902960599
 20
340.3936929487558
 30
0.0
 10
36.08995902960599
 20
340.3351263255065
 30
0.0
 10
36.08995902960599
 20
340.3351263255065
 30
0.0
 10
36.08995902960599
 20
337.3347926674024
 30
0.0
 10
36.08995902960599
 20
337.3347926674024
 30
0.0
 10
36.08995902960599
 20
337.3895696856179
 30
0.0
 10
36.13267821362308
 20
337.4364229842173
 30
0.0
 10
36.19124483687233
 20
337.4364229842173
 30
0.0
 10
36.19124483687233
 20
337.4364229842173
 30
0.0
 10
30.19109428498695
 20
337.4364229842173
 30
0.0
 10
30.19109428498695
 20
337.4364229842173
 30
0.0
 10
30.13683403109426
 20
337.4364229842173
 30
0.0
 10
30.08946396817208
 20
337.3933592906517
 30
0.0
 10
30.08946396817208
 20
337.3347926674024
 30
0.0
 10
30.08946396817208
 20
337.3347926674024
 30
0.0
 10
30.08946396817208
 20
337.3347926674024
 30
0.0
 10
30.08946396817208
 20
337.3347926674024
 30
0.0
 10
30.08946396817208
 20
337.3347926674024
 30
0.0
 10
30.08946396817208
 20
331.3348143702913
 30
0.0
 10
30.08946396817208
 20
331.3348143702913
 30
0.0
 10
30.08946396817208
 20
331.3895913885068
 30
0.0
 10
30.1325276617377
 20
331.4364446871062
 30
0.0
 10
30.19109428498695
 20
331.4364446871062
 30
0.0
 10
30.19109428498695
 20
331.4364446871062
 30
0.0
 10
27.19110513643139
 20
331.4364446871062
 30
0.0
 10
27.19110513643139
 20
331.4364446871062
 30
0.0
 10
27.13650037299018
 20
331.4364446871062
 30
0.0
 10
27.08947481961652
 20
331.3933809935406
 30
0.0
 10
27.08947481961652
 20
331.3348143702913
 30
0.0
 10
27.08947481961652
 20
331.3348143702913
 30
0.0
 10
27.08947481961652
 20
325.3348360731802
 30
0.0
 10
27.08947481961652
 20
325.3348360731802
 30
0.0
 10
27.08947481961652
 20
325.2800590549647
 30
0.0
 10
27.13253851318214
 20
325.2332057563654
 30
0.0
 10
27.19110513643139
 20
325.2332057563654
 30
0.0
 10
27.19110513643139
 20
325.2332057563654
 30
0.0
 10
30.19109428498695
 20
325.2332057563654
 30
0.0
 10
30.19109428498695
 20
325.2332057563654
 30
0.0
 10
30.13683403109426
 20
325.2332057563654
 30
0.0
 10
30.08946396817208
 20
325.276269449931
 30
0.0
 10
30.08946396817208
 20
325.3348360731802
 30
0.0
 10
30.08946396817208
 20
325.3348360731802
 30
0.0
 10
30.08946396817208
 20
319.3348577760691
 30
0.0
 10
30.08946396817208
 20
319.3348577760691
 30
0.0
 10
30.08946396817208
 20
319.389290284736
 30
0.0
 10
30.1325276617377
 20
319.436488092884
 30
0.0
 10
30.19109428498695
 20
319.436488092884
 30
0.0
 10
30.19109428498695
 20
319.436488092884
 30
0.0
 10
27.19110513643139
 20
319.436488092884
 30
0.0
 10
27.19110513643139
 20
319.436488092884
 30
0.0
 10
27.13650037299018
 20
319.436488092884
 30
0.0
 10
27.08947481961652
 20
319.3934243993183
 30
0.0
 10
27.08947481961652
 20
319.3348577760691
 30
0.0
 10
27.08947481961652
 20
319.3348577760691
 30
0.0
 10
27.08947481961652
 20
313.334879478958
 30
0.0
 10
27.08947481961652
 20
313.334879478958
 30
0.0
 10
27.08947481961652
 20
313.2801024607425
 30
0.0
 10
27.13253851318214
 20
313.2332491621431
 30
0.0
 10
27.19110513643139
 20
313.2332491621431
 30
0.0
 10
27.19110513643139
 20
313.2332491621431
 30
0.0
 10
30.19109428498695
 20
313.2332491621431
 30
0.0
 10
30.19109428498695
 20
313.2332491621431
 30
0.0
 10
30.13683403109426
 20
313.2332491621431
 30
0.0
 10
30.08946396817208
 20
313.2763128557087
 30
0.0
 10
30.08946396817208
 20
313.334879478958
 30
0.0
 10
30.08946396817208
 20
313.334879478958
 30
0.0
 10
30.08946396817208
 20
307.3349011818468
 30
0.0
 10
30.08946396817208
 20
307.3349011818468
 30
0.0
 10
30.08946396817208
 20
307.3889891809653
 30
0.0
 10
30.1325276617377
 20
307.4358424795647
 30
0.0
 10
30.19109428498695
 20
307.4358424795647
 30
0.0
 10
30.19109428498695
 20
307.4358424795647
 30
0.0
 10
27.19110513643139
 20
307.4358424795647
 30
0.0
 10
27.19110513643139
 20
307.4358424795647
 30
0.0
 10
27.13650037299018
 20
307.4358424795647
 30
0.0
 10
27.08947481961652
 20
307.3934678050961
 30
0.0
 10
27.08947481961652
 20
307.3349011818468
 30
0.0
 10
27.08947481961652
 20
307.3349011818468
 30
0.0
 10
27.08947481961652
 20
301.3345783751872
 30
0.0
 10
27.08947481961652
 20
301.3345783751872
 30
0.0
 10
27.08947481961652
 20
301.2801458665202
 30
0.0
 10
27.13253851318214
 20
301.2329480583724
 30
0.0
 10
27.19110513643139
 20
301.2329480583724
 30
0.0
 10
27.19110513643139
 20
301.2329480583724
 30
0.0
 10
30.19109428498695
 20
301.2329480583724
 30
0.0
 10
30.19109428498695
 20
301.2329480583724
 30
0.0
 10
30.13683403109426
 20
301.2329480583724
 30
0.0
 10
30.08946396817208
 20
301.2756672423894
 30
0.0
 10
30.08946396817208
 20
301.3345783751872
 30
0.0
 10
30.08946396817208
 20
301.3345783751872
 30
0.0
 10
30.08946396817208
 20
295.3342555685276
 30
0.0
 10
30.08946396817208
 20
295.3342555685276
 30
0.0
 10
30.08946396817208
 20
295.389032586743
 30
0.0
 10
30.1325276617377
 20
295.4358858853424
 30
0.0
 10
30.19109428498695
 20
295.4358858853424
 30
0.0
 10
30.19109428498695
 20
295.4358858853424
 30
0.0
 10
27.19110513643139
 20
295.4358858853424
 30
0.0
 10
27.19110513643139
 20
295.4358858853424
 30
0.0
 10
27.13650037299018
 20
295.4358858853424
 30
0.0
 10
27.08947481961652
 20
295.3931667013254
 30
0.0
 10
27.08947481961652
 20
295.3342555685276
 30
0.0
 10
27.08947481961652
 20
295.3342555685276
 30
0.0
 10
27.08947481961652
 20
289.3342772714165
 30
0.0
 10
27.08947481961652
 20
289.3342772714165
 30
0.0
 10
27.08947481961652
 20
289.2798447627495
 30
0.0
 10
27.13253851318214
 20
289.2329914641501
 30
0.0
 10
27.19110513643139
 20
289.2329914641501
 30
0.0
 10
27.19110513643139
 20
289.2329914641501
 30
0.0
 10
30.19109428498695
 20
289.2329914641501
 30
0.0
 10
30.19109428498695
 20
289.2329914641501
 30
0.0
 10
30.13683403109426
 20
289.2329914641501
 30
0.0
 10
30.08946396817208
 20
289.2757106481672
 30
0.0
 10
30.08946396817208
 20
289.3342772714165
 30
0.0
 10
30.08946396817208
 20
289.3342772714165
 30
0.0
 10
30.08946396817208
 20
283.3342989743053
 30
0.0
 10
30.08946396817208
 20
283.3342989743053
 30
0.0
 10
30.08946396817208
 20
283.3887314829723
 30
0.0
 10
30.1325276617377
 20
283.4359292911202
 30
0.0
 10
30.19109428498695
 20
283.4359292911202
 30
0.0
 10
30.19109428498695
 20
283.4359292911202
 30
0.0
 10
27.19110513643139
 20
283.4359292911202
 30
0.0
 10
27.19110513643139
 20
283.4359292911202
 30
0.0
 10
27.13650037299018
 20
283.4359292911202
 30
0.0
 10
27.08947481961652
 20
283.3928655975546
 30
0.0
 10
27.08947481961652
 20
283.3342989743053
 30
0.0
 10
27.08947481961652
 20
283.3342989743053
 30
0.0
 10
27.08947481961652
 20
277.3343206771942
 30
0.0
 10
27.08947481961652
 20
277.3343206771942
 30
0.0
 10
27.08947481961652
 20
277.2798881685272
 30
0.0
 10
27.13253851318214
 20
277.2326903603794
 30
0.0
 10
27.19110513643139
 20
277.2326903603794
 30
0.0
 10
27.19110513643139
 20
277.2326903603794
 30
0.0
 10
30.19109428498695
 20
277.2326903603794
 30
0.0
 10
30.19109428498695
 20
277.2326903603794
 30
0.0
 10
30.13683403109426
 20
277.2326903603794
 30
0.0
 10
30.08946396817208
 20
277.275754053945
 30
0.0
 10
30.08946396817208
 20
277.3343206771942
 30
0.0
 10
30.08946396817208
 20
277.3343206771942
 30
0.0
 10
30.08946396817208
 20
271.3339978705346
 30
0.0
 10
30.08946396817208
 20
271.3339978705346
 30
0.0
 10
30.08946396817208
 20
271.38877488875
 30
0.0
 10
30.1325276617377
 20
271.4356281873494
 30
0.0
 10
30.19109428498695
 20
271.4356281873494
 30
0.0
 10
30.19109428498695
 20
271.4356281873494
 30
0.0
 10
27.19110513643139
 20
271.4356281873494
 30
0.0
 10
27.19110513643139
 20
271.4356281873494
 30
0.0
 10
27.13650037299018
 20
271.4356281873494
 30
0.0
 10
27.08947481961652
 20
271.3925644937838
 30
0.0
 10
27.08947481961652
 20
271.3339978705346
 30
0.0
 10
27.08947481961652
 20
271.3339978705346
 30
0.0
 10
27.08947481961652
 20
265.3340195734235
 30
0.0
 10
27.08947481961652
 20
265.3340195734235
 30
0.0
 10
27.08947481961652
 20
265.279242555208
 30
0.0
 10
27.13253851318214
 20
265.2323892566086
 30
0.0
 10
27.19110513643139
 20
265.2323892566086
 30
0.0
 10
27.19110513643139
 20
265.2323892566086
 30
0.0
 10
30.19109428498695
 20
265.2323892566086
 30
0.0
 10
30.19109428498695
 20
265.2323892566086
 30
0.0
 10
30.13683403109426
 20
265.2323892566086
 30
0.0
 10
30.08946396817208
 20
265.2754529501742
 30
0.0
 10
30.08946396817208
 20
265.3340195734235
 30
0.0
 10
30.08946396817208
 20
265.3340195734235
 30
0.0
 10
30.08946396817208
 20
259.3340412763123
 30
0.0
 10
30.08946396817208
 20
259.3340412763123
 30
0.0
 10
30.08946396817208
 20
259.3888182945278
 30
0.0
 10
30.1325276617377
 20
259.4356715931272
 30
0.0
 10
30.19109428498695
 20
259.4356715931272
 30
0.0
 10
30.19109428498695
 20
259.4356715931272
 30
0.0
 10
27.19110513643139
 20
259.4356715931272
 30
0.0
 10
27.19110513643139
 20
259.4356715931272
 30
0.0
 10
27.13650037299018
 20
259.4356715931272
 30
0.0
 10
27.08947481961652
 20
259.3926078995616
 30
0.0
 10
27.08947481961652
 20
259.3340412763123
 30
0.0
 10
27.08947481961652
 20
259.3340412763123
 30
0.0
 10
27.08947481961652
 20
253.3340629792012
 30
0.0
 10
27.08947481961652
 20
253.3340629792012
 30
0.0
 10
27.08947481961652
 20
253.2792859609857
 30
0.0
 10
27.13253851318214
 20
253.2324326623863
 30
0.0
 10
27.19110513643139
 20
253.2324326623863
 30
0.0
 10
27.19110513643139
 20
253.2324326623863
 30
0.0
 10
30.19109428498695
 20
253.2324326623863
 30
0.0
 10
30.19109428498695
 20
253.2324326623863
 30
0.0
 10
30.13683403109426
 20
253.2324326623863
 30
0.0
 10
30.08946396817208
 20
253.275496355952
 30
0.0
 10
30.08946396817208
 20
253.3340629792012
 30
0.0
 10
30.08946396817208
 20
253.3340629792012
 30
0.0
 10
30.08946396817208
 20
247.3337401725416
 30
0.0
 10
30.08946396817208
 20
247.3337401725416
 30
0.0
 10
30.08946396817208
 20
247.3885171907571
 30
0.0
 10
30.1325276617377
 20
247.4353704893564
 30
0.0
 10
30.19109428498695
 20
247.4353704893564
 30
0.0
 10
30.19109428498695
 20
247.4353704893564
 30
0.0
 10
27.19110513643139
 20
247.4353704893564
 30
0.0
 10
27.19110513643139
 20
247.4353704893564
 30
0.0
 10
27.13650037299018
 20
247.4353704893564
 30
0.0
 10
27.08947481961652
 20
247.3923067957908
 30
0.0
 10
27.08947481961652
 20
247.3337401725416
 30
0.0
 10
27.08947481961652
 20
247.3337401725416
 30
0.0
 10
27.08947481961652
 20
241.3337618754305
 30
0.0
 10
27.08947481961652
 20
241.3337618754305
 30
0.0
 10
27.08947481961652
 20
241.2793293667635
 30
0.0
 10
27.13253851318214
 20
241.2321315586156
 30
0.0
 10
27.19110513643139
 20
241.2321315586156
 30
0.0
 10
27.19110513643139
 20
241.2321315586156
 30
0.0
 10
30.19109428498695
 20
241.2321315586156
 30
0.0
 10
30.19109428498695
 20
241.2321315586156
 30
0.0
 10
30.13683403109426
 20
241.2321315586156
 30
0.0
 10
30.08946396817208
 20
241.2751952521812
 30
0.0
 10
30.08946396817208
 20
241.3337618754305
 30
0.0
 10
30.08946396817208
 20
241.3337618754305
 30
0.0
 10
30.08946396817208
 20
235.3337835783194
 30
0.0
 10
30.08946396817208
 20
235.3337835783194
 30
0.0
 10
30.08946396817208
 20
235.3882160869863
 30
0.0
 10
30.1325276617377
 20
235.4350693855857
 30
0.0
 10
30.19109428498695
 20
235.4350693855857
 30
0.0
 10
30.19109428498695
 20
235.4350693855857
 30
0.0
 10
27.19110513643139
 20
235.4350693855857
 30
0.0
 10
27.19110513643139
 20
235.4350693855857
 30
0.0
 10
27.13650037299018
 20
235.4350693855857
 30
0.0
 10
27.08947481961652
 20
235.3923502015686
 30
0.0
 10
27.08947481961652
 20
235.3337835783194
 30
0.0
 10
27.08947481961652
 20
235.3337835783194
 30
0.0
 10
27.08947481961652
 20
229.3338052812082
 30
0.0
 10
27.08947481961652
 20
229.3338052812082
 30
0.0
 10
27.08947481961652
 20
229.2790282629928
 30
0.0
 10
27.13253851318214
 20
229.2321749643934
 30
0.0
 10
27.19110513643139
 20
229.2321749643934
 30
0.0
 10
27.19110513643139
 20
229.2321749643934
 30
0.0
 10
30.19109428498695
 20
229.2321749643934
 30
0.0
 10
30.19109428498695
 20
229.2321749643934
 30
0.0
 10
30.13683403109426
 20
229.2321749643934
 30
0.0
 10
30.08946396817208
 20
229.2748941484105
 30
0.0
 10
30.08946396817208
 20
229.3338052812082
 30
0.0
 10
30.08946396817208
 20
229.3338052812082
 30
0.0
 10
30.08946396817208
 20
223.3334824745486
 30
0.0
 10
30.08946396817208
 20
223.3334824745486
 30
0.0
 10
30.08946396817208
 20
223.2797389849787
 30
0.0
 10
30.1325276617377
 20
223.2328856863793
 30
0.0
 10
30.19109428498695
 20
223.2328856863793
 30
0.0
 10
30.19109428498695
 20
223.2328856863793
 30
0.0
 10
30.19109428498695
 20
223.2328856863793
 30
0.0
 10
30.19109428498695
 20
223.2328856863793
 30
0.0
  0
SPLINE
  5
46
330
1F
100
AcDbEntity
  8
Calque 1
 62
    18
420
    65793
370
     9
100
AcDbSpline
210
0.0
220
0.0
230
1.0
 70
    11
 71
     3
 72
    17
 73
    13
 74
     0
 42
0.0000000001
 43
0.0000000001
 40
0.0
 40
0.0
 40
0.0
 40
0.0
 40
1.0
 40
1.0
 40
1.0
 40
2.0
 40
2.0
 40
2.0
 40
3.0
 40
3.0
 40
3.0
 40
4.0
 40
4.0
 40
4.0
 40
4.0
 10
214.6942165261876
 20
132.6472004876715
 30
0.0
 10
229.605967824543
 20
132.6472004876715
 30
0.0
 10
241.6948078822846
 20
120.5587049394784
 30
0.0
 10
241.6948078822846
 20
105.646953641123
 30
0.0
 10
241.6948078822846
 20
90.7352023427676
 30
0.0
 10
229.605967824543
 20
78.64670679457444
 30
0.0
 10
214.6942165261876
 20
78.64670679457444
 30
0.0
 10
199.7824652278322
 20
78.64670679457444
 30
0.0
 10
187.6943141891875
 20
90.7352023427676
 30
0.0
 10
187.6943141891875
 20
105.646953641123
 30
0.0
 10
187.6943141891875
 20
120.5587049394784
 30
0.0
 10
199.7824652278322
 20
132.6472004876715
 30
0.0
 10
214.6942165261876
 20
132.6472004876715
 30
0.0
  0
INSERT
  5
48
330
1F
100
AcDbEntity
  8
Calque 1
100
AcDbBlockReference
  2
block 2
 10
0.0
 20
0.0
 30
0.0
  0
SPLINE
  5
5A
330
1F
100
AcDbEntity
  8
Calque 1
 62
    18
420
    65793
370
     9
100
AcDbSpline
210
0.0
220
0.0
230
1.0
 70
     8
 71
     3
 72
   311
 73
   307
 74
     0
 42
0.0000000001
 43
0.0000000001
 40
0.0
 40
0.0
 40
0.0
 40
0.0
 40
1.0
 40
1.0
 40
1.0
 40
2.0
 40
2.0
 40
2.0
 40
3.0
 40
3.0
 40
3.0
 40
4.0
 40
4.0
 40
4.0
 40
5.0
 40
5.0
 40
5.0
 40
6.0
 40
6.0
 40
6.0
 40
7.0
 40
7.0
 40
7.0
 40
8.0
 40
8.0
 40
8.0
 40
9.0
 40
9.0
 40
9.0
 40
10.0
 40
10.0
 40
10.0
 40
11.0
 40
11.0
 40
11.0
 40
12.0
 40
12.0
 40
12.0
 40
13.0
 40
13.0
 40
13.0
 40
14.0
 40
14.0
 40
14.0
 40
15.0
 40
15.0
 40
15.0
 40
16.0
 40
16.0
 40
16.0
 40
17.0
 40
17.0
 40
17.0
 40
18.0
 40
18.0
 40
18.0
 40
19.0
 40
19.0
 40
19.0
 40
20.0
 40
20.0
 40
20.0
 40
21.0
 40
21.0
 40
21.0
 40
22.0
 40
22.0
 40
22.0
 40
23.0
 40
23.0
 40
23.0
 40
24.0
 40
24.0
 40
24.0
 40
25.0
 40
25.0
 40
25.0
 40
26.0
 40
26.0
 40
26.0
 40
27.0
 40
27.0
 40
27.0
 40
28.0
 40
28.0
 40
28.0
 40
29.0
 40
29.0
 40
29.0
 40
30.0
 40
30.0
 40
30.0
 40
31.0
 40
31.0
 40
31.0
 40
32.0
 40
32.0
 40
32.0
 40
33.0
 40
33.0
 40
33.0
 40
34.0
 40
34.0
 40
34.0
 40
35.0
 40
35.0
 40
35.0
 40
36.0
 40
36.0
 40
36.0
 40
37.0
 40
37.0
 40
37.0
 40
38.0
 40
38.0
 40
38.0
 40
39.0
 40
39.0
 40
39.0
 40
40.0
 40
40.0
 40
40.0
 40
41.0
 40
41.0
 40
41.0
 40
42.0
 40
42.0
 40
42.0
 40
43.0
 40
43.0
 40
43.0
 40
44.0
 40
44.0
 40
44.0
 40
45.0
 40
45.0
 40
45.0
 40
46.0
 40
46.0
 40
46.0
 40
47.0
 40
47.0
 40
47.0
 40
48.0
 40
48.0
 40
48.0
 40
49.0
 40
49.0
 40
49.0
 40
50.0
 40
50.0
 40
50.0
 40
51.0
 40
51.0
 40
51.0
 40
52.0
 40
52.0
 40
52.0
 40
53.0
 40
53.0
 40
53.0
 40
54.0
 40
54.0
 40
54.0
 40
55.0
 40
55.0
 40
55.0
 40
56.0
 40
56.0
 40
56.0
 40
57.0
 40
57.0
 40
57.0
 40
58.0
 40
58.0
 40
58.0
 40
59.0
 40
59.0
 40
59.0
 40
60.0
 40
60.0
 40
60.0
 40
61.0
 40
61.0
 40
61.0
 40
62.0
 40
62.0
 40
62.0
 40
63.0
 40
63.0
 40
63.0
 40
64.0
 40
64.0
 40
64.0
 40
65.0
 40
65.0
 40
65.0
 40
66.0
 40
66.0
 40
66.0
 40
67.0
 40
67.0
 40
67.0
 40
68.0
 40
68.0
 40
68.0
 40
69.0
 40
69.0
 40
69.0
 40
70.0
 40
70.0
 40
70.0
 40
71.0
 40
71.0
 40
71.0
 40
72.0
 40
72.0
 40
72.0
 40
73.0
 40
73.0
 40
73.0
 40
74.0
 40
74.0
 40
74.0
 40
75.0
 40
75.0
 40
75.0
 40
76.0
 40
76.0
 40
76.0
 40
77.0
 40
77.0
 40
77.0
 40
78.0
 40
78.0
 40
78.0
 40
79.0
 40
79.0
 40
79.0
 40
80.0
 40
80.0
 40
80.0
 40
81.0
 40
81.0
 40
81.0
 40
82.0
 40
82.0
 40
82.0
 40
83.0
 40
83.0
 40
83.0
 40
84.0
 40
84.0
 40
84.0
 40
85.0
 40
85.0
 40
85.0
 40
86.0
 40
86.0
 40
86.0
 40
87.0
 40
87.0
 40
87.0
 40
88.0
 40
88.0
 40
88.0
 40
89.0
 40
89.0
 40
89.0
 40
90.0
 40
90.0
 40
90.0
 40
91.0
 40
91.0
 40
91.0
 40
92.0
 40
92.0
 40
92.0
 40
93.0
 40
93.0
 40
93.0
 40
94.0
 40
94.0
 40
94.0
 40
95.0
 40
95.0
 40
95.0
 40
96.0
 40
96.0
 40
96.0
 40
97.0
 40
97.0
 40
97.0
 40
98.0
 40
98.0
 40
98.0
 40
99.0
 40
99.0
 40
99.0
 40
100.0
 40
100.0
 40
100.0
 40
101.0
 40
101.0
 40
101.0
 40
102.0
 40
102.0
 40
102.0
 40
102.0
 10
270.188503621689
 20
214.5932752284697
 30
0.0
 10
270.188503621689
 20
214.5932752284697
 30
0.0
 10
264.1885253245779
 20
214.5932752284697
 30
0.0
 10
264.1885253245779
 20
214.5932752284697
 30
0.0
 10
264.1340928159109
 20
214.5932752284697
 30
0.0
 10
264.0872395173116
 20
214.5505560444527
 30
0.0
 10
264.0872395173116
 20
214.4919894212034
 30
0.0
 10
264.0872395173116
 20
214.4919894212034
 30
0.0
 10
264.0872395173116
 20
211.4920002726478
 30
0.0
 10
264.0872395173116
 20
211.4920002726478
 30
0.0
 10
264.0872395173116
 20
211.5464327813148
 30
0.0
 10
264.1299587013286
 20
211.5932860799142
 30
0.0
 10
264.1885253245779
 20
211.5932860799142
 30
0.0
 10
264.1885253245779
 20
211.5932860799142
 30
0.0
 10
258.1885470274668
 20
211.5932860799142
 30
0.0
 10
258.1885470274668
 20
211.5932860799142
 30
0.0
 10
258.2429795361337
 20
211.5932860799142
 30
0.0
 10
258.2898328347331
 20
211.5505668958971
 30
0.0
 10
258.2898328347331
 20
211.4920002726478
 30
0.0
 10
258.2898328347331
 20
211.4920002726478
 30
0.0
 10
258.2898328347331
 20
214.4919894212034
 30
0.0
 10
258.2898328347331
 20
214.4919894212034
 30
0.0
 10
258.2898328347331
 20
214.5464219298703
 30
0.0
 10
258.247113650716
 20
214.5932752284697
 30
0.0
 10
258.1885470274668
 20
214.5932752284697
 30
0.0
 10
258.1885470274668
 20
214.5932752284697
 30
0.0
 10
252.1885687303557
 20
214.5932752284697
 30
0.0
 10
252.1885687303557
 20
214.5932752284697
 30
0.0
 10
252.1341362216887
 20
214.5932752284697
 30
0.0
 10
252.0872829230893
 20
214.5505560444527
 30
0.0
 10
252.0872829230893
 20
214.4919894212034
 30
0.0
 10
252.0872829230893
 20
214.4919894212034
 30
0.0
 10
252.0872829230893
 20
211.4920002726478
 30
0.0
 10
252.0872829230893
 20
211.4920002726478
 30
0.0
 10
252.0872829230893
 20
211.5464327813148
 30
0.0
 10
252.1300021071064
 20
211.5932860799142
 30
0.0
 10
252.1885687303557
 20
211.5932860799142
 30
0.0
 10
252.1885687303557
 20
211.5932860799142
 30
0.0
 10
246.1885904332445
 20
211.5932860799142
 30
0.0
 10
246.1885904332445
 20
211.5932860799142
 30
0.0
 10
246.2430229419115
 20
211.5932860799142
 30
0.0
 10
246.2898762405109
 20
211.5505668958971
 30
0.0
 10
246.2898762405109
 20
211.4920002726478
 30
0.0
 10
246.2898762405109
 20
211.4920002726478
 30
0.0
 10
246.2898762405109
 20
214.4919894212034
 30
0.0
 10
246.2898762405109
 20
214.4919894212034
 30
0.0
 10
246.2898762405109
 20
214.5464219298703
 30
0.0
 10
246.2471570564938
 20
214.5932752284697
 30
0.0
 10
246.1885904332445
 20
214.5932752284697
 30
0.0
 10
246.1885904332445
 20
214.5932752284697
 30
0.0
 10
240.1886121361334
 20
214.5932752284697
 30
0.0
 10
240.1886121361334
 20
214.5932752284697
 30
0.0
 10
240.1341796274665
 20
214.5932752284697
 30
0.0
 10
240.0873263288671
 20
214.5505560444527
 30
0.0
 10
240.0873263288671
 20
214.4919894212034
 30
0.0
 10
240.0873263288671
 20
214.4919894212034
 30
0.0
 10
240.0873263288671
 20
211.4920002726478
 30
0.0
 10
240.0873263288671
 20
211.4920002726478
 30
0.0
 10
240.0873263288671
 20
211.5464327813148
 30
0.0
 10
240.1300455128842
 20
211.5932860799142
 30
0.0
 10
240.1886121361334
 20
211.5932860799142
 30
0.0
 10
240.1886121361334
 20
211.5932860799142
 30
0.0
 10
234.1886338390223
 20
211.5932860799142
 30
0.0
 10
234.1886338390223
 20
211.5932860799142
 30
0.0
 10
234.2430663476893
 20
211.5932860799142
 30
0.0
 10
234.2899196462886
 20
211.5505668958971
 30
0.0
 10
234.2899196462886
 20
211.4920002726478
 30
0.0
 10
234.2899196462886
 20
211.4920002726478
 30
0.0
 10
234.2899196462886
 20
214.4919894212034
 30
0.0
 10
234.2899196462886
 20
214.4919894212034
 30
0.0
 10
234.2899196462886
 20
214.5464219298703
 30
0.0
 10
234.2472004622715
 20
214.5932752284697
 30
0.0
 10
234.1886338390223
 20
214.5932752284697
 30
0.0
 10
234.1886338390223
 20
214.5932752284697
 30
0.0
 10
228.1886555419112
 20
214.5932752284697
 30
0.0
 10
228.1886555419112
 20
214.5932752284697
 30
0.0
 10
228.1342230332442
 20
214.5932752284697
 30
0.0
 10
228.0873697346448
 20
214.5505560444527
 30
0.0
 10
228.0873697346448
 20
214.4919894212034
 30
0.0
 10
228.0873697346448
 20
214.4919894212034
 30
0.0
 10
228.0873697346448
 20
211.4920002726478
 30
0.0
 10
228.0873697346448
 20
211.4920002726478
 30
0.0
 10
228.0873697346448
 20
211.5464327813148
 30
0.0
 10
228.1300889186619
 20
211.5932860799142
 30
0.0
 10
228.1886555419112
 20
211.5932860799142
 30
0.0
 10
228.1886555419112
 20
211.5932860799142
 30
0.0
 10
222.1886772448001
 20
211.5932860799142
 30
0.0
 10
222.1886772448001
 20
211.5932860799142
 30
0.0
 10
222.24242073437
 20
211.5932860799142
 30
0.0
 10
222.2892740329694
 20
211.5505668958971
 30
0.0
 10
222.2892740329694
 20
211.4920002726478
 30
0.0
 10
222.2892740329694
 20
211.4920002726478
 30
0.0
 10
222.2892740329694
 20
214.4919894212034
 30
0.0
 10
222.2892740329694
 20
214.4919894212034
 30
0.0
 10
222.2892740329694
 20
214.5464219298703
 30
0.0
 10
222.2472438680493
 20
214.5932752284697
 30
0.0
 10
222.1886772448001
 20
214.5932752284697
 30
0.0
 10
222.1886772448001
 20
214.5932752284697
 30
0.0
 10
216.1880099285919
 20
214.5932752284697
 30
0.0
 10
216.1880099285919
 20
214.5932752284697
 30
0.0
 10
216.133577419925
 20
214.5932752284697
 30
0.0
 10
216.0860351022285
 20
214.5505560444527
 30
0.0
 10
216.0860351022285
 20
214.4919894212034
 30
0.0
 10
216.0860351022285
 20
214.4919894212034
 30
0.0
 10
216.0860351022285
 20
211.4920002726478
 30
0.0
 10
216.0860351022285
 20
211.4920002726478
 30
0.0
 10
216.0860351022285
 20
211.5464327813148
 30
0.0
 10
216.1294433053426
 20
211.5932860799142
 30
0.0
 10
216.1880099285919
 20
211.5932860799142
 30
0.0
 10
216.1880099285919
 20
211.5932860799142
 30
0.0
 10
210.1880316314808
 20
211.5932860799142
 30
0.0
 10
210.1880316314808
 20
211.5932860799142
 30
0.0
 10
210.2431531592448
 20
211.5932860799142
 30
0.0
 10
210.2900064578442
 20
211.5505668958971
 30
0.0
 10
210.2900064578442
 20
211.4920002726478
 30
0.0
 10
210.2900064578442
 20
211.4920002726478
 30
0.0
 10
210.2900064578442
 20
214.4919894212034
 30
0.0
 10
210.2900064578442
 20
214.4919894212034
 30
0.0
 10
210.2900064578442
 20
214.5464219298703
 30
0.0
 10
210.24659825473
 20
214.5932752284697
 30
0.0
 10
210.1880316314808
 20
214.5932752284697
 30
0.0
 10
210.1880316314808
 20
214.5932752284697
 30
0.0
 10
204.1880533343697
 20
214.5932752284697
 30
0.0
 10
204.1880533343697
 20
214.5932752284697
 30
0.0
 10
204.1336208257027
 20
214.5932752284697
 30
0.0
 10
204.0867675271033
 20
214.5505560444527
 30
0.0
 10
204.0867675271033
 20
214.4919894212034
 30
0.0
 10
204.0867675271033
 20
214.4919894212034
 30
0.0
 10
204.0867675271033
 20
211.4920002726478
 30
0.0
 10
204.0867675271033
 20
211.4920002726478
 30
0.0
 10
204.0867675271033
 20
211.5464327813148
 30
0.0
 10
204.1294867111204
 20
211.5932860799142
 30
0.0
 10
204.1880533343697
 20
211.5932860799142
 30
0.0
 10
204.1880533343697
 20
211.5932860799142
 30
0.0
 10
198.1887640563556
 20
211.5932860799142
 30
0.0
 10
198.1887640563556
 20
211.5932860799142
 30
0.0
 10
198.2438855841196
 20
211.5932860799142
 30
0.0
 10
198.290738882719
 20
211.5505668958971
 30
0.0
 10
198.290738882719
 20
211.4920002726478
 30
0.0
 10
198.290738882719
 20
211.4920002726478
 30
0.0
 10
198.290738882719
 20
214.4919894212034
 30
0.0
 10
198.290738882719
 20
214.4919894212034
 30
0.0
 10
198.290738882719
 20
214.5464219298703
 30
0.0
 10
198.2473306796048
 20
214.5932752284697
 30
0.0
 10
198.1887640563556
 20
214.5932752284697
 30
0.0
 10
198.1887640563556
 20
214.5932752284697
 30
0.0
 10
192.1887857592445
 20
214.5932752284697
 30
0.0
 10
192.1887857592445
 20
214.5932752284697
 30
0.0
 10
192.1343532505775
 20
214.5932752284697
 30
0.0
 10
192.0874999519781
 20
214.5505560444527
 30
0.0
 10
192.0874999519781
 20
214.4919894212034
 30
0.0
 10
192.0874999519781
 20
214.4919894212034
 30
0.0
 10
192.0874999519781
 20
211.4920002726478
 30
0.0
 10
192.0874999519781
 20
211.4920002726478
 30
0.0
 10
192.0874999519781
 20
211.5464327813148
 30
0.0
 10
192.1302191359952
 20
211.5932860799142
 30
0.0
 10
192.1887857592445
 20
211.5932860799142
 30
0.0
 10
192.1887857592445
 20
211.5932860799142
 30
0.0
 10
186.1888074621334
 20
211.5932860799142
 30
0.0
 10
186.1888074621334
 20
211.5932860799142
 30
0.0
 10
186.2439289898974
 20
211.5932860799142
 30
0.0
 10
186.2907822884968
 20
211.5505668958971
 30
0.0
 10
186.2907822884968
 20
211.4920002726478
 30
0.0
 10
186.2907822884968
 20
211.4920002726478
 30
0.0
 10
186.2907822884968
 20
214.4919894212034
 30
0.0
 10
186.2907822884968
 20
214.4919894212034
 30
0.0
 10
186.2907822884968
 20
214.5464219298703
 30
0.0
 10
186.2473740853826
 20
214.5932752284697
 30
0.0
 10
186.1888074621334
 20
214.5932752284697
 30
0.0
 10
186.1888074621334
 20
214.5932752284697
 30
0.0
 10
180.1888291650222
 20
214.5932752284697
 30
0.0
 10
180.1888291650222
 20
214.5932752284697
 30
0.0
 10
180.1343966563553
 20
214.5932752284697
 30
0.0
 10
180.0875433577559
 20
214.5505560444527
 30
0.0
 10
180.0875433577559
 20
214.4919894212034
 30
0.0
 10
180.0875433577559
 20
214.4919894212034
 30
0.0
 10
180.0875433577559
 20
211.4920002726478
 30
0.0
 10
180.0875433577559
 20
211.4920002726478
 30
0.0
 10
180.0875433577559
 20
211.5464327813148
 30
0.0
 10
180.130262541773
 20
211.5932860799142
 30
0.0
 10
180.1888291650222
 20
211.5932860799142
 30
0.0
 10
180.1888291650222
 20
211.5932860799142
 30
0.0
 10
174.1888508679111
 20
211.5932860799142
 30
0.0
 10
174.1888508679111
 20
211.5932860799142
 30
0.0
 10
174.2439723956751
 20
211.5932860799142
 30
0.0
 10
174.2908256942745
 20
211.5505668958971
 30
0.0
 10
174.2908256942745
 20
211.4920002726478
 30
0.0
 10
174.2908256942745
 20
211.4920002726478
 30
0.0
 10
174.2908256942745
 20
214.4919894212034
 30
0.0
 10
174.2908256942745
 20
214.4919894212034
 30
0.0
 10
174.2908256942745
 20
214.5464219298703
 30
0.0
 10
174.2474174911604
 20
214.5932752284697
 30
0.0
 10
174.1888508679111
 20
214.5932752284697
 30
0.0
 10
174.1888508679111
 20
214.5932752284697
 30
0.0
 10
168.1888725708
 20
214.5932752284697
 30
0.0
 10
168.1888725708
 20
214.5932752284697
 30
0.0
 10
168.1344400621331
 20
214.5932752284697
 30
0.0
 10
168.0875867635337
 20
214.5505560444527
 30
0.0
 10
168.0875867635337
 20
214.4919894212034
 30
0.0
 10
168.0875867635337
 20
214.4919894212034
 30
0.0
 10
168.0875867635337
 20
211.4920002726478
 30
0.0
 10
168.0875867635337
 20
211.4920002726478
 30
0.0
 10
168.0875867635337
 20
211.5464327813148
 30
0.0
 10
168.1303059475508
 20
211.5932860799142
 30
0.0
 10
168.1888725708
 20
211.5932860799142
 30
0.0
 10
168.1888725708
 20
211.5932860799142
 30
0.0
 10
162.1888942736889
 20
211.5932860799142
 30
0.0
 10
162.1888942736889
 20
211.5932860799142
 30
0.0
 10
162.2426377632588
 20
211.5932860799142
 30
0.0
 10
162.2901800809553
 20
211.5505668958971
 30
0.0
 10
162.2901800809553
 20
211.4920002726478
 30
0.0
 10
162.2901800809553
 20
211.4920002726478
 30
0.0
 10
162.2901800809553
 20
214.4919894212034
 30
0.0
 10
162.2901800809553
 20
214.4919894212034
 30
0.0
 10
162.2901800809553
 20
214.5464219298703
 30
0.0
 10
162.2474608969382
 20
214.5932752284697
 30
0.0
 10
162.1888942736889
 20
214.5932752284697
 30
0.0
 10
162.1888942736889
 20
214.5932752284697
 30
0.0
 10
156.1882269574807
 20
214.5932752284697
 30
0.0
 10
156.1882269574807
 20
214.5932752284697
 30
0.0
 10
156.1344834679108
 20
214.5932752284697
 30
0.0
 10
156.0876301693114
 20
214.5505560444527
 30
0.0
 10
156.0876301693114
 20
214.4919894212034
 30
0.0
 10
156.0876301693114
 20
214.4919894212034
 30
0.0
 10
156.0876301693114
 20
211.4920002726478
 30
0.0
 10
156.0876301693114
 20
211.4920002726478
 30
0.0
 10
156.0876301693114
 20
211.4920002726478
 30
0.0
 10
156.0876301693114
 20
204.4922552657172
 30
0.0
 10
156.0876301693114
 20
204.4922552657172
 30
0.0
 10
156.0876301693114
 20
204.5463432648357
 30
0.0
 10
156.1303493533285
 20
204.5935410729836
 30
0.0
 10
156.1882269574807
 20
204.5935410729836
 30
0.0
 10
156.1882269574807
 20
204.5935410729836
 30
0.0
 10
153.1882378089252
 20
204.5935410729836
 30
0.0
 10
153.1882378089252
 20
204.5935410729836
 30
0.0
 10
153.1344943193553
 20
204.5935410729836
 30
0.0
 10
153.0876410207559
 20
204.5508218889665
 30
0.0
 10
153.0876410207559
 20
204.4922552657172
 30
0.0
 10
153.0876410207559
 20
204.4922552657172
 30
0.0
 10
153.0876410207559
 20
198.4922769686061
 30
0.0
 10
153.0876410207559
 20
198.4922769686061
 30
0.0
 10
153.0876410207559
 20
198.4371554408421
 30
0.0
 10
153.1296711856759
 20
198.3903021422427
 30
0.0
 10
153.1882378089252
 20
198.3903021422427
 30
0.0
 10
153.1882378089252
 20
198.3903021422427
 30
0.0
 10
156.1882269574807
 20
198.3903021422427
 30
0.0
 10
156.1882269574807
 20
198.3903021422427
 30
0.0
 10
156.1344834679108
 20
198.3903021422427
 30
0.0
 10
156.0876301693114
 20
198.4337103453569
 30
0.0
 10
156.0876301693114
 20
198.4922769686061
 30
0.0
 10
156.0876301693114
 20
198.4922769686061
 30
0.0
 10
156.0876301693114
 20
192.4919541619465
 30
0.0
 10
156.0876301693114
 20
192.4919541619465
 30
0.0
 10
156.0876301693114
 20
192.5463866706134
 30
0.0
 10
156.1303493533285
 20
192.5932399692128
 30
0.0
 10
156.1882269574807
 20
192.5932399692128
 30
0.0
 10
156.1882269574807
 20
192.5932399692128
 30
0.0
 10
153.1882378089252
 20
192.5932399692128
 30
0.0
 10
153.1882378089252
 20
192.5932399692128
 30
0.0
 10
153.1344943193553
 20
192.5932399692128
 30
0.0
 10
153.0876410207559
 20
192.5505207851957
 30
0.0
 10
153.0876410207559
 20
192.4919541619465
 30
0.0
 10
153.0876410207559
 20
192.4919541619465
 30
0.0
 10
153.0876410207559
 20
186.4919758648354
 30
0.0
 10
153.0876410207559
 20
186.4919758648354
 30
0.0
 10
153.0876410207559
 20
186.4368543370713
 30
0.0
 10
153.1296711856759
 20
186.390001038472
 30
0.0
 10
153.1882378089252
 20
186.390001038472
 30
0.0
 10
153.1882378089252
 20
186.390001038472
 30
0.0
 10
156.1882269574807
 20
186.390001038472
 30
0.0
 10
156.1882269574807
 20
186.390001038472
 30
0.0
 10
156.1344834679108
 20
186.390001038472
 30
0.0
 10
156.0876301693114
 20
186.4334092415861
 30
0.0
 10
156.0876301693114
 20
186.4919758648354
 30
0.0
 10
156.0876301693114
 20
186.4919758648354
 30
0.0
 10
156.0876301693114
 20
180.4919975677242
 30
0.0
 10
156.0876301693114
 20
180.4919975677242
 30
0.0
 10
156.0876301693114
 20
180.5464300763912
 30
0.0
 10
156.1303493533285
 20
180.5932833749906
 30
0.0
 10
156.1882269574807
 20
180.5932833749906
 30
0.0
 10
156.1882269574807
 20
180.5932833749906
 30
0.0
 10
153.1882378089252
 20
180.5932833749906
 30
0.0
 10
153.1882378089252
 20
180.5932833749906
 30
0.0
 10
153.1344943193553
 20
180.5932833749906
 30
0.0
 10
153.0876410207559
 20
180.5505641909735
 30
0.0
 10
153.0876410207559
 20
180.4919975677242
 30
0.0
 10
153.0876410207559
 20
180.4919975677242
 30
0.0
 10
153.0876410207559
 20
174.4920192706131
 30
0.0
 10
153.0876410207559
 20
174.4920192706131
 30
0.0
 10
153.0876410207559
 20
174.4368977428491
 30
0.0
 10
153.1296711856759
 20
174.3900444442497
 30
0.0
 10
153.1882378089252
 20
174.3900444442497
 30
0.0
 10
153.1882378089252
 20
174.3900444442497
 30
0.0
 10
156.1882269574807
 20
174.3900444442497
 30
0.0
 10
156.1882269574807
 20
174.3900444442497
 30
0.0
 10
156.1344834679108
 20
174.3900444442497
 30
0.0
 10
156.0876301693114
 20
174.4327636282668
 30
0.0
 10
156.0876301693114
 20
174.4920192706131
 30
0.0
 10
156.0876301693114
 20
174.4920192706131
 30
0.0
 10
156.0876301693114
 20
167.4915852445855
 30
0.0
 10
156.0876301693114
 20
167.4915852445855
 30
0.0
 10
156.0876301693114
 20
167.4371527359185
 30
0.0
 10
156.1303493533285
 20
167.3902994373191
 30
0.0
 10
156.1882269574807
 20
167.3902994373191
 30
0.0
 10
156.1882269574807
 20
167.3902994373191
 30
0.0
 10
156.1882269574807
 20
167.3902994373191
 30
0.0
 10
156.1882269574807
 20
167.3902994373191
 30
0.0
  0
SPLINE
  5
5B
330
1F
100
AcDbEntity
  8
Calque 1
 62
   175
420
  3822500
370
     9
100
AcDbSpline
210
0.0
220
0.0
230
1.0
 70
     8
 71
     3
 72
    38
 73
    34
 74
     0
 42
0.0000000001
 43
0.0000000001
 40
0.0
 40
0.0
 40
0.0
 40
0.0
 40
1.0
 40
1.0
 40
1.0
 40
2.0
 40
2.0
 40
2.0
 40
3.0
 40
3.0
 40
3.0
 40
4.0
 40
4.0
 40
4.0
 40
5.0
 40
5.0
 40
5.0
 40
6.0
 40
6.0
 40
6.0
 40
7.0
 40
7.0
 40
7.0
 40
8.0
 40
8.0
 40
8.0
 40
9.0
 40
9.0
 40
9.0
 40
10.0
 40
10.0
 40
10.0
 40
11.0
 40
11.0
 40
11.0
 40
11.0
 10
279.0871852600893
 20
167.3909884564162
 30
0.0
 10
279.0871852600893
 20
166.258241060866
 30
0.0
 10
278.7626572653788
 20
165.1520209005523
 30
0.0
 10
278.1542534026837
 20
164.1994519988807
 30
0.0
 10
277.5410264063092
 20
163.2465385876606
 30
0.0
 10
276.6701062676381
 20
162.4917181668424
 30
0.0
 10
275.6427787939365
 20
162.0235296903969
 30
0.0
 10
274.615451320235
 20
161.5549967044029
 30
0.0
 10
273.470301580938
 20
161.391010159305
 30
0.0
 10
272.35340162462
 20
161.5505180802721
 30
0.0
 10
271.2323675537197
 20
161.7110595298847
 30
0.0
 10
270.1857475453008
 20
162.1913058405286
 30
0.0
 10
269.3299858267648
 20
162.9333794080514
 30
0.0
 10
268.4742241082287
 20
163.6757974851227
 30
0.0
 10
267.8492837872043
 20
164.644558335575
 30
0.0
 10
267.5330240216584
 20
165.7304524325257
 30
0.0
 10
267.2126301415302
 20
166.8163465294765
 30
0.0
 10
267.2126301415302
 20
167.9690754788411
 30
0.0
 10
267.5330240216584
 20
169.0549695757918
 30
0.0
 10
267.8534179017867
 20
170.1408636727426
 30
0.0
 10
268.4742241082287
 20
171.1096245231948
 30
0.0
 10
269.3299858267648
 20
171.8516980907176
 30
0.0
 10
270.1857475453008
 20
172.594116167789
 30
0.0
 10
271.236501668302
 20
173.070572873399
 30
0.0
 10
272.35340162462
 20
173.2345594184969
 30
0.0
 10
273.4744356955203
 20
173.3944118490125
 30
0.0
 10
274.615451320235
 20
173.2304253039146
 30
0.0
 10
275.6427787939365
 20
172.7618923179207
 30
0.0
 10
276.6701062676381
 20
172.2933593319267
 30
0.0
 10
277.5444715017945
 20
171.5354383251717
 30
0.0
 10
278.1542534026837
 20
170.5859700094368
 30
0.0
 10
278.7674803990581
 20
169.6330565982167
 30
0.0
 10
279.0920083937687
 20
168.5278699665486
 30
0.0
 10
279.0920083937687
 20
167.3944335519014
 30
0.0
  0
SPLINE
  5
5C
330
1F
100
AcDbEntity
  8
Calque 1
 62
   175
420
  3822500
370
     9
100
AcDbSpline
210
0.0
220
0.0
230
1.0
 70
     8
 71
     3
 72
    29
 73
    25
 74
     0
 42
0.0000000001
 43
0.0000000001
 40
0.0
 40
0.0
 40
0.0
 40
0.0
 40
1.0
 40
1.0
 40
1.0
 40
2.0
 40
2.0
 40
2.0
 40
3.0
 40
3.0
 40
3.0
 40
4.0
 40
4.0
 40
4.0
 40
5.0
 40
5.0
 40
5.0
 40
6.0
 40
6.0
 40
6.0
 40
7.0
 40
7.0
 40
7.0
 40
8.0
 40
8.0
 40
8.0
 40
8.0
 10
270.188503621689
 20
163.0002142604652
 30
0.0
 10
270.2429361303559
 20
163.0002142604652
 30
0.0
 10
270.2904784480524
 20
162.9568060573511
 30
0.0
 10
270.2904784480524
 20
162.9023735486841
 30
0.0
 10
270.2904784480524
 20
162.9023735486841
 30
0.0
 10
270.2904784480524
 20
167.3909884564162
 30
0.0
 10
270.2904784480524
 20
167.3909884564162
 30
0.0
 10
270.2904784480524
 20
167.3358669286522
 30
0.0
 10
270.2470702449382
 20
167.2890136300528
 30
0.0
 10
270.188503621689
 20
167.2890136300528
 30
0.0
 10
270.188503621689
 20
167.2890136300528
 30
0.0
 10
273.1884927702446
 20
167.2890136300528
 30
0.0
 10
273.1884927702446
 20
167.2890136300528
 30
0.0
 10
273.1340602615776
 20
167.2890136300528
 30
0.0
 10
273.0872069629782
 20
167.3324218331669
 30
0.0
 10
273.0872069629782
 20
167.3909884564162
 30
0.0
 10
273.0872069629782
 20
167.3909884564162
 30
0.0
 10
273.0872069629782
 20
162.9023735486841
 30
0.0
 10
273.0872069629782
 20
162.9023735486841
 30
0.0
 10
273.0872069629782
 20
162.9568060573511
 30
0.0
 10
273.1299261469953
 20
163.0036593559505
 30
0.0
 10
273.1884927702446
 20
163.0036593559505
 30
0.0
 10
273.1884927702446
 20
163.0036593559505
 30
0.0
 10
270.188503621689
 20
163.0036593559505
 30
0.0
 10
270.188503621689
 20
163.0036593559505
 30
0.0
  0
SPLINE
  5
5D
330
1F
100
AcDbEntity
  8
Calque 1
 62
    18
420
    65793
370
     9
100
AcDbSpline
210
0.0
220
0.0
230
1.0
 70
     8
 71
     3
 72
   110
 73
   106
 74
     0
 42
0.0000000001
 43
0.0000000001
 40
0.0
 40
0.0
 40
0.0
 40
0.0
 40
1.0
 40
1.0
 40
1.0
 40
2.0
 40
2.0
 40
2.0
 40
3.0
 40
3.0
 40
3.0
 40
4.0
 40
4.0
 40
4.0
 40
5.0
 40
5.0
 40
5.0
 40
6.0
 40
6.0
 40
6.0
 40
7.0
 40
7.0
 40
7.0
 40
8.0
 40
8.0
 40
8.0
 40
9.0
 40
9.0
 40
9.0
 40
10.0
 40
10.0
 40
10.0
 40
11.0
 40
11.0
 40
11.0
 40
12.0
 40
12.0
 40
12.0
 40
13.0
 40
13.0
 40
13.0
 40
14.0
 40
14.0
 40
14.0
 40
15.0
 40
15.0
 40
15.0
 40
16.0
 40
16.0
 40
16.0
 40
17.0
 40
17.0
 40
17.0
 40
18.0
 40
18.0
 40
18.0
 40
19.0
 40
19.0
 40
19.0
 40
20.0
 40
20.0
 40
20.0
 40
21.0
 40
21.0
 40
21.0
 40
22.0
 40
22.0
 40
22.0
 40
23.0
 40
23.0
 40
23.0
 40
24.0
 40
24.0
 40
24.0
 40
25.0
 40
25.0
 40
25.0
 40
26.0
 40
26.0
 40
26.0
 40
27.0
 40
27.0
 40
27.0
 40
28.0
 40
28.0
 40
28.0
 40
29.0
 40
29.0
 40
29.0
 40
30.0
 40
30.0
 40
30.0
 40
31.0
 40
31.0
 40
31.0
 40
32.0
 40
32.0
 40
32.0
 40
33.0
 40
33.0
 40
33.0
 40
34.0
 40
34.0
 40
34.0
 40
35.0
 40
35.0
 40
35.0
 40
35.0
 10
156.1896049956748
 20
167.3909884564162
 30
0.0
 10
156.1896049956748
 20
167.3909884564162
 30
0.0
 10
264.1892143436749
 20
167.3909884564162
 30
0.0
 10
264.1892143436749
 20
167.3909884564162
 30
0.0
 10
264.134781835008
 20
167.3909884564162
 30
0.0
 10
264.0879285364086
 20
167.4337076404333
 30
0.0
 10
264.0879285364086
 20
167.4922742636825
 30
0.0
 10
264.0879285364086
 20
165.6915228535424
 30
0.0
 10
264.6226073557194
 20
163.9334906274194
 30
0.0
 10
265.6230630846359
 20
162.4376301677239
 30
0.0
 10
266.6228297944554
 20
160.9417697080285
 30
0.0
 10
268.0449652107666
 20
159.7738823385288
 30
0.0
 10
269.7048122155599
 20
159.0862412796729
 30
0.0
 10
271.3687933349356
 20
158.398600220817
 30
0.0
 10
273.1967609994092
 20
158.218766236487
 30
0.0
 10
274.9627169451482
 20
158.5663763709487
 30
0.0
 10
276.7286728908873
 20
158.9177761104442
 30
0.0
 10
278.3492458071488
 20
159.7852511536301
 30
0.0
 10
279.6225530984972
 20
161.0585584449784
 30
0.0
 10
280.8965494089425
 20
162.3318657363268
 30
0.0
 10
281.7626464139344
 20
163.9531276716853
 30
0.0
 10
282.1140461534299
 20
165.7183945983274
 30
0.0
 10
282.4661349120224
 20
167.4843505440664
 30
0.0
 10
282.2863009276923
 20
169.31231820854
 30
0.0
 10
281.5945257542542
 20
170.9762993279157
 30
0.0
 10
280.9075737144954
 20
172.6402804472913
 30
0.0
 10
279.7396863449956
 20
174.0624158636025
 30
0.0
 10
278.2431368662031
 20
175.0583929683882
 30
0.0
 10
276.7472764065076
 20
176.0581596782077
 30
0.0
 10
274.9854545753508
 20
176.593872026164
 30
0.0
 10
273.1884927702446
 20
176.593872026164
 30
0.0
 10
273.1884927702446
 20
176.593872026164
 30
0.0
 10
270.188503621689
 20
176.593872026164
 30
0.0
 10
270.188503621689
 20
176.593872026164
 30
0.0
 10
270.3214843074197
 20
176.593872026164
 30
0.0
 10
270.3214843074197
 20
176.3940564880195
 30
0.0
 10
270.188503621689
 20
176.3940564880195
 30
0.0
 10
270.188503621689
 20
176.3940564880195
 30
0.0
 10
270.188503621689
 20
176.3940564880195
 30
0.0
 10
270.188503621689
 20
176.3940564880195
 30
0.0
 10
270.2429361303559
 20
176.3940564880195
 30
0.0
 10
270.2904784480524
 20
176.4374646911337
 30
0.0
 10
270.2904784480524
 20
176.4960313143829
 30
0.0
 10
270.2904784480524
 20
176.4960313143829
 30
0.0
 10
270.2904784480524
 20
176.4960313143829
 30
0.0
 10
270.2904784480524
 20
176.4960313143829
 30
0.0
 10
270.2904784480524
 20
176.4960313143829
 30
0.0
 10
270.2904784480524
 20
184.9957708955913
 30
0.0
 10
270.2904784480524
 20
184.9957708955913
 30
0.0
 10
270.2904784480524
 20
184.9416828964729
 30
0.0
 10
270.2470702449382
 20
184.8948295978735
 30
0.0
 10
270.188503621689
 20
184.8948295978735
 30
0.0
 10
270.188503621689
 20
184.8948295978735
 30
0.0
 10
273.1884927702446
 20
184.8948295978735
 30
0.0
 10
273.1884927702446
 20
184.8948295978735
 30
0.0
 10
273.2436142980085
 20
184.8948295978735
 30
0.0
 10
273.2904675966079
 20
184.9372042723421
 30
0.0
 10
273.2904675966079
 20
184.9957708955913
 30
0.0
 10
273.2904675966079
 20
184.9957708955913
 30
0.0
 10
273.2904675966079
 20
190.996093702251
 30
0.0
 10
273.2904675966079
 20
190.996093702251
 30
0.0
 10
273.2904675966079
 20
191.0508707204665
 30
0.0
 10
273.2470593934938
 20
191.0980685286144
 30
0.0
 10
273.1884927702446
 20
191.0980685286144
 30
0.0
 10
273.1884927702446
 20
191.0980685286144
 30
0.0
 10
270.188503621689
 20
191.0980685286144
 30
0.0
 10
270.188503621689
 20
191.0980685286144
 30
0.0
 10
270.2429361303559
 20
191.0980685286144
 30
0.0
 10
270.2904784480524
 20
191.0546603255002
 30
0.0
 10
270.2904784480524
 20
190.996093702251
 30
0.0
 10
270.2904784480524
 20
190.996093702251
 30
0.0
 10
270.2904784480524
 20
196.9960719993621
 30
0.0
 10
270.2904784480524
 20
196.9960719993621
 30
0.0
 10
270.2904784480524
 20
196.9416394906952
 30
0.0
 10
270.2470702449382
 20
196.8947861920958
 30
0.0
 10
270.188503621689
 20
196.8947861920958
 30
0.0
 10
270.188503621689
 20
196.8947861920958
 30
0.0
 10
273.1884927702446
 20
196.8947861920958
 30
0.0
 10
273.1884927702446
 20
196.8947861920958
 30
0.0
 10
273.2436142980085
 20
196.8947861920958
 30
0.0
 10
273.2904675966079
 20
196.9375053761129
 30
0.0
 10
273.2904675966079
 20
196.9960719993621
 30
0.0
 10
273.2904675966079
 20
196.9960719993621
 30
0.0
 10
273.2904675966079
 20
202.9960502964732
 30
0.0
 10
273.2904675966079
 20
202.9960502964732
 30
0.0
 10
273.2904675966079
 20
203.0511718242372
 30
0.0
 10
273.2470593934938
 20
203.0980251228366
 30
0.0
 10
273.1884927702446
 20
203.0980251228366
 30
0.0
 10
273.1884927702446
 20
203.0980251228366
 30
0.0
 10
270.188503621689
 20
203.0980251228366
 30
0.0
 10
270.188503621689
 20
203.0980251228366
 30
0.0
 10
270.2429361303559
 20
203.0980251228366
 30
0.0
 10
270.2904784480524
 20
203.0546169197225
 30
0.0
 10
270.2904784480524
 20
202.9960502964732
 30
0.0
 10
270.2904784480524
 20
202.9960502964732
 30
0.0
 10
270.2904784480524
 20
211.4964788967787
 30
0.0
 10
270.2904784480524
 20
211.4964788967787
 30
0.0
 10
270.2904784480524
 20
211.4964788967787
 30
0.0
 10
270.2904784480524
 20
214.4964680453342
 30
0.0
 10
270.2904784480524
 20
214.4964680453342
 30
0.0
 10
270.2904784480524
 20
214.5509005540012
 30
0.0
 10
270.2470702449382
 20
214.5977538526006
 30
0.0
 10
270.188503621689
 20
214.5977538526006
 30
0.0
 10
270.188503621689
 20
214.5977538526006
 30
0.0
 10
270.188503621689
 20
214.5977538526006
 30
0.0
 10
270.188503621689
 20
214.5977538526006
 30
0.0
  0
SPLINE
  5
5E
330
1F
100
AcDbEntity
  8
Calque 1
 62
    18
420
    65793
370
     9
100
AcDbSpline
210
0.0
220
0.0
230
1.0
 70
     8
 71
     3
 72
   308
 73
   304
 74
     0
 42
0.0000000001
 43
0.0000000001
 40
0.0
 40
0.0
 40
0.0
 40
0.0
 40
1.0
 40
1.0
 40
1.0
 40
2.0
 40
2.0
 40
2.0
 40
3.0
 40
3.0
 40
3.0
 40
4.0
 40
4.0
 40
4.0
 40
5.0
 40
5.0
 40
5.0
 40
6.0
 40
6.0
 40
6.0
 40
7.0
 40
7.0
 40
7.0
 40
8.0
 40
8.0
 40
8.0
 40
9.0
 40
9.0
 40
9.0
 40
10.0
 40
10.0
 40
10.0
 40
11.0
 40
11.0
 40
11.0
 40
12.0
 40
12.0
 40
12.0
 40
13.0
 40
13.0
 40
13.0
 40
14.0
 40
14.0
 40
14.0
 40
15.0
 40
15.0
 40
15.0
 40
16.0
 40
16.0
 40
16.0
 40
17.0
 40
17.0
 40
17.0
 40
18.0
 40
18.0
 40
18.0
 40
19.0
 40
19.0
 40
19.0
 40
20.0
 40
20.0
 40
20.0
 40
21.0
 40
21.0
 40
21.0
 40
22.0
 40
22.0
 40
22.0
 40
23.0
 40
23.0
 40
23.0
 40
24.0
 40
24.0
 40
24.0
 40
25.0
 40
25.0
 40
25.0
 40
26.0
 40
26.0
 40
26.0
 40
27.0
 40
27.0
 40
27.0
 40
28.0
 40
28.0
 40
28.0
 40
29.0
 40
29.0
 40
29.0
 40
30.0
 40
30.0
 40
30.0
 40
31.0
 40
31.0
 40
31.0
 40
32.0
 40
32.0
 40
32.0
 40
33.0
 40
33.0
 40
33.0
 40
34.0
 40
34.0
 40
34.0
 40
35.0
 40
35.0
 40
35.0
 40
36.0
 40
36.0
 40
36.0
 40
37.0
 40
37.0
 40
37.0
 40
38.0
 40
38.0
 40
38.0
 40
39.0
 40
39.0
 40
39.0
 40
40.0
 40
40.0
 40
40.0
 40
41.0
 40
41.0
 40
41.0
 40
42.0
 40
42.0
 40
42.0
 40
43.0
 40
43.0
 40
43.0
 40
44.0
 40
44.0
 40
44.0
 40
45.0
 40
45.0
 40
45.0
 40
46.0
 40
46.0
 40
46.0
 40
47.0
 40
47.0
 40
47.0
 40
48.0
 40
48.0
 40
48.0
 40
49.0
 40
49.0
 40
49.0
 40
50.0
 40
50.0
 40
50.0
 40
51.0
 40
51.0
 40
51.0
 40
52.0
 40
52.0
 40
52.0
 40
53.0
 40
53.0
 40
53.0
 40
54.0
 40
54.0
 40
54.0
 40
55.0
 40
55.0
 40
55.0
 40
56.0
 40
56.0
 40
56.0
 40
57.0
 40
57.0
 40
57.0
 40
58.0
 40
58.0
 40
58.0
 40
59.0
 40
59.0
 40
59.0
 40
60.0
 40
60.0
 40
60.0
 40
61.0
 40
61.0
 40
61.0
 40
62.0
 40
62.0
 40
62.0
 40
63.0
 40
63.0
 40
63.0
 40
64.0
 40
64.0
 40
64.0
 40
65.0
 40
65.0
 40
65.0
 40
66.0
 40
66.0
 40
66.0
 40
67.0
 40
67.0
 40
67.0
 40
68.0
 40
68.0
 40
68.0
 40
69.0
 40
69.0
 40
69.0
 40
70.0
 40
70.0
 40
70.0
 40
71.0
 40
71.0
 40
71.0
 40
72.0
 40
72.0
 40
72.0
 40
73.0
 40
73.0
 40
73.0
 40
74.0
 40
74.0
 40
74.0
 40
75.0
 40
75.0
 40
75.0
 40
76.0
 40
76.0
 40
76.0
 40
77.0
 40
77.0
 40
77.0
 40
78.0
 40
78.0
 40
78.0
 40
79.0
 40
79.0
 40
79.0
 40
80.0
 40
80.0
 40
80.0
 40
81.0
 40
81.0
 40
81.0
 40
82.0
 40
82.0
 40
82.0
 40
83.0
 40
83.0
 40
83.0
 40
84.0
 40
84.0
 40
84.0
 40
85.0
 40
85.0
 40
85.0
 40
86.0
 40
86.0
 40
86.0
 40
87.0
 40
87.0
 40
87.0
 40
88.0
 40
88.0
 40
88.0
 40
89.0
 40
89.0
 40
89.0
 40
90.0
 40
90.0
 40
90.0
 40
91.0
 40
91.0
 40
91.0
 40
92.0
 40
92.0
 40
92.0
 40
93.0
 40
93.0
 40
93.0
 40
94.0
 40
94.0
 40
94.0
 40
95.0
 40
95.0
 40
95.0
 40
96.0
 40
96.0
 40
96.0
 40
97.0
 40
97.0
 40
97.0
 40
98.0
 40
98.0
 40
98.0
 40
99.0
 40
99.0
 40
99.0
 40
100.0
 40
100.0
 40
100.0
 40
101.0
 40
101.0
 40
101.0
 40
101.0
 10
270.1926377362713
 20
158.0864745698534
 30
0.0
 10
270.3256184220019
 20
158.0864745698534
 30
0.0
 10
270.3256184220019
 20
157.8873480508059
 30
0.0
 10
270.1926377362713
 20
157.8873480508059
 30
0.0
 10
270.1926377362713
 20
157.8873480508059
 30
0.0
 10
273.1926268848268
 20
157.8873480508059
 30
0.0
 10
273.1926268848268
 20
157.8873480508059
 30
0.0
 10
273.0596461990962
 20
157.8873480508059
 30
0.0
 10
273.0596461990962
 20
158.0864745698534
 30
0.0
 10
273.1926268848268
 20
158.0864745698534
 30
0.0
 10
271.5803221977299
 20
158.0864745698534
 30
0.0
 10
269.9900661217386
 20
158.5122883718303
 30
0.0
 10
268.5913573547272
 20
159.3205077726699
 30
0.0
 10
267.1926485877157
 20
160.1294161926066
 30
0.0
 10
266.0323404282836
 20
161.2897243520387
 30
0.0
 10
265.224121027444
 20
162.6877440999531
 30
0.0
 10
264.4152126075073
 20
164.0864528669645
 30
0.0
 10
263.9893988055304
 20
165.6725748283735
 30
0.0
 10
263.9893988055304
 20
167.2897026491498
 30
0.0
 10
263.9893988055304
 20
167.3441351578168
 30
0.0
 10
263.9466796215133
 20
167.3909884564162
 30
0.0
 10
263.8881129982641
 20
167.3909884564162
 30
0.0
 10
263.8881129982641
 20
167.3909884564162
 30
0.0
 10
156.1896049956748
 20
167.3909884564162
 30
0.0
 10
156.1896049956748
 20
167.3909884564162
 30
0.0
 10
156.1351724870079
 20
167.3909884564162
 30
0.0
 10
156.0883191884085
 20
167.3482692723991
 30
0.0
 10
156.0883191884085
 20
167.2897026491498
 30
0.0
 10
156.0883191884085
 20
167.2897026491498
 30
0.0
 10
156.0883191884085
 20
167.2897026491498
 30
0.0
 10
156.0883191884085
 20
167.2897026491498
 30
0.0
 10
156.0883191884085
 20
167.2897026491498
 30
0.0
 10
156.0883191884085
 20
160.2892686231221
 30
0.0
 10
156.0883191884085
 20
160.2892686231221
 30
0.0
 10
156.0883191884085
 20
160.3440456413376
 30
0.0
 10
156.1310383724256
 20
160.3912434494855
 30
0.0
 10
156.1896049956748
 20
160.3912434494855
 30
0.0
 10
156.1896049956748
 20
160.3912434494855
 30
0.0
 10
153.1889268280222
 20
160.3912434494855
 30
0.0
 10
153.1889268280222
 20
160.3912434494855
 30
0.0
 10
153.1351833384523
 20
160.3912434494855
 30
0.0
 10
153.0883300398529
 20
160.3478352463714
 30
0.0
 10
153.0883300398529
 20
160.2892686231221
 30
0.0
 10
153.0883300398529
 20
160.2892686231221
 30
0.0
 10
153.0883300398529
 20
154.2889458164625
 30
0.0
 10
153.0883300398529
 20
154.2889458164625
 30
0.0
 10
153.0883300398529
 20
154.2348578173441
 30
0.0
 10
153.130360204773
 20
154.1880045187447
 30
0.0
 10
153.1889268280222
 20
154.1880045187447
 30
0.0
 10
153.1889268280222
 20
154.1880045187447
 30
0.0
 10
156.1896049956748
 20
154.1880045187447
 30
0.0
 10
156.1896049956748
 20
154.1880045187447
 30
0.0
 10
156.1351724870079
 20
154.1880045187447
 30
0.0
 10
156.0883191884085
 20
154.2303791932133
 30
0.0
 10
156.0883191884085
 20
154.2889458164625
 30
0.0
 10
156.0883191884085
 20
154.2889458164625
 30
0.0
 10
156.0883191884085
 20
147.2892008095319
 30
0.0
 10
156.0883191884085
 20
147.2892008095319
 30
0.0
 10
156.0883191884085
 20
147.2892008095319
 30
0.0
 10
156.0883191884085
 20
144.2892116609763
 30
0.0
 10
156.0883191884085
 20
144.2892116609763
 30
0.0
 10
156.0883191884085
 20
144.2340901332123
 30
0.0
 10
156.1310383724256
 20
144.1872368346129
 30
0.0
 10
156.1896049956748
 20
144.1872368346129
 30
0.0
 10
156.1896049956748
 20
144.1872368346129
 30
0.0
 10
156.1896049956748
 20
144.1872368346129
 30
0.0
 10
156.1896049956748
 20
144.1872368346129
 30
0.0
 10
156.1896049956748
 20
144.1872368346129
 30
0.0
 10
162.189583292786
 20
144.1872368346129
 30
0.0
 10
162.189583292786
 20
144.1872368346129
 30
0.0
 10
162.2440158014529
 20
144.1872368346129
 30
0.0
 10
162.2915581191493
 20
144.2306450377271
 30
0.0
 10
162.2915581191493
 20
144.2892116609763
 30
0.0
 10
162.2915581191493
 20
144.2892116609763
 30
0.0
 10
162.2915581191493
 20
147.2892008095319
 30
0.0
 10
162.2915581191493
 20
147.2892008095319
 30
0.0
 10
162.2915581191493
 20
147.2351128104135
 30
0.0
 10
162.2481499160352
 20
147.1872259831685
 30
0.0
 10
162.189583292786
 20
147.1872259831685
 30
0.0
 10
162.189583292786
 20
147.1872259831685
 30
0.0
 10
168.1895615898971
 20
147.1872259831685
 30
0.0
 10
168.1895615898971
 20
147.1872259831685
 30
0.0
 10
168.1351290812301
 20
147.1872259831685
 30
0.0
 10
168.0882757826307
 20
147.2306341862826
 30
0.0
 10
168.0882757826307
 20
147.2892008095319
 30
0.0
 10
168.0882757826307
 20
147.2892008095319
 30
0.0
 10
168.0882757826307
 20
144.2892116609763
 30
0.0
 10
168.0882757826307
 20
144.2892116609763
 30
0.0
 10
168.0882757826307
 20
144.2340901332123
 30
0.0
 10
168.1309949666478
 20
144.1872368346129
 30
0.0
 10
168.1895615898971
 20
144.1872368346129
 30
0.0
 10
168.1895615898971
 20
144.1872368346129
 30
0.0
 10
174.1895398870082
 20
144.1872368346129
 30
0.0
 10
174.1895398870082
 20
144.1872368346129
 30
0.0
 10
174.2446614147722
 20
144.1872368346129
 30
0.0
 10
174.2915147133716
 20
144.2306450377271
 30
0.0
 10
174.2915147133716
 20
144.2892116609763
 30
0.0
 10
174.2915147133716
 20
144.2892116609763
 30
0.0
 10
174.2915147133716
 20
147.2892008095319
 30
0.0
 10
174.2915147133716
 20
147.2892008095319
 30
0.0
 10
174.2915147133716
 20
147.2351128104135
 30
0.0
 10
174.2487955293545
 20
147.1872259831685
 30
0.0
 10
174.1895398870082
 20
147.1872259831685
 30
0.0
 10
174.1895398870082
 20
147.1872259831685
 30
0.0
 10
180.1895181841193
 20
147.1872259831685
 30
0.0
 10
180.1895181841193
 20
147.1872259831685
 30
0.0
 10
180.1350856754524
 20
147.1872259831685
 30
0.0
 10
180.0882323768529
 20
147.2306341862826
 30
0.0
 10
180.0882323768529
 20
147.2892008095319
 30
0.0
 10
180.0882323768529
 20
147.2892008095319
 30
0.0
 10
180.0882323768529
 20
144.2892116609763
 30
0.0
 10
180.0882323768529
 20
144.2892116609763
 30
0.0
 10
180.0882323768529
 20
144.2340901332123
 30
0.0
 10
180.13095156087
 20
144.1872368346129
 30
0.0
 10
180.1895181841193
 20
144.1872368346129
 30
0.0
 10
180.1895181841193
 20
144.1872368346129
 30
0.0
 10
186.1901855003275
 20
144.1872368346129
 30
0.0
 10
186.1901855003275
 20
144.1872368346129
 30
0.0
 10
186.2446180089944
 20
144.1872368346129
 30
0.0
 10
186.2914713075938
 20
144.2306450377271
 30
0.0
 10
186.2914713075938
 20
144.2892116609763
 30
0.0
 10
186.2914713075938
 20
144.2892116609763
 30
0.0
 10
186.2914713075938
 20
147.2892008095319
 30
0.0
 10
186.2914713075938
 20
147.2892008095319
 30
0.0
 10
186.2914713075938
 20
147.2351128104135
 30
0.0
 10
186.2487521235767
 20
147.1872259831685
 30
0.0
 10
186.1901855003275
 20
147.1872259831685
 30
0.0
 10
186.1901855003275
 20
147.1872259831685
 30
0.0
 10
192.1901637974386
 20
147.1872259831685
 30
0.0
 10
192.1901637974386
 20
147.1872259831685
 30
0.0
 10
192.1350422696746
 20
147.1872259831685
 30
0.0
 10
192.0881889710752
 20
147.2306341862826
 30
0.0
 10
192.0881889710752
 20
147.2892008095319
 30
0.0
 10
192.0881889710752
 20
147.2892008095319
 30
0.0
 10
192.0881889710752
 20
144.2892116609763
 30
0.0
 10
192.0881889710752
 20
144.2892116609763
 30
0.0
 10
192.0881889710752
 20
144.2340901332123
 30
0.0
 10
192.1315971741893
 20
144.1872368346129
 30
0.0
 10
192.1901637974386
 20
144.1872368346129
 30
0.0
 10
192.1901637974386
 20
144.1872368346129
 30
0.0
 10
198.1901420945497
 20
144.1872368346129
 30
0.0
 10
198.1901420945497
 20
144.1872368346129
 30
0.0
 10
198.2445746032166
 20
144.1872368346129
 30
0.0
 10
198.291427901816
 20
144.2306450377271
 30
0.0
 10
198.291427901816
 20
144.2892116609763
 30
0.0
 10
198.291427901816
 20
144.2892116609763
 30
0.0
 10
198.291427901816
 20
147.2892008095319
 30
0.0
 10
198.291427901816
 20
147.2892008095319
 30
0.0
 10
198.291427901816
 20
147.2351128104135
 30
0.0
 10
198.2487087177989
 20
147.1872259831685
 30
0.0
 10
198.1901420945497
 20
147.1872259831685
 30
0.0
 10
198.1901420945497
 20
147.1872259831685
 30
0.0
 10
204.1901203916608
 20
147.1872259831685
 30
0.0
 10
204.1901203916608
 20
147.1872259831685
 30
0.0
 10
204.1349988638968
 20
147.1872259831685
 30
0.0
 10
204.0881455652974
 20
147.2306341862826
 30
0.0
 10
204.0881455652974
 20
147.2892008095319
 30
0.0
 10
204.0881455652974
 20
147.2892008095319
 30
0.0
 10
204.0881455652974
 20
144.2892116609763
 30
0.0
 10
204.0881455652974
 20
144.2892116609763
 30
0.0
 10
204.0881455652974
 20
144.2340901332123
 30
0.0
 10
204.1315537684116
 20
144.1872368346129
 30
0.0
 10
204.1901203916608
 20
144.1872368346129
 30
0.0
 10
204.1901203916608
 20
144.1872368346129
 30
0.0
 10
210.1900986887719
 20
144.1872368346129
 30
0.0
 10
210.1900986887719
 20
144.1872368346129
 30
0.0
 10
210.2445311974389
 20
144.1872368346129
 30
0.0
 10
210.2913844960383
 20
144.2306450377271
 30
0.0
 10
210.2913844960383
 20
144.2892116609763
 30
0.0
 10
210.2913844960383
 20
144.2892116609763
 30
0.0
 10
210.2913844960383
 20
147.2892008095319
 30
0.0
 10
210.2913844960383
 20
147.2892008095319
 30
0.0
 10
210.2913844960383
 20
147.2351128104135
 30
0.0
 10
210.2486653120212
 20
147.1872259831685
 30
0.0
 10
210.1900986887719
 20
147.1872259831685
 30
0.0
 10
210.1900986887719
 20
147.1872259831685
 30
0.0
 10
216.189387966786
 20
147.1872259831685
 30
0.0
 10
216.189387966786
 20
147.1872259831685
 30
0.0
 10
216.1356444772161
 20
147.1872259831685
 30
0.0
 10
216.0881021595197
 20
147.2306341862826
 30
0.0
 10
216.0881021595197
 20
147.2892008095319
 30
0.0
 10
216.0881021595197
 20
147.2892008095319
 30
0.0
 10
216.0881021595197
 20
144.2892116609763
 30
0.0
 10
216.0881021595197
 20
144.2892116609763
 30
0.0
 10
216.0881021595197
 20
144.2340901332123
 30
0.0
 10
216.1308213435368
 20
144.1872368346129
 30
0.0
 10
216.189387966786
 20
144.1872368346129
 30
0.0
 10
216.189387966786
 20
144.1872368346129
 30
0.0
 10
222.1900552829942
 20
144.1872368346129
 30
0.0
 10
222.1900552829942
 20
144.1872368346129
 30
0.0
 10
222.2444877916611
 20
144.1872368346129
 30
0.0
 10
222.2913410902605
 20
144.2306450377271
 30
0.0
 10
222.2913410902605
 20
144.2892116609763
 30
0.0
 10
222.2913410902605
 20
144.2892116609763
 30
0.0
 10
222.2913410902605
 20
147.2892008095319
 30
0.0
 10
222.2913410902605
 20
147.2892008095319
 30
0.0
 10
222.2913410902605
 20
147.2351128104135
 30
0.0
 10
222.2486219062434
 20
147.1872259831685
 30
0.0
 10
222.1900552829942
 20
147.1872259831685
 30
0.0
 10
222.1900552829942
 20
147.1872259831685
 30
0.0
 10
228.1900335801053
 20
147.1872259831685
 30
0.0
 10
228.1900335801053
 20
147.1872259831685
 30
0.0
 10
228.1356010714383
 20
147.1872259831685
 30
0.0
 10
228.0887477728389
 20
147.2306341862826
 30
0.0
 10
228.0887477728389
 20
147.2892008095319
 30
0.0
 10
228.0887477728389
 20
147.2892008095319
 30
0.0
 10
228.0887477728389
 20
144.2892116609763
 30
0.0
 10
228.0887477728389
 20
144.2892116609763
 30
0.0
 10
228.0887477728389
 20
144.2340901332123
 30
0.0
 10
228.131466956856
 20
144.1872368346129
 30
0.0
 10
228.1900335801053
 20
144.1872368346129
 30
0.0
 10
228.1900335801053
 20
144.1872368346129
 30
0.0
 10
234.1900118772164
 20
144.1872368346129
 30
0.0
 10
234.1900118772164
 20
144.1872368346129
 30
0.0
 10
234.2451334049804
 20
144.1872368346129
 30
0.0
 10
234.2919867035798
 20
144.2306450377271
 30
0.0
 10
234.2919867035798
 20
144.2892116609763
 30
0.0
 10
234.2919867035798
 20
144.2892116609763
 30
0.0
 10
234.2919867035798
 20
147.2892008095319
 30
0.0
 10
234.2919867035798
 20
147.2892008095319
 30
0.0
 10
234.2919867035798
 20
147.2351128104135
 30
0.0
 10
234.2485785004656
 20
147.1872259831685
 30
0.0
 10
234.1900118772164
 20
147.1872259831685
 30
0.0
 10
234.1900118772164
 20
147.1872259831685
 30
0.0
 10
240.1899901743275
 20
147.1872259831685
 30
0.0
 10
240.1899901743275
 20
147.1872259831685
 30
0.0
 10
240.1355576656606
 20
147.1872259831685
 30
0.0
 10
240.0887043670612
 20
147.2306341862826
 30
0.0
 10
240.0887043670612
 20
147.2892008095319
 30
0.0
 10
240.0887043670612
 20
147.2892008095319
 30
0.0
 10
240.0887043670612
 20
144.2892116609763
 30
0.0
 10
240.0887043670612
 20
144.2892116609763
 30
0.0
 10
240.0887043670612
 20
144.2340901332123
 30
0.0
 10
240.1314235510783
 20
144.1872368346129
 30
0.0
 10
240.1899901743275
 20
144.1872368346129
 30
0.0
 10
240.1899901743275
 20
144.1872368346129
 30
0.0
 10
246.1899684714386
 20
144.1872368346129
 30
0.0
 10
246.1899684714386
 20
144.1872368346129
 30
0.0
 10
246.2450899992026
 20
144.1872368346129
 30
0.0
 10
246.291943297802
 20
144.2306450377271
 30
0.0
 10
246.291943297802
 20
144.2892116609763
 30
0.0
 10
246.291943297802
 20
144.2892116609763
 30
0.0
 10
246.291943297802
 20
147.2892008095319
 30
0.0
 10
246.291943297802
 20
147.2892008095319
 30
0.0
 10
246.291943297802
 20
147.2351128104135
 30
0.0
 10
246.2485350946879
 20
147.1872259831685
 30
0.0
 10
246.1899684714386
 20
147.1872259831685
 30
0.0
 10
246.1899684714386
 20
147.1872259831685
 30
0.0
 10
252.1899467685498
 20
147.1872259831685
 30
0.0
 10
252.1899467685498
 20
147.1872259831685
 30
0.0
 10
252.1355142598828
 20
147.1872259831685
 30
0.0
 10
252.0886609612834
 20
147.2306341862826
 30
0.0
 10
252.0886609612834
 20
147.2892008095319
 30
0.0
 10
252.0886609612834
 20
147.2892008095319
 30
0.0
 10
252.0886609612834
 20
144.2892116609763
 30
0.0
 10
252.0886609612834
 20
144.2892116609763
 30
0.0
 10
252.0886609612834
 20
144.2340901332123
 30
0.0
 10
252.1313801453005
 20
144.1872368346129
 30
0.0
 10
252.1899467685498
 20
144.1872368346129
 30
0.0
 10
252.1899467685498
 20
144.1872368346129
 30
0.0
 10
258.1899250656609
 20
144.1872368346129
 30
0.0
 10
258.1899250656609
 20
144.1872368346129
 30
0.0
 10
258.2450465934249
 20
144.1872368346129
 30
0.0
 10
258.2918998920243
 20
144.2306450377271
 30
0.0
 10
258.2918998920243
 20
144.2892116609763
 30
0.0
 10
258.2918998920243
 20
144.2892116609763
 30
0.0
 10
258.2918998920243
 20
147.2892008095319
 30
0.0
 10
258.2918998920243
 20
147.2892008095319
 30
0.0
 10
258.2918998920243
 20
147.2351128104135
 30
0.0
 10
258.2484916889101
 20
147.1872259831685
 30
0.0
 10
258.1899250656609
 20
147.1872259831685
 30
0.0
 10
258.1899250656609
 20
147.1872259831685
 30
0.0
 10
264.189903362772
 20
147.1872259831685
 30
0.0
 10
264.189903362772
 20
147.1872259831685
 30
0.0
 10
264.1354708541051
 20
147.1872259831685
 30
0.0
 10
264.0886175555057
 20
147.2306341862826
 30
0.0
 10
264.0886175555057
 20
147.2892008095319
 30
0.0
 10
264.0886175555057
 20
147.2892008095319
 30
0.0
 10
264.0886175555057
 20
144.2892116609763
 30
0.0
 10
264.0886175555057
 20
144.2892116609763
 30
0.0
 10
264.0886175555057
 20
144.2340901332123
 30
0.0
 10
264.1313367395227
 20
144.1872368346129
 30
0.0
 10
264.189903362772
 20
144.1872368346129
 30
0.0
 10
264.189903362772
 20
144.1872368346129
 30
0.0
 10
270.1898816598831
 20
144.1872368346129
 30
0.0
 10
270.1898816598831
 20
144.1872368346129
 30
0.0
 10
270.2450031876471
 20
144.1872368346129
 30
0.0
 10
270.2918564862465
 20
144.2306450377271
 30
0.0
 10
270.2918564862465
 20
144.2892116609763
 30
0.0
 10
270.2918564862465
 20
144.2892116609763
 30
0.0
 10
270.2918564862465
 20
147.2892008095319
 30
0.0
 10
270.2918564862465
 20
147.2892008095319
 30
0.0
 10
270.2918564862465
 20
147.2892008095319
 30
0.0
 10
270.2918564862465
 20
152.640812136319
 30
0.0
 10
270.2918564862465
 20
152.640812136319
 30
0.0
 10
270.2918564862465
 20
152.640812136319
 30
0.0
 10
270.2918564862465
 20
157.9924234631061
 30
0.0
 10
270.2918564862465
 20
157.9924234631061
 30
0.0
 10
270.2918564862465
 20
158.046855971773
 30
0.0
 10
270.2491373022294
 20
158.0937092703724
 30
0.0
 10
270.1898816598831
 20
158.0937092703724
 30
0.0
 10
270.1898816598831
 20
158.0937092703724
 30
0.0
 10
270.1898816598831
 20
158.0937092703724
 30
0.0
 10
270.1898816598831
 20
158.0937092703724
 30
0.0
  0
SPLINE
  5
5F
330
1F
100
AcDbEntity
  8
Calque 1
 62
    18
420
    65793
370
     9
100
AcDbSpline
210
0.0
220
0.0
230
1.0
 70
    11
 71
     3
 72
    17
 73
    13
 74
     0
 42
0.0000000001
 43
0.0000000001
 40
0.0
 40
0.0
 40
0.0
 40
0.0
 40
1.0
 40
1.0
 40
1.0
 40
2.0
 40
2.0
 40
2.0
 40
3.0
 40
3.0
 40
3.0
 40
4.0
 40
4.0
 40
4.0
 40
4.0
 10
213.2355630977328
 20
206.420130699263
 30
0.0
 10
228.1473143960882
 20
206.420130699263
 30
0.0
 10
240.2354654347328
 20
194.3319796606184
 30
0.0
 10
240.2354654347328
 20
179.420228362263
 30
0.0
 10
240.2354654347328
 20
164.5088215734561
 30
0.0
 10
228.1473143960882
 20
152.420326025263
 30
0.0
 10
213.2355630977328
 20
152.420326025263
 30
0.0
 10
198.3245008184744
 20
152.420326025263
 30
0.0
 10
186.2363497798298
 20
164.5088215734561
 30
0.0
 10
186.2363497798298
 20
179.420228362263
 30
0.0
 10
186.2363497798298
 20
194.3319796606184
 30
0.0
 10
198.3245008184744
 20
206.420130699263
 30
0.0
 10
213.2355630977328
 20
206.420130699263
 30
0.0
  0
INSERT
  5
61
330
1F
100
AcDbEntity
  8
Calque 1
100
AcDbBlockReference
  2
block 4
 10
0.0
 20
0.0
 30
0.0
  0
ENDSEC
  0
SECTION
  2
OBJECTS
  0
DICTIONARY
  5
C
330
0
100
AcDbDictionary
281
     1
  3
ACAD_GROUP
350
D
  3
ACAD_LAYOUT
350
1A
  3
ACAD_MLINESTYLE
350
17
  3
ACAD_PLOTSETTINGS
350
19
  3
ACAD_PLOTSTYLENAME
350
E
  3
ACAD_TABLESTYLE
350
84
  3
ACAD_VISUALSTYLE
350
2A
  0
DICTIONARY
  5
D
102
{ACAD_REACTORS
330
C
102
}
330
C
100
AcDbDictionary
281
     1
  0
DICTIONARY
  5
1A
102
{ACAD_REACTORS
330
C
102
}
330
C
100
AcDbDictionary
281
     1
  3
Layout1
350
1E
  3
Layout2
350
26
  3
Model
350
22
  0
DICTIONARY
  5
17
102
{ACAD_REACTORS
330
C
102
}
330
C
100
AcDbDictionary
281
     1
  3
Standard
350
18
  0
DICTIONARY
  5
19
102
{ACAD_REACTORS
330
C
102
}
330
C
100
AcDbDictionary
281
     1
  0
ACDBDICTIONARYWDFLT
  5
E
102
{ACAD_REACTORS
330
C
102
}
330
C
100
AcDbDictionary
281
     1
  3
Normal
350
F
100
AcDbDictionaryWithDefault
340
F
  0
DICTIONARY
  5
84
102
{ACAD_REACTORS
330
C
102
}
330
C
100
AcDbDictionary
281
     1
  0
DICTIONARY
  5
2A
102
{ACAD_REACTORS
330
C
102
}
330
C
100
AcDbDictionary
281
     1
  3
2dWireframe
350
2F
  3
3D Hidden
350
31
  3
3dWireframe
350
30
  3
Basic
350
32
  3
Brighten
350
36
  3
ColorChange
350
3A
  3
Conceptual
350
34
  3
Dim
350
35
  3
Facepattern
350
39
  3
Flat
350
2B
  3
FlatWithEdges
350
2C
  3
Gouraud
350
2D
  3
GouraudWithEdges
350
2E
  3
Linepattern
350
38
  3
Realistic
350
33
  3
Thicken
350
37
  0
LAYOUT
  5
1E
102
{ACAD_REACTORS
330
1A
102
}
330
1A
100
AcDbPlotSettings
  1

  2
none_device
  4

  6

 40
0.0
 41
0.0
 42
0.0
 43
0.0
 44
0.0
 45
0.0
 46
0.0
 47
0.0
 48
0.0
 49
0.0
140
0.0
141
0.0
142
1.0
143
1.0
 70
   688
 72
     0
 73
     0
 74
     5
  7

 75
    16
 76
     0
 77
     2
 78
   300
147
1.0
148
0.0
149
0.0
100
AcDbLayout
  1
Layout1
 70
     1
 71
     1
 10
0.0
 20
0.0
 11
12.0
 21
9.0
 12
0.0
 22
0.0
 32
0.0
 14
1.000000000000000E+20
 24
1.000000000000000E+20
 34
1.000000000000000E+20
 15
-1.000000000000000E+20
 25
-1.000000000000000E+20
 35
-1.000000000000000E+20
146
0.0
 13
0.0
 23
0.0
 33
0.0
 16
1.0
 26
0.0
 36
0.0
 17
0.0
 27
1.0
 37
0.0
 76
     0
330
1B
  0
LAYOUT
  5
26
102
{ACAD_REACTORS
330
1A
102
}
330
1A
100
AcDbPlotSettings
  1

  2
none_device
  4

  6

 40
0.0
 41
0.0
 42
0.0
 43
0.0
 44
0.0
 45
0.0
 46
0.0
 47
0.0
 48
0.0
 49
0.0
140
0.0
141
0.0
142
1.0
143
1.0
 70
   688
 72
     0
 73
     0
 74
     5
  7

 75
    16
 76
     0
 77
     2
 78
   300
147
1.0
148
0.0
149
0.0
100
AcDbLayout
  1
Layout2
 70
     1
 71
     2
 10
0.0
 20
0.0
 11
0.0
 21
0.0
 12
0.0
 22
0.0
 32
0.0
 14
0.0
 24
0.0
 34
0.0
 15
0.0
 25
0.0
 35
0.0
146
0.0
 13
0.0
 23
0.0
 33
0.0
 16
1.0
 26
0.0
 36
0.0
 17
0.0
 27
1.0
 37
0.0
 76
     0
330
23
  0
LAYOUT
  5
22
102
{ACAD_REACTORS
330
1A
102
}
330
1A
100
AcDbPlotSettings
  1

  2
none_device
  4

  6

 40
0.0
 41
0.0
 42
0.0
 43
0.0
 44
0.0
 45
0.0
 46
0.0
 47
0.0
 48
0.0
 49
0.0
140
0.0
141
0.0
142
1.0
143
1.0
 70
  1712
 72
     0
 73
     0
 74
     0
  7

 75
     0
 76
     0
 77
     2
 78
   300
147
1.0
148
0.0
149
0.0
100
AcDbLayout
  1
Model
 70
     1
 71
     0
 10
0.0
 20
0.0
 11
12.0
 21
9.0
 12
0.0
 22
0.0
 32
0.0
 14
1.000000000000000E+20
 24
1.000000000000000E+20
 34
1.000000000000000E+20
 15
-1.000000000000000E+20
 25
-1.000000000000000E+20
 35
-1.000000000000000E+20
146
0.0
 13
0.0
 23
0.0
 33
0.0
 16
1.0
 26
0.0
 36
0.0
 17
0.0
 27
1.0
 37
0.0
 76
     0
330
1F
331
29
  0
MLINESTYLE
  5
18
102
{ACAD_REACTORS
330
17
102
}
330
17
100
AcDbMlineStyle
  2
Standard
 70
     0
  3

 62
   256
 51
90.0
 52
90.0
 71
     2
 49
0.5
 62
   256
  6
BYLAYER
 49
-0.5
 62
   256
  6
BYLAYER
  0
ACDBPLACEHOLDER
  5
F
102
{ACAD_REACTORS
330
E
102
}
330
E
  0
VISUALSTYLE
  5
2F
102
{ACAD_REACTORS
330
2A
102
}
330
2A
100
AcDbVisualStyle
  2
2dWireframe
 70
     4
 71
     0
 72
     2
 73
     0
 90
        0
 40
-0.6
 41
-30.0
 62
     5
 63
     7
421
 16777215
 74
     1
 91
        4
 64
     7
 65
   257
 75
     1
175
     1
 42
1.0
 92
        0
 66
   257
 43
1.0
 76
     1
 77
     6
 78
     2
 67
     7
 79
     5
170
     0
171
     0
290
     0
174
     0
 93
        1
 44
0.0
173
     0
291
     0
 45
0.0
1001
ACAD
1000
AcDbSavedByObjectVersion
1070
     0
  0
VISUALSTYLE
  5
31
102
{ACAD_REACTORS
330
2A
102
}
330
2A
100
AcDbVisualStyle
  2
3D Hidden
 70
     6
 71
     1
 72
     2
 73
     2
 90
        0
 40
-0.6
 41
-30.0
 62
     5
 63
     7
421
 16777215
 74
     2
 91
        2
 64
     7
 65
   257
 75
     2
175
     1
 42
40.0
 92
        0
 66
   257
 43
1.0
 76
     1
 77
     6
 78
     2
 67
     7
 79
     3
170
     0
171
     0
290
     0
174
     0
 93
        1
 44
0.0
173
     0
291
     0
 45
0.0
1001
ACAD
1000
AcDbSavedByObjectVersion
1070
     0
  0
VISUALSTYLE
  5
30
102
{ACAD_REACTORS
330
2A
102
}
330
2A
100
AcDbVisualStyle
  2
3dWireframe
 70
     5
 71
     0
 72
     2
 73
     0
 90
        0
 40
-0.6
 41
-30.0
 62
     5
 63
     7
421
 16777215
 74
     1
 91
        4
 64
     7
 65
   257
 75
     1
175
     1
 42
1.0
 92
        0
 66
   257
 43
1.0
 76
     1
 77
     6
 78
     2
 67
     7
 79
     5
170
     0
171
     0
290
     0
174
     0
 93
        1
 44
0.0
173
     0
291
     0
 45
0.0
1001
ACAD
1000
AcDbSavedByObjectVersion
1070
     0
  0
VISUALSTYLE
  5
32
102
{ACAD_REACTORS
330
2A
102
}
330
2A
100
AcDbVisualStyle
  2
Basic
 70
     7
 71
     1
 72
     0
 73
     1
 90
        0
 40
-0.6
 41
-30.0
 62
     5
 63
     7
421
 16777215
 74
     0
 91
        4
 64
     7
 65
   257
 75
     1
175
     1
 42
1.0
 92
        8
 66
     7
 43
1.0
 76
     1
 77
     6
 78
     2
 67
     7
 79
     5
170
     0
171
     0
290
     0
174
     0
 93
        1
 44
0.0
173
     0
291
     1
 45
0.0
1001
ACAD
1000
AcDbSavedByObjectVersion
1070
     0
  0
VISUALSTYLE
  5
36
102
{ACAD_REACTORS
330
2A
102
}
330
2A
100
AcDbVisualStyle
  2
Brighten
 70
    12
 71
     2
 72
     2
 73
     0
 90
        0
 40
-0.6
 41
-30.0
 62
     5
 63
     7
421
 16777215
 74
     1
 91
        4
 64
     7
 65
   257
 75
     1
175
     1
 42
1.0
 92
        8
 66
     7
 43
1.0
 76
     1
 77
     6
 78
     2
 67
     7
 79
     5
170
     0
171
     0
290
     0
174
     0
 93
        1
 44
50.0
173
     0
291
     1
 45
0.0
1001
ACAD
1000
AcDbSavedByObjectVersion
1070
     0
  0
VISUALSTYLE
  5
3A
102
{ACAD_REACTORS
330
2A
102
}
330
2A
100
AcDbVisualStyle
  2
ColorChange
 70
    16
 71
     2
 72
     2
 73
     3
 90
        0
 40
-0.6
 41
-30.0
 62
     5
 63
     8
421
  8421504
 74
     1
 91
        4
 64
     7
 65
   257
 75
     1
175
     1
 42
1.0
 92
        8
 66
     8
424
  8421504
 43
1.0
 76
     1
 77
     6
 78
     2
 67
     7
 79
     5
170
     0
171
     0
290
     0
174
     0
 93
        1
 44
0.0
173
     0
291
     1
 45
0.0
1001
ACAD
1000
AcDbSavedByObjectVersion
1070
     0
  0
VISUALSTYLE
  5
34
102
{ACAD_REACTORS
330
2A
102
}
330
2A
100
AcDbVisualStyle
  2
Conceptual
 70
     9
 71
     3
 72
     2
 73
     0
 90
        0
 40
-0.6
 41
-30.0
 62
     5
 63
     7
421
 16777215
 74
     2
 91
        2
 64
     7
 65
   257
 75
     1
175
     1
 42
40.0
 92
        8
 66
     7
 43
1.0
 76
     1
 77
     6
 78
     2
 67
     7
 79
     3
170
     0
171
     0
290
     0
174
     0
 93
        1
 44
0.0
173
     0
291
     0
 45
0.0
1001
ACAD
1000
AcDbSavedByObjectVersion
1070
     0
  0
VISUALSTYLE
  5
35
102
{ACAD_REACTORS
330
2A
102
}
330
2A
100
AcDbVisualStyle
  2
Dim
 70
    11
 71
     2
 72
     2
 73
     0
 90
        0
 40
-0.6
 41
-30.0
 62
     5
 63
     7
421
 16777215
 74
     1
 91
        4
 64
     7
 65
   257
 75
     1
175
     1
 42
1.0
 92
        8
 66
     7
 43
1.0
 76
     1
 77
     6
 78
     2
 67
     7
 79
     5
170
     0
171
     0
290
     0
174
     0
 93
        1
 44
-50.0
173
     0
291
     1
 45
0.0
1001
ACAD
1000
AcDbSavedByObjectVersion
1070
     0
  0
VISUALSTYLE
  5
39
102
{ACAD_REACTORS
330
2A
102
}
330
2A
100
AcDbVisualStyle
  2
Facepattern
 70
    15
 71
     2
 72
     2
 73
     0
 90
        0
 40
-0.6
 41
-30.0
 62
     5
 63
     7
421
 16777215
 74
     1
 91
        4
 64
     7
 65
   257
 75
     1
175
     1
 42
1.0
 92
        8
 66
     7
 43
1.0
 76
     1
 77
     6
 78
     2
 67
     7
 79
     5
170
     0
171
     0
290
     0
174
     0
 93
        1
 44
0.0
173
     0
291
     1
 45
0.0
1001
ACAD
1000
AcDbSavedByObjectVersion
1070
     0
  0
VISUALSTYLE
  5
2B
102
{ACAD_REACTORS
330
2A
102
}
330
2A
100
AcDbVisualStyle
  2
Flat
 70
     0
 71
     2
 72
     1
 73
     1
 90
        2
 40
-0.6
 41
30.0
 62
     5
 63
     7
421
 16777215
 74
     0
 91
        4
 64
     7
 65
   257
 75
     1
175
     1
 42
1.0
 92
        8
 66
     7
 43
1.0
 76
     1
 77
     6
 78
     2
 67
     7
 79
     5
170
     0
171
     0
290
     0
174
     0
 93
       13
 44
0.0
173
     0
291
     1
 45
0.0
1001
ACAD
1000
AcDbSavedByObjectVersion
1070
     0
  0
VISUALSTYLE
  5
2C
102
{ACAD_REACTORS
330
2A
102
}
330
2A
100
AcDbVisualStyle
  2
FlatWithEdges
 70
     1
 71
     2
 72
     1
 73
     1
 90
        2
 40
-0.6
 41
30.0
 62
     5
 63
     7
421
 16777215
 74
     1
 91
        4
 64
     7
 65
   257
 75
     1
175
     1
 42
1.0
 92
        0
 66
   257
 43
1.0
 76
     1
 77
     6
 78
     2
 67
     7
 79
     5
170
     0
171
     0
290
     0
174
     0
 93
       13
 44
0.0
173
     0
291
     1
 45
0.0
1001
ACAD
1000
AcDbSavedByObjectVersion
1070
     0
  0
VISUALSTYLE
  5
2D
102
{ACAD_REACTORS
330
2A
102
}
330
2A
100
AcDbVisualStyle
  2
Gouraud
 70
     2
 71
     2
 72
     2
 73
     1
 90
        2
 40
-0.6
 41
30.0
 62
     5
 63
     7
421
 16777215
 74
     0
 91
        4
 64
     7
 65
   257
 75
     1
175
     1
 42
1.0
 92
        0
 66
     7
 43
1.0
 76
     1
 77
     6
 78
     2
 67
     7
 79
     5
170
     0
171
     0
290
     0
174
     0
 93
       13
 44
0.0
173
     0
291
     1
 45
0.0
1001
ACAD
1000
AcDbSavedByObjectVersion
1070
     0
  0
VISUALSTYLE
  5
2E
102
{ACAD_REACTORS
330
2A
102
}
330
2A
100
AcDbVisualStyle
  2
GouraudWithEdges
 70
     3
 71
     2
 72
     2
 73
     1
 90
        2
 40
-0.6
 41
30.0
 62
     5
 63
     7
421
 16777215
 74
     1
 91
        4
 64
     7
 65
   257
 75
     1
175
     1
 42
1.0
 92
        0
 66
   257
 43
1.0
 76
     1
 77
     6
 78
     2
 67
     7
 79
     5
170
     0
171
     0
290
     0
174
     0
 93
       13
 44
0.0
173
     0
291
     1
 45
0.0
1001
ACAD
1000
AcDbSavedByObjectVersion
1070
     0
  0
VISUALSTYLE
  5
38
102
{ACAD_REACTORS
330
2A
102
}
330
2A
100
AcDbVisualStyle
  2
Linepattern
 70
    14
 71
     2
 72
     2
 73
     0
 90
        0
 40
-0.6
 41
-30.0
 62
     5
 63
     7
421
 16777215
 74
     1
 91
        4
 64
     7
 65
   257
 75
     7
175
     7
 42
1.0
 92
        8
 66
     7
 43
1.0
 76
     1
 77
     6
 78
     2
 67
     7
 79
     5
170
     0
171
     0
290
     0
174
     0
 93
        1
 44
0.0
173
     0
291
     1
 45
0.0
1001
ACAD
1000
AcDbSavedByObjectVersion
1070
     0
  0
VISUALSTYLE
  5
33
102
{ACAD_REACTORS
330
2A
102
}
330
2A
100
AcDbVisualStyle
  2
Realistic
 70
     8
 71
     2
 72
     2
 73
     0
 90
        0
 40
-0.6
 41
-30.0
 62
     5
 63
     7
421
 16777215
 74
     1
 91
        0
 64
     7
 65
   257
 75
     1
175
     1
 42
1.0
 92
        8
 66
     8
424
  7895160
 43
1.0
 76
     1
 77
     6
 78
     2
 67
     7
 79
     5
170
     0
171
     0
290
     0
174
     0
 93
       13
 44
0.0
173
     0
291
     0
 45
0.0
1001
ACAD
1000
AcDbSavedByObjectVersion
1070
     0
  0
VISUALSTYLE
  5
37
102
{ACAD_REACTORS
330
2A
102
}
330
2A
100
AcDbVisualStyle
  2
Thicken
 70
    13
 71
     2
 72
     2
 73
     0
 90
        0
 40
-0.6
 41
-30.0
 62
     5
 63
     7
421
 16777215
 74
     1
 91
        4
 64
     7
 65
   257
 75
     1
175
     1
 42
1.0
 92
       12
 66
     7
 43
1.0
 76
     1
 77
     6
 78
     2
 67
     7
 79
     5
170
     0
171
     0
290
     0
174
     0
 93
        1
 44
0.0
173
     0
291
     1
 45
0.0
1001
ACAD
1000
AcDbSavedByObjectVersion
1070
     0
  0
ENDSEC
  0
EOF
