  0
SECTION
  2
HEADER
  9
$ACADVER
  1
AC1014
  9
$HANDSEED
  5
FFFF
  9
$MEASUREMENT
 70
     1
  0
ENDSEC
  0
SECTION
  2
TABLES
  0
TABLE
  2
VPORT
  5
8
330
0
100
AcDbSymbolTable
 70
     4
  0
VPORT
  5
2E
330
8
100
AcDbSymbolTableRecord
100
AcDbViewportTableRecord
  2
*ACTIVE
 70
     0
 10
0.0
 20
0.0
 11
1.0
 21
1.0
 12
210.0
 22
148.5
 13
0.0
 23
0.0
 14
10.0
 24
10.0
 15
10.0
 25
10.0
 16
0.0
 26
0.0
 36
1.0
 17
0.0
 27
0.0
 37
0.0
 40
341.0
 41
1.24
 42
50.0
 43
0.0
 44
0.0
 50
0.0
 51
0.0
 71
     0
 72
   100
 73
     1
 74
     3
 75
     0
 76
     0
 77
     0
 78
     0
  0
ENDTAB
  0
TABLE
  2
LTYPE
  5
5
330
0
100
AcDbSymbolTable
 70
     1
  0
LTYPE
  5
14
330
5
100
AcDbSymbolTableRecord
100
AcDbLinetypeTableRecord
  2
BYBLOCK
 70
     0
  3

 72
    65
 73
     0
 40
0.0
  0
LTYPE
  5
15
330
5
100
AcDbSymbolTableRecord
100
AcDbLinetypeTableRecord
  2
BYLAYER
 70
     0
  3

 72
    65
 73
     0
 40
0.0
  0
LTYPE
  5
16
330
5
100
AcDbSymbolTableRecord
100
AcDbLinetypeTableRecord
  2
CONTINUOUS
 70
     0
  3
Solid line
 72
    65
 73
     0
 40
0.0
  0
ENDTAB
  0
TABLE
  2
LAYER
  5
2
100
AcDbSymbolTable
 70
1
  0
LAYER
  5
50
100
AcDbSymbolTableRecord
100
AcDbLayerTableRecord
  2
0
 70
0
  6
CONTINUOUS
  0
ENDTAB
  0
TABLE
  2
STYLE
  5
3
330
0
100
AcDbSymbolTable
 70
     1
  0
STYLE
  5
11
330
3
100
AcDbSymbolTableRecord
100
AcDbTextStyleTableRecord
  2
STANDARD
 70
     0
 40
0.0
 41
1.0
 50
0.0
 71
     0
 42
2.5
  3
txt
  4

  0
ENDTAB
  0
TABLE
  2
VIEW
  5
6
330
0
100
AcDbSymbolTable
 70
     0
  0
ENDTAB
  0
TABLE
  2
UCS
  5
7
330
0
100
AcDbSymbolTable
 70
     0
  0
ENDTAB
  0
TABLE
  2
APPID
  5
9
330
0
100
AcDbSymbolTable
 70
     2
  0
APPID
  5
12
330
9
100
AcDbSymbolTableRecord
100
AcDbRegAppTableRecord
  2
ACAD
 70
     0
  0
ENDTAB
  0
TABLE
  2
DIMSTYLE
  5
A
330
0
100
AcDbSymbolTable
 70
     1
  0
DIMSTYLE
105
27
330
A
100
AcDbSymbolTableRecord
100
AcDbDimStyleTableRecord
  2
ISO-25
 70
     0
  3

  4

  5

  6

  7

 40
1.0
 41
2.5
 42
0.625
 43
3.75
 44
1.25
 45
0.0
 46
0.0
 47
0.0
 48
0.0
140
2.5
141
2.5
142
0.0
143
0.03937007874016
144
1.0
145
0.0
146
1.0
147
0.625
 71
     0
 72
     0
 73
     0
 74
     0
 75
     0
 76
     0
 77
     1
 78
     8
170
     0
171
     3
172
     1
173
     0
174
     0
175
     0
176
     0
177
     0
178
     0
270
     2
271
     2
272
     2
273
     2
274
     3
340
11
275
     0
280
     0
281
     0
282
     0
283
     0
284
     8
285
     0
286
     0
287
     3
288
     0
  0
ENDTAB
  0
TABLE
  2
BLOCK_RECORD
  5
1
330
0
100
AcDbSymbolTable
 70
     1
  0
BLOCK_RECORD
  5
1F
330
1
100
AcDbSymbolTableRecord
100
AcDbBlockTableRecord
  2
*MODEL_SPACE
  0
BLOCK_RECORD
  5
1B
330
1
100
AcDbSymbolTableRecord
100
AcDbBlockTableRecord
  2
*PAPER_SPACE
  0
ENDTAB
  0
ENDSEC
  0
SECTION
  2
BLOCKS
  0
BLOCK
  5
20
330
1F
100
AcDbEntity
  8
0
100
AcDbBlockBegin
  2
*MODEL_SPACE
 70
     0
 10
0.0
 20
0.0
 30
0.0
  3
*MODEL_SPACE
  1

  0
ENDBLK
  5
21
330
1F
100
AcDbEntity
  8
0
100
AcDbBlockEnd
  0
BLOCK
  5
1C
330
1B
100
AcDbEntity
 67
     1
  8
0
100
AcDbBlockBegin
  2
*PAPER_SPACE
  1

  0
ENDBLK
  5
1D
330
1B
100
AcDbEntity
 67
     1
  8
0
100
AcDbBlockEnd
  0
ENDSEC
  0
SECTION
  2
ENTITIES
  0
SPLINE
  5
100
100
AcDbEntity
  8
0
 62
7
100
AcDbSpline
 70
8
 71
3
 72
8
 73
4
 74
0
 40
0
 40
0
 40
0
 40
0
 40
1
 40
1
 40
1
 40
1
 10
177.496560
 20
356.012542
 30
0.0
 10
177.497218
 20
357.084777
 30
0.0
 10
176.925565
 20
358.075845
 30
0.0
 10
175.997092
 20
358.612152
 30
0.0
  0
SPLINE
  5
101
100
AcDbEntity
  8
0
 62
7
100
AcDbSpline
 70
8
 71
3
 72
8
 73
4
 74
0
 40
0
 40
0
 40
0
 40
0
 40
1
 40
1
 40
1
 40
1
 10
175.997092
 20
358.612152
 30
0.0
 10
175.068619
 20
359.148460
 30
0.0
 10
173.924503
 20
359.148460
 30
0.0
 10
172.996029
 20
358.612152
 30
0.0
  0
SPLINE
  5
102
100
AcDbEntity
  8
0
 62
7
100
AcDbSpline
 70
8
 71
3
 72
8
 73
4
 74
0
 40
0
 40
0
 40
0
 40
0
 40
1
 40
1
 40
1
 40
1
 10
172.996029
 20
358.612152
 30
0.0
 10
172.067556
 20
358.075845
 30
0.0
 10
171.495903
 20
357.084777
 30
0.0
 10
171.496561
 20
356.012542
 30
0.0
  0
SPLINE
  5
103
100
AcDbEntity
  8
0
 62
7
100
AcDbSpline
 70
8
 71
3
 72
8
 73
4
 74
0
 40
0
 40
0
 40
0
 40
0
 40
1
 40
1
 40
1
 40
1
 10
171.496561
 20
356.012542
 30
0.0
 10
171.495903
 20
354.940308
 30
0.0
 10
172.067556
 20
353.949240
 30
0.0
 10
172.996029
 20
353.412933
 30
0.0
  0
SPLINE
  5
104
100
AcDbEntity
  8
0
 62
7
100
AcDbSpline
 70
8
 71
3
 72
8
 73
4
 74
0
 40
0
 40
0
 40
0
 40
0
 40
1
 40
1
 40
1
 40
1
 10
172.996029
 20
353.412933
 30
0.0
 10
173.924503
 20
352.876625
 30
0.0
 10
175.068619
 20
352.876625
 30
0.0
 10
175.997092
 20
353.412933
 30
0.0
  0
SPLINE
  5
105
100
AcDbEntity
  8
0
 62
7
100
AcDbSpline
 70
8
 71
3
 72
8
 73
4
 74
0
 40
0
 40
0
 40
0
 40
0
 40
1
 40
1
 40
1
 40
1
 10
175.997092
 20
353.412933
 30
0.0
 10
176.925565
 20
353.949240
 30
0.0
 10
177.497218
 20
354.940308
 30
0.0
 10
177.496560
 20
356.012542
 30
0.0
  0
SPLINE
  5
106
100
AcDbEntity
  8
0
 62
7
100
AcDbSpline
 70
8
 71
3
 72
8
 73
4
 74
0
 40
0
 40
0
 40
0
 40
0
 40
1
 40
1
 40
1
 40
1
 10
207.074680
 20
346.741458
 30
0.0
 10
207.076165
 20
348.564502
 30
0.0
 10
206.104436
 20
350.249699
 30
0.0
 10
204.525881
 20
351.161650
 30
0.0
  0
SPLINE
  5
107
100
AcDbEntity
  8
0
 62
7
100
AcDbSpline
 70
8
 71
3
 72
8
 73
4
 74
0
 40
0
 40
0
 40
0
 40
0
 40
1
 40
1
 40
1
 40
1
 10
204.525881
 20
351.161650
 30
0.0
 10
202.947326
 20
352.073601
 30
0.0
 10
201.002037
 20
352.073601
 30
0.0
 10
199.423482
 20
351.161650
 30
0.0
  0
SPLINE
  5
108
100
AcDbEntity
  8
0
 62
7
100
AcDbSpline
 70
8
 71
3
 72
8
 73
4
 74
0
 40
0
 40
0
 40
0
 40
0
 40
1
 40
1
 40
1
 40
1
 10
199.423482
 20
351.161650
 30
0.0
 10
197.844927
 20
350.249699
 30
0.0
 10
196.873198
 20
348.564502
 30
0.0
 10
196.874683
 20
346.741458
 30
0.0
  0
SPLINE
  5
109
100
AcDbEntity
  8
0
 62
7
100
AcDbSpline
 70
8
 71
3
 72
8
 73
4
 74
0
 40
0
 40
0
 40
0
 40
0
 40
1
 40
1
 40
1
 40
1
 10
196.874683
 20
346.741458
 30
0.0
 10
196.873198
 20
344.918414
 30
0.0
 10
197.844927
 20
343.233216
 30
0.0
 10
199.423482
 20
342.321265
 30
0.0
  0
SPLINE
  5
10a
100
AcDbEntity
  8
0
 62
7
100
AcDbSpline
 70
8
 71
3
 72
8
 73
4
 74
0
 40
0
 40
0
 40
0
 40
0
 40
1
 40
1
 40
1
 40
1
 10
199.423482
 20
342.321265
 30
0.0
 10
201.002037
 20
341.409314
 30
0.0
 10
202.947326
 20
341.409314
 30
0.0
 10
204.525881
 20
342.321265
 30
0.0
  0
SPLINE
  5
10b
100
AcDbEntity
  8
0
 62
7
100
AcDbSpline
 70
8
 71
3
 72
8
 73
4
 74
0
 40
0
 40
0
 40
0
 40
0
 40
1
 40
1
 40
1
 40
1
 10
204.525881
 20
342.321265
 30
0.0
 10
206.104436
 20
343.233216
 30
0.0
 10
207.076165
 20
344.918414
 30
0.0
 10
207.074680
 20
346.741458
 30
0.0
  0
LWPOLYLINE
  5
10c
100
AcDbEntity
  8
0
 62
7
100
AcDbPolyline
 90
2
 70
1
 10
177.496560
 20
356.012542
 30
0.0
 10
177.496560
 20
356.012542
 30
0.0
  0
SPLINE
  5
10d
100
AcDbEntity
  8
0
 62
7
100
AcDbSpline
 70
8
 71
3
 72
8
 73
4
 74
0
 40
0
 40
0
 40
0
 40
0
 40
1
 40
1
 40
1
 40
1
 10
224.496562
 20
356.012542
 30
0.0
 10
224.496562
 20
373.875822
 30
0.0
 10
214.966616
 20
390.382172
 30
0.0
 10
199.496563
 20
399.313812
 30
0.0
  0
SPLINE
  5
10e
100
AcDbEntity
  8
0
 62
7
100
AcDbSpline
 70
8
 71
3
 72
8
 73
4
 74
0
 40
0
 40
0
 40
0
 40
0
 40
1
 40
1
 40
1
 40
1
 10
199.496563
 20
399.313812
 30
0.0
 10
184.026509
 20
408.245451
 30
0.0
 10
164.966618
 20
408.245451
 30
0.0
 10
149.496564
 20
399.313812
 30
0.0
  0
SPLINE
  5
10f
100
AcDbEntity
  8
0
 62
7
100
AcDbSpline
 70
8
 71
3
 72
8
 73
4
 74
0
 40
0
 40
0
 40
0
 40
0
 40
1
 40
1
 40
1
 40
1
 10
149.496564
 20
399.313812
 30
0.0
 10
134.026511
 20
390.382172
 30
0.0
 10
124.496565
 20
373.875822
 30
0.0
 10
124.496565
 20
356.012542
 30
0.0
  0
SPLINE
  5
110
100
AcDbEntity
  8
0
 62
7
100
AcDbSpline
 70
8
 71
3
 72
8
 73
4
 74
0
 40
0
 40
0
 40
0
 40
0
 40
1
 40
1
 40
1
 40
1
 10
124.496565
 20
356.012542
 30
0.0
 10
124.496565
 20
338.149263
 30
0.0
 10
134.026511
 20
321.642913
 30
0.0
 10
149.496564
 20
312.711273
 30
0.0
  0
SPLINE
  5
111
100
AcDbEntity
  8
0
 62
7
100
AcDbSpline
 70
8
 71
3
 72
8
 73
4
 74
0
 40
0
 40
0
 40
0
 40
0
 40
1
 40
1
 40
1
 40
1
 10
149.496564
 20
312.711273
 30
0.0
 10
164.966618
 20
303.779634
 30
0.0
 10
184.026509
 20
303.779634
 30
0.0
 10
199.496563
 20
312.711273
 30
0.0
  0
SPLINE
  5
112
100
AcDbEntity
  8
0
 62
7
100
AcDbSpline
 70
8
 71
3
 72
8
 73
4
 74
0
 40
0
 40
0
 40
0
 40
0
 40
1
 40
1
 40
1
 40
1
 10
199.496563
 20
312.711273
 30
0.0
 10
214.966616
 20
321.642913
 30
0.0
 10
224.496562
 20
338.149263
 30
0.0
 10
224.496562
 20
356.012542
 30
0.0
  0
LWPOLYLINE
  5
113
100
AcDbEntity
  8
0
 62
7
100
AcDbPolyline
 90
2
 70
1
 10
207.074680
 20
346.741458
 30
0.0
 10
207.074680
 20
346.741458
 30
0.0
  0
SPLINE
  5
114
100
AcDbEntity
  8
0
 62
7
100
AcDbSpline
 70
8
 71
3
 72
8
 73
4
 74
0
 40
0
 40
0
 40
0
 40
0
 40
1
 40
1
 40
1
 40
1
 10
66.965108
 20
356.012542
 30
0.0
 10
66.965765
 20
357.084777
 30
0.0
 10
66.394112
 20
358.075845
 30
0.0
 10
65.465639
 20
358.612152
 30
0.0
  0
SPLINE
  5
115
100
AcDbEntity
  8
0
 62
7
100
AcDbSpline
 70
8
 71
3
 72
8
 73
4
 74
0
 40
0
 40
0
 40
0
 40
0
 40
1
 40
1
 40
1
 40
1
 10
65.465639
 20
358.612152
 30
0.0
 10
64.537166
 20
359.148460
 30
0.0
 10
63.393050
 20
359.148460
 30
0.0
 10
62.464577
 20
358.612152
 30
0.0
  0
SPLINE
  5
116
100
AcDbEntity
  8
0
 62
7
100
AcDbSpline
 70
8
 71
3
 72
8
 73
4
 74
0
 40
0
 40
0
 40
0
 40
0
 40
1
 40
1
 40
1
 40
1
 10
62.464577
 20
358.612152
 30
0.0
 10
61.536103
 20
358.075845
 30
0.0
 10
60.964450
 20
357.084777
 30
0.0
 10
60.965108
 20
356.012542
 30
0.0
  0
SPLINE
  5
117
100
AcDbEntity
  8
0
 62
7
100
AcDbSpline
 70
8
 71
3
 72
8
 73
4
 74
0
 40
0
 40
0
 40
0
 40
0
 40
1
 40
1
 40
1
 40
1
 10
60.965108
 20
356.012542
 30
0.0
 10
60.964450
 20
354.940308
 30
0.0
 10
61.536103
 20
353.949240
 30
0.0
 10
62.464577
 20
353.412933
 30
0.0
  0
SPLINE
  5
118
100
AcDbEntity
  8
0
 62
7
100
AcDbSpline
 70
8
 71
3
 72
8
 73
4
 74
0
 40
0
 40
0
 40
0
 40
0
 40
1
 40
1
 40
1
 40
1
 10
62.464577
 20
353.412933
 30
0.0
 10
63.393050
 20
352.876625
 30
0.0
 10
64.537166
 20
352.876625
 30
0.0
 10
65.465639
 20
353.412933
 30
0.0
  0
SPLINE
  5
119
100
AcDbEntity
  8
0
 62
7
100
AcDbSpline
 70
8
 71
3
 72
8
 73
4
 74
0
 40
0
 40
0
 40
0
 40
0
 40
1
 40
1
 40
1
 40
1
 10
65.465639
 20
353.412933
 30
0.0
 10
66.394112
 20
353.949240
 30
0.0
 10
66.965765
 20
354.940308
 30
0.0
 10
66.965108
 20
356.012542
 30
0.0
  0
LWPOLYLINE
  5
11a
100
AcDbEntity
  8
0
 62
7
100
AcDbPolyline
 90
2
 70
1
 10
224.496562
 20
356.012542
 30
0.0
 10
224.496562
 20
356.012542
 30
0.0
  0
LWPOLYLINE
  5
11b
100
AcDbEntity
  8
0
 62
7
100
AcDbPolyline
 90
2
 70
1
 10
66.965108
 20
356.012542
 30
0.0
 10
66.965108
 20
356.012542
 30
0.0
  0
LWPOLYLINE
  5
11c
100
AcDbEntity
  8
0
 62
7
100
AcDbPolyline
 90
2
 70
0
 10
91.443229
 20
346.741458
 30
0.0
 10
89.812797
 20
341.909102
 30
0.0
  0
SPLINE
  5
11d
100
AcDbEntity
  8
0
 62
7
100
AcDbSpline
 70
8
 71
3
 72
8
 73
4
 74
0
 40
0
 40
0
 40
0
 40
0
 40
1
 40
1
 40
1
 40
1
 10
89.812797
 20
341.909102
 30
0.0
 10
91.767304
 20
341.249655
 30
0.0
 10
93.926599
 20
341.832507
 30
0.0
 10
95.283807
 20
343.385877
 30
0.0
  0
SPLINE
  5
11e
100
AcDbEntity
  8
0
 62
7
100
AcDbSpline
 70
8
 71
3
 72
8
 73
4
 74
0
 40
0
 40
0
 40
0
 40
0
 40
1
 40
1
 40
1
 40
1
 10
95.283807
 20
343.385877
 30
0.0
 10
96.641014
 20
344.939246
 30
0.0
 10
96.928855
 20
347.157223
 30
0.0
 10
96.013109
 20
349.005568
 30
0.0
  0
SPLINE
  5
11f
100
AcDbEntity
  8
0
 62
7
100
AcDbSpline
 70
8
 71
3
 72
8
 73
4
 74
0
 40
0
 40
0
 40
0
 40
0
 40
1
 40
1
 40
1
 40
1
 10
96.013109
 20
349.005568
 30
0.0
 10
95.097363
 20
350.853913
 30
0.0
 10
93.158372
 20
351.968626
 30
0.0
 10
91.100283
 20
351.829918
 30
0.0
  0
SPLINE
  5
120
100
AcDbEntity
  8
0
 62
7
100
AcDbSpline
 70
8
 71
3
 72
8
 73
4
 74
0
 40
0
 40
0
 40
0
 40
0
 40
1
 40
1
 40
1
 40
1
 10
91.100283
 20
351.829918
 30
0.0
 10
89.042194
 20
351.691210
 30
0.0
 10
87.270314
 20
350.326397
 30
0.0
 10
86.610867
 20
348.371889
 30
0.0
  0
SPLINE
  5
121
100
AcDbEntity
  8
0
 62
7
100
AcDbSpline
 70
8
 71
3
 72
8
 73
4
 74
0
 40
0
 40
0
 40
0
 40
0
 40
1
 40
1
 40
1
 40
1
 10
16.361457
 20
371.306074
 30
0.0
 10
15.708836
 20
369.274684
 30
0.0
 10
15.186913
 20
367.203603
 30
0.0
 10
14.798888
 20
365.105534
 30
0.0
  0
LWPOLYLINE
  5
122
100
AcDbEntity
  8
0
 62
7
100
AcDbPolyline
 90
2
 70
0
 10
86.610867
 20
348.371889
 30
0.0
 10
91.443229
 20
346.741458
 30
0.0
  0
LWPOLYLINE
  5
123
100
AcDbEntity
  8
0
 62
7
100
AcDbPolyline
 90
2
 70
0
 10
29.603175
 20
362.854879
 30
0.0
 10
14.798888
 20
365.105534
 30
0.0
  0
LWPOLYLINE
  5
124
100
AcDbEntity
  8
0
 62
7
100
AcDbPolyline
 90
2
 70
0
 10
29.122218
 20
359.691230
 30
0.0
 10
29.603175
 20
362.854879
 30
0.0
  0
SPLINE
  5
125
100
AcDbEntity
  8
0
 62
7
100
AcDbSpline
 70
8
 71
3
 72
8
 73
4
 74
0
 40
0
 40
0
 40
0
 40
0
 40
1
 40
1
 40
1
 40
1
 10
14.317925
 20
361.941885
 30
0.0
 10
14.064903
 20
359.823290
 30
0.0
 10
13.947750
 20
357.690671
 30
0.0
 10
13.967185
 20
355.557109
 30
0.0
  0
LWPOLYLINE
  5
126
100
AcDbEntity
  8
0
 62
7
100
AcDbPolyline
 90
2
 70
0
 10
14.317925
 20
361.941885
 30
0.0
 10
29.122218
 20
359.691230
 30
0.0
  0
LWPOLYLINE
  5
127
100
AcDbEntity
  8
0
 62
7
100
AcDbPolyline
 90
2
 70
0
 10
28.928924
 20
356.172596
 30
0.0
 10
13.967185
 20
355.557109
 30
0.0
  0
LWPOLYLINE
  5
128
100
AcDbEntity
  8
0
 62
7
100
AcDbPolyline
 90
2
 70
0
 10
29.060450
 20
352.975301
 30
0.0
 10
28.928924
 20
356.172596
 30
0.0
  0
SPLINE
  5
129
100
AcDbEntity
  8
0
 62
7
100
AcDbSpline
 70
8
 71
3
 72
8
 73
4
 74
0
 40
0
 40
0
 40
0
 40
0
 40
1
 40
1
 40
1
 40
1
 10
14.098712
 20
352.359814
 30
0.0
 10
14.254585
 20
350.231866
 30
0.0
 10
14.546506
 20
348.116078
 30
0.0
 10
14.972686
 20
346.025426
 30
0.0
  0
LWPOLYLINE
  5
12a
100
AcDbEntity
  8
0
 62
7
100
AcDbPolyline
 90
2
 70
0
 10
14.098712
 20
352.359814
 30
0.0
 10
29.060450
 20
352.975301
 30
0.0
  0
LWPOLYLINE
  5
12b
100
AcDbEntity
  8
0
 62
7
100
AcDbPolyline
 90
2
 70
0
 10
29.542097
 20
349.484438
 30
0.0
 10
14.972686
 20
346.025426
 30
0.0
  0
LWPOLYLINE
  5
12c
100
AcDbEntity
  8
0
 62
7
100
AcDbPolyline
 90
2
 70
0
 10
30.281282
 20
346.370985
 30
0.0
 10
29.542097
 20
349.484438
 30
0.0
  0
SPLINE
  5
12d
100
AcDbEntity
  8
0
 62
7
100
AcDbSpline
 70
8
 71
3
 72
8
 73
4
 74
0
 40
0
 40
0
 40
0
 40
0
 40
1
 40
1
 40
1
 40
1
 10
15.711871
 20
342.911968
 30
0.0
 10
22.897534
 20
316.445073
 30
0.0
 10
50.061585
 20
300.705921
 30
0.0
 10
76.596945
 20
307.634483
 30
0.0
  0
SPLINE
  5
12e
100
AcDbEntity
  8
0
 62
7
100
AcDbSpline
 70
8
 71
3
 72
8
 73
4
 74
0
 40
0
 40
0
 40
0
 40
0
 40
1
 40
1
 40
1
 40
1
 10
76.596945
 20
307.634483
 30
0.0
 10
103.132305
 20
314.563044
 30
0.0
 10
119.134243
 20
341.573126
 30
0.0
 10
112.463436
 20
368.174453
 30
0.0
  0
SPLINE
  5
12f
100
AcDbEntity
  8
0
 62
7
100
AcDbSpline
 70
8
 71
3
 72
8
 73
4
 74
0
 40
0
 40
0
 40
0
 40
0
 40
1
 40
1
 40
1
 40
1
 10
112.463436
 20
368.174453
 30
0.0
 10
105.792629
 20
394.775780
 30
0.0
 10
78.939058
 20
411.038998
 30
0.0
 10
52.274267
 20
404.626573
 30
0.0
  0
LWPOLYLINE
  5
130
100
AcDbEntity
  8
0
 62
7
100
AcDbPolyline
 90
2
 70
0
 10
15.711871
 20
342.911968
 30
0.0
 10
30.281282
 20
346.370985
 30
0.0
  0
LWPOLYLINE
  5
131
100
AcDbEntity
  8
0
 62
7
100
AcDbPolyline
 90
2
 70
0
 10
56.239636
 20
390.186758
 30
0.0
 10
52.274267
 20
404.626573
 30
0.0
  0
LWPOLYLINE
  5
132
100
AcDbEntity
  8
0
 62
7
100
AcDbPolyline
 90
2
 70
0
 10
53.153874
 20
389.339363
 30
0.0
 10
56.239636
 20
390.186758
 30
0.0
  0
SPLINE
  5
133
100
AcDbEntity
  8
0
 62
7
100
AcDbSpline
 70
8
 71
3
 72
8
 73
4
 74
0
 40
0
 40
0
 40
0
 40
0
 40
1
 40
1
 40
1
 40
1
 10
49.188505
 20
403.779184
 30
0.0
 10
47.150160
 20
403.148621
 30
0.0
 10
45.154266
 20
402.388231
 30
0.0
 10
43.213065
 20
401.502678
 30
0.0
  0
LWPOLYLINE
  5
134
100
AcDbEntity
  8
0
 62
7
100
AcDbPolyline
 90
2
 70
0
 10
49.188505
 20
403.779184
 30
0.0
 10
53.153874
 20
389.339363
 30
0.0
  0
LWPOLYLINE
  5
135
100
AcDbEntity
  8
0
 62
7
100
AcDbPolyline
 90
2
 70
0
 10
49.860827
 20
388.084789
 30
0.0
 10
43.213065
 20
401.502678
 30
0.0
  0
LWPOLYLINE
  5
136
100
AcDbEntity
  8
0
 62
7
100
AcDbPolyline
 90
2
 70
0
 10
46.993449
 20
386.664179
 30
0.0
 10
49.860827
 20
388.084789
 30
0.0
  0
SPLINE
  5
137
100
AcDbEntity
  8
0
 62
7
100
AcDbSpline
 70
8
 71
3
 72
8
 73
4
 74
0
 40
0
 40
0
 40
0
 40
0
 40
1
 40
1
 40
1
 40
1
 10
40.345687
 20
400.082067
 30
0.0
 10
38.465109
 20
399.074155
 30
0.0
 10
36.650975
 20
397.946901
 30
0.0
 10
34.914411
 20
396.707220
 30
0.0
  0
LWPOLYLINE
  5
138
100
AcDbEntity
  8
0
 62
7
100
AcDbPolyline
 90
2
 70
0
 10
40.345687
 20
400.082067
 30
0.0
 10
46.993449
 20
386.664179
 30
0.0
  0
LWPOLYLINE
  5
139
100
AcDbEntity
  8
0
 62
7
100
AcDbPolyline
 90
2
 70
0
 10
44.000290
 20
384.804312
 30
0.0
 10
34.914411
 20
396.707220
 30
0.0
  0
LWPOLYLINE
  5
13a
100
AcDbEntity
  8
0
 62
7
100
AcDbPolyline
 90
2
 70
0
 10
41.456661
 20
382.862674
 30
0.0
 10
44.000290
 20
384.804312
 30
0.0
  0
SPLINE
  5
13b
100
AcDbEntity
  8
0
 62
7
100
AcDbSpline
 70
8
 71
3
 72
8
 73
4
 74
0
 40
0
 40
0
 40
0
 40
0
 40
1
 40
1
 40
1
 40
1
 10
32.370782
 20
394.765588
 30
0.0
 10
30.717072
 20
393.417362
 30
0.0
 10
29.151358
 20
391.964665
 30
0.0
 10
27.683241
 20
390.416408
 30
0.0
  0
LWPOLYLINE
  5
13c
100
AcDbEntity
  8
0
 62
7
100
AcDbPolyline
 90
2
 70
0
 10
32.370782
 20
394.765588
 30
0.0
 10
41.456661
 20
382.862674
 30
0.0
  0
LWPOLYLINE
  5
13d
100
AcDbEntity
  8
0
 62
7
100
AcDbPolyline
 90
2
 70
0
 10
38.873368
 20
380.465856
 30
0.0
 10
27.683241
 20
390.416408
 30
0.0
  0
LWPOLYLINE
  5
13e
100
AcDbEntity
  8
0
 62
7
100
AcDbPolyline
 90
2
 70
0
 10
36.746953
 20
378.074548
 30
0.0
 10
38.873368
 20
380.465856
 30
0.0
  0
SPLINE
  5
13f
100
AcDbEntity
  8
0
 62
7
100
AcDbSpline
 70
8
 71
3
 72
8
 73
4
 74
0
 40
0
 40
0
 40
0
 40
0
 40
1
 40
1
 40
1
 40
1
 10
25.556827
 20
388.025099
 30
0.0
 10
24.190756
 20
386.386104
 30
0.0
 10
22.930997
 20
384.661348
 30
0.0
 10
21.785277
 20
382.861409
 30
0.0
  0
LWPOLYLINE
  5
140
100
AcDbEntity
  8
0
 62
7
100
AcDbPolyline
 90
2
 70
0
 10
25.556827
 20
388.025099
 30
0.0
 10
36.746953
 20
378.074548
 30
0.0
  0
LWPOLYLINE
  5
141
100
AcDbEntity
  8
0
 62
7
100
AcDbPolyline
 90
2
 70
0
 10
34.668466
 20
375.228850
 30
0.0
 10
21.785277
 20
382.861409
 30
0.0
  0
LWPOLYLINE
  5
142
100
AcDbEntity
  8
0
 62
7
100
AcDbPolyline
 90
2
 70
0
 10
33.037402
 20
372.475739
 30
0.0
 10
34.668466
 20
375.228850
 30
0.0
  0
SPLINE
  5
143
100
AcDbEntity
  8
0
 62
7
100
AcDbSpline
 70
8
 71
3
 72
8
 73
4
 74
0
 40
0
 40
0
 40
0
 40
0
 40
1
 40
1
 40
1
 40
1
 10
20.154213
 20
380.108292
 30
0.0
 10
19.125974
 20
378.238750
 30
0.0
 10
18.218458
 20
376.305308
 30
0.0
 10
17.437231
 20
374.319824
 30
0.0
  0
LWPOLYLINE
  5
144
100
AcDbEntity
  8
0
 62
7
100
AcDbPolyline
 90
2
 70
0
 10
20.154213
 20
380.108292
 30
0.0
 10
33.037402
 20
372.475739
 30
0.0
  0
LWPOLYLINE
  5
145
100
AcDbEntity
  8
0
 62
7
100
AcDbPolyline
 90
2
 70
0
 10
31.540083
 20
369.285730
 30
0.0
 10
17.437231
 20
374.319824
 30
0.0
  0
LWPOLYLINE
  5
146
100
AcDbEntity
  8
0
 62
7
100
AcDbPolyline
 90
2
 70
0
 10
30.464303
 20
366.271975
 30
0.0
 10
31.540083
 20
369.285730
 30
0.0
  0
LWPOLYLINE
  5
147
100
AcDbEntity
  8
0
 62
7
100
AcDbPolyline
 90
2
 70
0
 10
16.361457
 20
371.306074
 30
0.0
 10
30.464303
 20
366.271975
 30
0.0
  0
LWPOLYLINE
  5
148
100
AcDbEntity
  8
0
 62
7
100
AcDbPolyline
 90
9
 70
0
 10
-29.869892
 20
357.073337
 30
0.0
 10
-26.330395
 20
359.633047
 30
0.0
 10
-26.797100
 20
361.332561
 30
0.0
 10
-31.147467
 20
361.725606
 30
0.0
 10
-33.721847
 20
360.513665
 30
0.0
 10
-35.474814
 20
363.176663
 30
0.0
 10
-33.343805
 20
365.062139
 30
0.0
 10
-31.984848
 20
369.213447
 30
0.0
 10
-33.361376
 20
370.314058
 30
0.0
  0
LWPOLYLINE
  5
149
100
AcDbEntity
  8
0
 62
7
100
AcDbPolyline
 90
12
 70
0
 10
-60.413626
 20
362.885145
 30
0.0
 10
-61.035001
 20
361.235878
 30
0.0
 10
-57.746508
 20
358.360823
 30
0.0
 10
-54.951430
 20
357.828118
 30
0.0
 10
-55.098518
 20
354.643336
 30
0.0
 10
-57.930799
 20
354.370534
 30
0.0
 10
-61.470294
 20
351.810829
 30
0.0
 10
-61.003584
 20
350.111310
 30
0.0
 10
-56.653224
 20
349.718270
 30
0.0
 10
-54.078844
 20
350.930211
 30
0.0
 10
-52.325871
 20
348.267208
 30
0.0
 10
-54.456886
 20
346.381732
 30
0.0
  0
LWPOLYLINE
  5
14a
100
AcDbEntity
  8
0
 62
7
100
AcDbPolyline
 90
2
 70
0
 10
-54.439315
 20
341.129813
 30
0.0
 10
-50.688773
 20
343.368914
 30
0.0
  0
LWPOLYLINE
  5
14b
100
AcDbEntity
  8
0
 62
7
100
AcDbPolyline
 90
2
 70
0
 10
-49.318415
 20
345.862573
 30
0.0
 10
-46.334962
 20
344.738532
 30
0.0
  0
LWPOLYLINE
  5
14c
100
AcDbEntity
  8
0
 62
7
100
AcDbPolyline
 90
19
 70
0
 10
-46.950734
 20
341.960574
 30
0.0
 10
-45.610074
 20
337.803322
 30
0.0
 10
-43.849516
 20
337.722008
 30
0.0
 10
-42.131375
 20
341.737991
 30
0.0
 10
-42.488471
 20
344.560885
 30
0.0
 10
-39.414111
 20
345.405147
 30
0.0
 10
-38.279437
 20
342.795788
 30
0.0
 10
-34.751247
 20
340.220516
 30
0.0
 10
-33.279131
 20
341.189565
 30
0.0
 10
-34.249659
 20
345.448462
 30
0.0
 10
-36.197811
 20
347.522333
 30
0.0
 10
-34.206846
 20
350.012419
 30
0.0
 10
-31.755131
 20
348.568350
 30
0.0
 10
-27.387063
 20
348.558754
 30
0.0
 10
-26.765689
 20
350.207993
 30
0.0
 10
-30.054183
 20
353.083053
 30
0.0
 10
-32.849261
 20
353.615753
 30
0.0
 10
-32.702173
 20
356.800535
 30
0.0
 10
-29.869892
 20
357.073337
 30
0.0
  0
LWPOLYLINE
  5
14d
100
AcDbEntity
  8
0
 62
7
100
AcDbPolyline
 90
2
 70
0
 10
-53.593839
 20
361.431452
 30
0.0
 10
-56.045554
 20
362.875527
 30
0.0
  0
LWPOLYLINE
  5
14e
100
AcDbEntity
  8
0
 62
7
100
AcDbPolyline
 90
2
 70
0
 10
-51.602874
 20
363.921538
 30
0.0
 10
-53.593839
 20
361.431452
 30
0.0
  0
LWPOLYLINE
  5
14f
100
AcDbEntity
  8
0
 62
7
100
AcDbPolyline
 90
2
 70
0
 10
-53.551026
 20
365.995409
 30
0.0
 10
-51.602874
 20
363.921538
 30
0.0
  0
LWPOLYLINE
  5
150
100
AcDbEntity
  8
0
 62
7
100
AcDbPolyline
 90
2
 70
0
 10
-54.521560
 20
370.254311
 30
0.0
 10
-53.551026
 20
365.995409
 30
0.0
  0
LWPOLYLINE
  5
151
100
AcDbEntity
  8
0
 62
7
100
AcDbPolyline
 90
2
 70
0
 10
-53.049444
 20
371.223355
 30
0.0
 10
-54.521560
 20
370.254311
 30
0.0
  0
LWPOLYLINE
  5
152
100
AcDbEntity
  8
0
 62
7
100
AcDbPolyline
 90
2
 70
0
 10
-49.521254
 20
368.648089
 30
0.0
 10
-53.049444
 20
371.223355
 30
0.0
  0
LWPOLYLINE
  5
153
100
AcDbEntity
  8
0
 62
7
100
AcDbPolyline
 90
2
 70
0
 10
-48.386579
 20
366.038730
 30
0.0
 10
-49.521254
 20
368.648089
 30
0.0
  0
LWPOLYLINE
  5
154
100
AcDbEntity
  8
0
 62
7
100
AcDbPolyline
 90
2
 70
0
 10
-45.312223
 20
366.882992
 30
0.0
 10
-48.386579
 20
366.038730
 30
0.0
  0
LWPOLYLINE
  5
155
100
AcDbEntity
  8
0
 62
7
100
AcDbPolyline
 90
2
 70
0
 10
-45.669319
 20
369.705880
 30
0.0
 10
-45.312223
 20
366.882992
 30
0.0
  0
SPLINE
  5
156
100
AcDbEntity
  8
0
 62
7
100
AcDbSpline
 70
8
 71
3
 72
8
 73
4
 74
0
 40
0
 40
0
 40
0
 40
0
 40
1
 40
1
 40
1
 40
1
 10
-14.263024
 20
351.071226
 30
0.0
 10
-16.037345
 20
351.900407
 30
0.0
 10
-18.129765
 20
351.640274
 30
0.0
 10
-19.647042
 20
350.401878
 30
0.0
  0
SPLINE
  5
157
100
AcDbEntity
  8
0
 62
7
100
AcDbSpline
 70
8
 71
3
 72
8
 73
4
 74
0
 40
0
 40
0
 40
0
 40
0
 40
1
 40
1
 40
1
 40
1
 10
-19.647042
 20
350.401878
 30
0.0
 10
-21.164318
 20
349.163482
 30
0.0
 10
-21.838398
 20
347.165606
 30
0.0
 10
-21.381520
 20
345.261133
 30
0.0
  0
SPLINE
  5
158
100
AcDbEntity
  8
0
 62
7
100
AcDbSpline
 70
8
 71
3
 72
8
 73
4
 74
0
 40
0
 40
0
 40
0
 40
0
 40
1
 40
1
 40
1
 40
1
 10
-21.381520
 20
345.261133
 30
0.0
 10
-20.924641
 20
343.356661
 30
0.0
 10
-19.417521
 20
341.882050
 30
0.0
 10
-17.503539
 20
341.466804
 30
0.0
  0
LWPOLYLINE
  5
159
100
AcDbEntity
  8
0
 62
7
100
AcDbPolyline
 90
2
 70
0
 10
-46.334962
 20
344.738532
 30
0.0
 10
-46.950734
 20
341.960574
 30
0.0
  0
LWPOLYLINE
  5
15a
100
AcDbEntity
  8
0
 62
7
100
AcDbPolyline
 90
2
 70
0
 10
-50.688773
 20
343.368914
 30
0.0
 10
-49.318415
 20
345.862573
 30
0.0
  0
LWPOLYLINE
  5
15b
100
AcDbEntity
  8
0
 62
7
100
AcDbPolyline
 90
2
 70
0
 10
-41.465731
 20
366.705339
 30
0.0
 10
-40.849956
 20
369.483303
 30
0.0
  0
LWPOLYLINE
  5
15c
100
AcDbEntity
  8
0
 62
7
100
AcDbPolyline
 90
2
 70
0
 10
-55.815842
 20
342.230423
 30
0.0
 10
-54.439315
 20
341.129813
 30
0.0
  0
LWPOLYLINE
  5
15d
100
AcDbEntity
  8
0
 62
7
100
AcDbPolyline
 90
2
 70
0
 10
-54.456886
 20
346.381732
 30
0.0
 10
-55.815842
 20
342.230423
 30
0.0
  0
LWPOLYLINE
  5
15e
100
AcDbEntity
  8
0
 62
7
100
AcDbPolyline
 90
3
 70
0
 10
-33.361376
 20
370.314058
 30
0.0
 10
-37.111917
 20
368.074963
 30
0.0
 10
-38.482276
 20
365.581298
 30
0.0
  0
LWPOLYLINE
  5
15f
100
AcDbEntity
  8
0
 62
7
100
AcDbPolyline
 90
2
 70
0
 10
-43.951172
 20
373.721863
 30
0.0
 10
-45.669319
 20
369.705880
 30
0.0
  0
LWPOLYLINE
  5
160
100
AcDbEntity
  8
0
 62
7
100
AcDbPolyline
 90
2
 70
0
 10
-42.190619
 20
373.640555
 30
0.0
 10
-43.951172
 20
373.721863
 30
0.0
  0
LWPOLYLINE
  5
161
100
AcDbEntity
  8
0
 62
7
100
AcDbPolyline
 90
2
 70
0
 10
-40.849956
 20
369.483303
 30
0.0
 10
-42.190619
 20
373.640555
 30
0.0
  0
LWPOLYLINE
  5
162
100
AcDbEntity
  8
0
 62
7
100
AcDbPolyline
 90
2
 70
0
 10
-56.045554
 20
362.875527
 30
0.0
 10
-60.413626
 20
362.885122
 30
0.0
  0
SPLINE
  5
163
100
AcDbEntity
  8
0
 62
7
100
AcDbSpline
 70
8
 71
3
 72
8
 73
4
 74
0
 40
0
 40
0
 40
0
 40
0
 40
1
 40
1
 40
1
 40
1
 10
-14.263024
 20
351.071226
 30
0.0
 10
-11.847349
 20
366.465511
 30
0.0
 10
-21.619814
 20
381.146267
 30
0.0
 10
-36.753893
 20
384.858294
 30
0.0
  0
SPLINE
  5
164
100
AcDbEntity
  8
0
 62
7
100
AcDbSpline
 70
8
 71
3
 72
8
 73
4
 74
0
 40
0
 40
0
 40
0
 40
0
 40
1
 40
1
 40
1
 40
1
 10
-36.753893
 20
384.858294
 30
0.0
 10
-51.887972
 20
388.570322
 30
0.0
 10
-67.344338
 20
380.077596
 30
0.0
 10
-72.325993
 20
365.312684
 30
0.0
  0
SPLINE
  5
165
100
AcDbEntity
  8
0
 62
7
100
AcDbSpline
 70
8
 71
3
 72
8
 73
4
 74
0
 40
0
 40
0
 40
0
 40
0
 40
1
 40
1
 40
1
 40
1
 10
-72.325993
 20
365.312684
 30
0.0
 10
-77.307647
 20
350.547773
 30
0.0
 10
-70.155805
 20
334.427078
 30
0.0
 10
-55.866365
 20
328.211663
 30
0.0
  0
SPLINE
  5
166
100
AcDbEntity
  8
0
 62
7
100
AcDbSpline
 70
8
 71
3
 72
8
 73
4
 74
0
 40
0
 40
0
 40
0
 40
0
 40
1
 40
1
 40
1
 40
1
 10
-55.866365
 20
328.211663
 30
0.0
 10
-41.576924
 20
321.996248
 30
0.0
 10
-24.907965
 20
327.755714
 30
0.0
 10
-17.503539
 20
341.466804
 30
0.0
  0
LWPOLYLINE
  5
167
100
AcDbEntity
  8
0
 62
7
100
AcDbPolyline
 90
2
 70
0
 10
-38.482276
 20
365.581298
 30
0.0
 10
-41.465731
 20
366.705339
 30
0.0
  0
SPLINE
  5
168
100
AcDbEntity
  8
0
 62
7
100
AcDbSpline
 70
8
 71
3
 72
8
 73
4
 74
0
 40
0
 40
0
 40
0
 40
0
 40
1
 40
1
 40
1
 40
1
 10
-40.900344
 20
355.721938
 30
0.0
 10
-40.899113
 20
356.794554
 30
0.0
 10
-41.470640
 20
357.786220
 30
0.0
 10
-42.399349
 20
358.322884
 30
0.0
  0
SPLINE
  5
169
100
AcDbEntity
  8
0
 62
7
100
AcDbSpline
 70
8
 71
3
 72
8
 73
4
 74
0
 40
0
 40
0
 40
0
 40
0
 40
1
 40
1
 40
1
 40
1
 10
-42.399349
 20
358.322884
 30
0.0
 10
-43.328057
 20
358.859547
 30
0.0
 10
-44.472628
 20
358.859547
 30
0.0
 10
-45.401336
 20
358.322884
 30
0.0
  0
SPLINE
  5
16a
100
AcDbEntity
  8
0
 62
7
100
AcDbSpline
 70
8
 71
3
 72
8
 73
4
 74
0
 40
0
 40
0
 40
0
 40
0
 40
1
 40
1
 40
1
 40
1
 10
-45.401336
 20
358.322884
 30
0.0
 10
-46.330045
 20
357.786220
 30
0.0
 10
-46.901572
 20
356.794554
 30
0.0
 10
-46.900341
 20
355.721938
 30
0.0
  0
SPLINE
  5
16b
100
AcDbEntity
  8
0
 62
7
100
AcDbSpline
 70
8
 71
3
 72
8
 73
4
 74
0
 40
0
 40
0
 40
0
 40
0
 40
1
 40
1
 40
1
 40
1
 10
-46.900341
 20
355.721938
 30
0.0
 10
-46.901572
 20
354.649322
 30
0.0
 10
-46.330045
 20
353.657657
 30
0.0
 10
-45.401336
 20
353.120993
 30
0.0
  0
SPLINE
  5
16c
100
AcDbEntity
  8
0
 62
7
100
AcDbSpline
 70
8
 71
3
 72
8
 73
4
 74
0
 40
0
 40
0
 40
0
 40
0
 40
1
 40
1
 40
1
 40
1
 10
-45.401336
 20
353.120993
 30
0.0
 10
-44.472628
 20
352.584329
 30
0.0
 10
-43.328057
 20
352.584329
 30
0.0
 10
-42.399349
 20
353.120993
 30
0.0
  0
SPLINE
  5
16d
100
AcDbEntity
  8
0
 62
7
100
AcDbSpline
 70
8
 71
3
 72
8
 73
4
 74
0
 40
0
 40
0
 40
0
 40
0
 40
1
 40
1
 40
1
 40
1
 10
-42.399349
 20
353.120993
 30
0.0
 10
-41.470640
 20
353.657657
 30
0.0
 10
-40.899113
 20
354.649322
 30
0.0
 10
-40.900344
 20
355.721938
 30
0.0
  0
LWPOLYLINE
  5
16e
100
AcDbEntity
  8
0
 62
7
100
AcDbPolyline
 90
2
 70
0
 10
-51.625813
 20
389.896154
 30
0.0
 10
-54.233547
 20
389.180032
 30
0.0
  0
LWPOLYLINE
  5
16f
100
AcDbEntity
  8
0
 62
7
100
AcDbPolyline
 90
2
 70
1
 10
-40.900344
 20
355.721938
 30
0.0
 10
-40.900344
 20
355.721938
 30
0.0
  0
SPLINE
  5
170
100
AcDbEntity
  8
0
 62
7
100
AcDbSpline
 70
8
 71
3
 72
8
 73
4
 74
0
 40
0
 40
0
 40
0
 40
0
 40
1
 40
1
 40
1
 40
1
 10
-38.952695
 20
322.575278
 30
0.0
 10
-37.611746
 20
323.484053
 30
0.0
 10
-36.782264
 20
324.975819
 30
0.0
 10
-36.717890
 20
326.594421
 30
0.0
  0
SPLINE
  5
171
100
AcDbEntity
  8
0
 62
7
100
AcDbSpline
 70
8
 71
3
 72
8
 73
4
 74
0
 40
0
 40
0
 40
0
 40
0
 40
1
 40
1
 40
1
 40
1
 10
-32.718920
 20
324.128330
 30
0.0
 10
-31.576010
 20
325.276272
 30
0.0
 10
-31.046410
 20
326.898901
 30
0.0
 10
-31.292061
 20
328.500047
 30
0.0
  0
LWPOLYLINE
  5
172
100
AcDbEntity
  8
0
 62
7
100
AcDbPolyline
 90
2
 70
0
 10
-38.952695
 20
322.575278
 30
0.0
 10
-41.169624
 20
325.846475
 30
0.0
  0
SPLINE
  5
173
100
AcDbEntity
  8
0
 62
7
100
AcDbSpline
 70
8
 71
3
 72
8
 73
4
 74
0
 40
0
 40
0
 40
0
 40
0
 40
1
 40
1
 40
1
 40
1
 10
-26.896008
 20
326.842308
 30
0.0
 10
-25.993132
 20
328.187237
 30
0.0
 10
-25.782874
 20
329.881108
 30
0.0
 10
-26.329526
 20
331.405965
 30
0.0
  0
LWPOLYLINE
  5
174
100
AcDbEntity
  8
0
 62
7
100
AcDbPolyline
 90
2
 70
0
 10
-26.896008
 20
326.842308
 30
0.0
 10
-30.176916
 20
329.044838
 30
0.0
  0
SPLINE
  5
175
100
AcDbEntity
  8
0
 62
7
100
AcDbSpline
 70
8
 71
3
 72
8
 73
4
 74
0
 40
0
 40
0
 40
0
 40
0
 40
1
 40
1
 40
1
 40
1
 10
-21.697932
 20
330.617493
 30
0.0
 10
-21.068273
 20
332.109988
 30
0.0
 10
-21.185085
 20
333.812854
 30
0.0
 10
-22.012649
 20
335.205387
 30
0.0
  0
LWPOLYLINE
  5
176
100
AcDbEntity
  8
0
 62
7
100
AcDbPolyline
 90
2
 70
0
 10
-21.697932
 20
330.617493
 30
0.0
 10
-25.338824
 20
332.153527
 30
0.0
  0
SPLINE
  5
177
100
AcDbEntity
  8
0
 62
7
100
AcDbSpline
 70
8
 71
3
 72
8
 73
4
 74
0
 40
0
 40
0
 40
0
 40
0
 40
1
 40
1
 40
1
 40
1
 10
-17.315698
 20
335.315149
 30
0.0
 10
-16.982387
 20
336.900369
 30
0.0
 10
-17.421975
 20
338.549661
 30
0.0
 10
-18.500043
 20
339.758704
 30
0.0
  0
LWPOLYLINE
  5
178
100
AcDbEntity
  8
0
 62
7
100
AcDbPolyline
 90
2
 70
0
 10
-17.315698
 20
335.315149
 30
0.0
 10
-21.182786
 20
336.128248
 30
0.0
  0
SPLINE
  5
179
100
AcDbEntity
  8
0
 62
7
100
AcDbSpline
 70
8
 71
3
 72
8
 73
4
 74
0
 40
0
 40
0
 40
0
 40
0
 40
1
 40
1
 40
1
 40
1
 10
-13.910337
 20
340.762670
 30
0.0
 10
-13.885623
 20
342.382364
 30
0.0
 10
-14.631834
 20
343.917478
 30
0.0
 10
-15.920792
 20
344.898603
 30
0.0
  0
SPLINE
  5
17a
100
AcDbEntity
  8
0
 62
7
100
AcDbSpline
 70
8
 71
3
 72
8
 73
4
 74
0
 40
0
 40
0
 40
0
 40
0
 40
1
 40
1
 40
1
 40
1
 10
-11.606974
 20
346.759876
 30
0.0
 10
-11.891768
 20
348.354525
 30
0.0
 10
-12.917182
 20
349.719050
 30
0.0
 10
-14.369665
 20
350.436204
 30
0.0
  0
SPLINE
  5
17b
100
AcDbEntity
  8
0
 62
7
100
AcDbSpline
 70
8
 71
3
 72
8
 73
4
 74
0
 40
0
 40
0
 40
0
 40
0
 40
1
 40
1
 40
1
 40
1
 10
-14.369665
 20
350.436204
 30
0.0
 10
-14.296766
 20
350.843479
 30
0.0
 10
-14.232300
 20
351.252219
 30
0.0
 10
-14.176309
 20
351.662160
 30
0.0
  0
LWPOLYLINE
  5
17c
100
AcDbEntity
  8
0
 62
7
100
AcDbPolyline
 90
2
 70
0
 10
-13.910337
 20
340.762670
 30
0.0
 10
-17.861521
 20
340.822959
 30
0.0
  0
SPLINE
  5
17d
100
AcDbEntity
  8
0
 62
7
100
AcDbSpline
 70
8
 71
3
 72
8
 73
4
 74
0
 40
0
 40
0
 40
0
 40
0
 40
1
 40
1
 40
1
 40
1
 10
-51.729919
 20
323.135467
 30
0.0
 10
-50.146179
 20
323.475739
 30
0.0
 10
-48.818271
 20
324.548150
 30
0.0
 10
-48.152245
 20
326.024778
 30
0.0
  0
LWPOLYLINE
  5
17e
100
AcDbEntity
  8
0
 62
7
100
AcDbPolyline
 90
2
 70
0
 10
-51.729919
 20
323.135467
 30
0.0
 10
-52.560003
 20
326.998947
 30
0.0
  0
SPLINE
  5
17f
100
AcDbEntity
  8
0
 62
7
100
AcDbSpline
 70
8
 71
3
 72
8
 73
4
 74
0
 40
0
 40
0
 40
0
 40
0
 40
1
 40
1
 40
1
 40
1
 10
-45.368278
 20
322.240218
 30
0.0
 10
-43.878565
 20
322.876432
 30
0.0
 10
-42.779683
 20
324.182515
 30
0.0
 10
-42.407648
 20
325.759094
 30
0.0
  0
SPLINE
  5
180
100
AcDbEntity
  8
0
 62
7
100
AcDbSpline
 70
8
 71
3
 72
8
 73
4
 74
0
 40
0
 40
0
 40
0
 40
0
 40
1
 40
1
 40
1
 40
1
 10
-14.422294
 20
315.335748
 30
0.0
 10
7.197276
 20
331.115967
 30
0.0
 10
12.555380
 20
361.122998
 30
0.0
 10
-2.266788
 20
383.410313
 30
0.0
  0
SPLINE
  5
181
100
AcDbEntity
  8
0
 62
7
100
AcDbSpline
 70
8
 71
3
 72
8
 73
4
 74
0
 40
0
 40
0
 40
0
 40
0
 40
1
 40
1
 40
1
 40
1
 10
-2.266788
 20
383.410313
 30
0.0
 10
-17.088955
 20
405.697629
 30
0.0
 10
-46.833708
 20
412.359522
 30
0.0
 10
-69.746346
 20
398.523621
 30
0.0
  0
SPLINE
  5
182
100
AcDbEntity
  8
0
 62
7
100
AcDbSpline
 70
8
 71
3
 72
8
 73
4
 74
0
 40
0
 40
0
 40
0
 40
0
 40
1
 40
1
 40
1
 40
1
 10
-69.746346
 20
398.523621
 30
0.0
 10
-92.658983
 20
384.687720
 30
0.0
 10
-100.611983
 20
355.261865
 30
0.0
 10
-87.788686
 20
331.767522
 30
0.0
  0
SPLINE
  5
183
100
AcDbEntity
  8
0
 62
7
100
AcDbSpline
 70
8
 71
3
 72
8
 73
4
 74
0
 40
0
 40
0
 40
0
 40
0
 40
1
 40
1
 40
1
 40
1
 10
-87.788686
 20
331.767522
 30
0.0
 10
-74.965389
 20
308.273179
 30
0.0
 10
-45.914446
 20
299.044210
 30
0.0
 10
-21.883120
 20
310.830493
 30
0.0
  0
LWPOLYLINE
  5
184
100
AcDbEntity
  8
0
 62
7
100
AcDbPolyline
 90
2
 70
0
 10
-45.368278
 20
322.240218
 30
0.0
 10
-46.920294
 20
325.874325
 30
0.0
  0
SPLINE
  5
185
100
AcDbEntity
  8
0
 62
7
100
AcDbSpline
 70
8
 71
3
 72
8
 73
4
 74
0
 40
0
 40
0
 40
0
 40
0
 40
1
 40
1
 40
1
 40
1
 10
-13.173991
 20
310.105154
 30
0.0
 10
-12.723193
 20
310.408800
 30
0.0
 10
-12.415393
 20
310.882840
 30
0.0
 10
-12.321427
 20
311.418181
 30
0.0
  0
SPLINE
  5
186
100
AcDbEntity
  8
0
 62
7
100
AcDbSpline
 70
8
 71
3
 72
8
 73
4
 74
0
 40
0
 40
0
 40
0
 40
0
 40
1
 40
1
 40
1
 40
1
 10
-12.321427
 20
311.418181
 30
0.0
 10
-12.227461
 20
311.953521
 30
0.0
 10
-12.355422
 20
312.504050
 30
0.0
 10
-12.675863
 20
312.943068
 30
0.0
  0
SPLINE
  5
187
100
AcDbEntity
  8
0
 62
7
100
AcDbSpline
 70
8
 71
3
 72
8
 73
4
 74
0
 40
0
 40
0
 40
0
 40
0
 40
1
 40
1
 40
1
 40
1
 10
-17.835229
 20
307.290445
 30
0.0
 10
-16.235964
 20
308.151146
 30
0.0
 10
-14.680312
 20
309.090533
 30
0.0
 10
-13.173991
 20
310.105154
 30
0.0
  0
SPLINE
  5
188
100
AcDbEntity
  8
0
 62
7
100
AcDbSpline
 70
8
 71
3
 72
8
 73
4
 74
0
 40
0
 40
0
 40
0
 40
0
 40
1
 40
1
 40
1
 40
1
 10
-20.578706
 20
308.170899
 30
0.0
 10
-20.339368
 20
307.682908
 30
0.0
 10
-19.911727
 20
307.313343
 30
0.0
 10
-19.394201
 20
307.147255
 30
0.0
  0
SPLINE
  5
189
100
AcDbEntity
  8
0
 62
7
100
AcDbSpline
 70
8
 71
3
 72
8
 73
4
 74
0
 40
0
 40
0
 40
0
 40
0
 40
1
 40
1
 40
1
 40
1
 10
-19.394201
 20
307.147255
 30
0.0
 10
-18.876676
 20
306.981168
 30
0.0
 10
-18.313842
 20
307.032863
 30
0.0
 10
-17.835229
 20
307.290445
 30
0.0
  0
LWPOLYLINE
  5
18a
100
AcDbEntity
  8
0
 62
7
100
AcDbPolyline
 90
2
 70
0
 10
-14.422294
 20
315.335748
 30
0.0
 10
-12.675863
 20
312.943068
 30
0.0
  0
SPLINE
  5
18b
100
AcDbEntity
  8
0
 62
7
100
AcDbSpline
 70
8
 71
3
 72
8
 73
4
 74
0
 40
0
 40
0
 40
0
 40
0
 40
1
 40
1
 40
1
 40
1
 10
-61.574197
 20
397.105927
 30
0.0
 10
-73.302783
 20
392.097002
 30
0.0
 10
-82.355161
 20
382.346660
 30
0.0
 10
-86.480760
 20
370.278998
 30
0.0
  0
SPLINE
  5
18c
100
AcDbEntity
  8
0
 62
7
100
AcDbSpline
 70
8
 71
3
 72
8
 73
4
 74
0
 40
0
 40
0
 40
0
 40
0
 40
1
 40
1
 40
1
 40
1
 10
-86.480760
 20
370.278998
 30
0.0
 10
-90.606360
 20
358.211335
 30
0.0
 10
-89.417667
 20
344.959855
 30
0.0
 10
-83.210211
 20
333.819095
 30
0.0
  0
LWPOLYLINE
  5
18d
100
AcDbEntity
  8
0
 62
7
100
AcDbPolyline
 90
2
 70
0
 10
-20.578706
 20
308.170899
 30
0.0
 10
-21.883120
 20
310.830493
 30
0.0
  0
SPLINE
  5
18e
100
AcDbEntity
  8
0
 62
7
100
AcDbSpline
 70
8
 71
3
 72
8
 73
4
 74
0
 40
0
 40
0
 40
0
 40
0
 40
1
 40
1
 40
1
 40
1
 10
-61.995849
 20
391.394793
 30
0.0
 10
-71.697553
 20
386.473482
 30
0.0
 10
-78.976366
 20
377.813001
 30
0.0
 10
-82.154866
 20
367.409179
 30
0.0
  0
SPLINE
  5
18f
100
AcDbEntity
  8
0
 62
7
100
AcDbSpline
 70
8
 71
3
 72
8
 73
4
 74
0
 40
0
 40
0
 40
0
 40
0
 40
1
 40
1
 40
1
 40
1
 10
-82.154866
 20
367.409179
 30
0.0
 10
-85.333366
 20
357.005357
 30
0.0
 10
-84.137351
 20
345.755708
 30
0.0
 10
-78.842447
 20
336.252742
 30
0.0
  0
SPLINE
  5
190
100
AcDbEntity
  8
0
 62
7
100
AcDbSpline
 70
8
 71
3
 72
8
 73
4
 74
0
 40
0
 40
0
 40
0
 40
0
 40
1
 40
1
 40
1
 40
1
 10
-4.652116
 20
363.440535
 30
0.0
 10
-6.761225
 20
374.165127
 30
0.0
 10
-13.167077
 20
383.559531
 30
0.0
 10
-22.380504
 20
389.439834
 30
0.0
  0
SPLINE
  5
191
100
AcDbEntity
  8
0
 62
7
100
AcDbSpline
 70
8
 71
3
 72
8
 73
4
 74
0
 40
0
 40
0
 40
0
 40
0
 40
1
 40
1
 40
1
 40
1
 10
-22.380504
 20
389.439834
 30
0.0
 10
-31.593931
 20
395.320137
 30
0.0
 10
-42.812336
 20
397.174095
 30
0.0
 10
-53.427780
 20
394.570719
 30
0.0
  0
SPLINE
  5
192
100
AcDbEntity
  8
0
 62
7
100
AcDbSpline
 70
8
 71
3
 72
8
 73
4
 74
0
 40
0
 40
0
 40
0
 40
0
 40
1
 40
1
 40
1
 40
1
 10
-54.571372
 20
394.627739
 30
0.0
 10
-54.203878
 20
394.497688
 30
0.0
 10
-53.806388
 20
394.477869
 30
0.0
 10
-53.427780
 20
394.570719
 30
0.0
  0
LWPOLYLINE
  5
193
100
AcDbEntity
  8
0
 62
7
100
AcDbPolyline
 90
2
 70
0
 10
-78.842444
 20
336.252748
 30
0.0
 10
-83.210214
 20
333.819095
 30
0.0
  0
LWPOLYLINE
  5
194
100
AcDbEntity
  8
0
 62
7
100
AcDbPolyline
 90
2
 70
0
 10
-61.574197
 20
397.105932
 30
0.0
 10
-54.571367
 20
394.627739
 30
0.0
  0
SPLINE
  5
195
100
AcDbEntity
  8
0
 62
7
100
AcDbSpline
 70
8
 71
3
 72
8
 73
4
 74
0
 40
0
 40
0
 40
0
 40
0
 40
1
 40
1
 40
1
 40
1
 10
-15.920792
 20
344.898603
 30
0.0
 10
-15.771522
 20
345.284484
 30
0.0
 10
-15.630251
 20
345.673411
 30
0.0
 10
-15.497069
 20
346.065135
 30
0.0
  0
SPLINE
  5
196
100
AcDbEntity
  8
0
 62
7
100
AcDbSpline
 70
8
 71
3
 72
8
 73
4
 74
0
 40
0
 40
0
 40
0
 40
0
 40
1
 40
1
 40
1
 40
1
 10
-26.329526
 20
331.405965
 30
0.0
 10
-25.994172
 20
331.648294
 30
0.0
 10
-25.663868
 20
331.897534
 30
0.0
 10
-25.338824
 20
332.153527
 30
0.0
  0
SPLINE
  5
197
100
AcDbEntity
  8
0
 62
7
100
AcDbSpline
 70
8
 71
3
 72
8
 73
4
 74
0
 40
0
 40
0
 40
0
 40
0
 40
1
 40
1
 40
1
 40
1
 10
-31.292061
 20
328.500047
 30
0.0
 10
-30.916629
 20
328.673935
 30
0.0
 10
-30.544834
 20
328.855570
 30
0.0
 10
-30.176916
 20
329.044838
 30
0.0
  0
SPLINE
  5
198
100
AcDbEntity
  8
0
 62
7
100
AcDbSpline
 70
8
 71
3
 72
8
 73
4
 74
0
 40
0
 40
0
 40
0
 40
0
 40
1
 40
1
 40
1
 40
1
 10
-18.500043
 20
339.758704
 30
0.0
 10
-18.279887
 20
340.109015
 30
0.0
 10
-18.067000
 20
340.463842
 30
0.0
 10
-17.861521
 20
340.822959
 30
0.0
  0
SPLINE
  5
199
100
AcDbEntity
  8
0
 62
7
100
AcDbSpline
 70
8
 71
3
 72
8
 73
4
 74
0
 40
0
 40
0
 40
0
 40
0
 40
1
 40
1
 40
1
 40
1
 10
-22.012649
 20
335.205387
 30
0.0
 10
-21.729694
 20
335.507252
 30
0.0
 10
-21.453013
 20
335.814938
 30
0.0
 10
-21.182786
 20
336.128248
 30
0.0
  0
SPLINE
  5
19a
100
AcDbEntity
  8
0
 62
7
100
AcDbSpline
 70
8
 71
3
 72
8
 73
4
 74
0
 40
0
 40
0
 40
0
 40
0
 40
1
 40
1
 40
1
 40
1
 10
-36.717890
 20
326.594421
 30
0.0
 10
-36.316178
 20
326.693477
 30
0.0
 10
-35.916558
 20
326.800832
 30
0.0
 10
-35.519287
 20
326.916419
 30
0.0
  0
SPLINE
  5
19b
100
AcDbEntity
  8
0
 62
7
100
AcDbSpline
 70
8
 71
3
 72
8
 73
4
 74
0
 40
0
 40
0
 40
0
 40
0
 40
1
 40
1
 40
1
 40
1
 10
-42.407648
 20
325.759094
 30
0.0
 10
-41.994413
 20
325.779680
 30
0.0
 10
-41.581648
 20
325.808814
 30
0.0
 10
-41.169618
 20
325.846475
 30
0.0
  0
SPLINE
  5
19c
100
AcDbEntity
  8
0
 62
7
100
AcDbSpline
 70
8
 71
3
 72
8
 73
4
 74
0
 40
0
 40
0
 40
0
 40
0
 40
1
 40
1
 40
1
 40
1
 10
-13.903659
 20
356.168041
 30
0.0
 10
-14.132351
 20
371.545638
 30
0.0
 10
-25.952704
 20
384.259720
 30
0.0
 10
-41.272904
 20
385.606659
 30
0.0
  0
SPLINE
  5
19d
100
AcDbEntity
  8
0
 62
7
100
AcDbSpline
 70
8
 71
3
 72
8
 73
4
 74
0
 40
0
 40
0
 40
0
 40
0
 40
1
 40
1
 40
1
 40
1
 10
-41.272904
 20
385.606659
 30
0.0
 10
-56.593105
 20
386.953597
 30
0.0
 10
-70.450595
 20
376.497087
 30
0.0
 10
-73.359006
 20
361.395301
 30
0.0
  0
SPLINE
  5
19e
100
AcDbEntity
  8
0
 62
7
100
AcDbSpline
 70
8
 71
3
 72
8
 73
4
 74
0
 40
0
 40
0
 40
0
 40
0
 40
1
 40
1
 40
1
 40
1
 10
-73.359006
 20
361.395301
 30
0.0
 10
-76.267417
 20
346.293516
 30
0.0
 10
-67.284650
 20
331.438263
 30
0.0
 10
-52.560003
 20
326.998947
 30
0.0
  0
SPLINE
  5
19f
100
AcDbEntity
  8
0
 62
7
100
AcDbSpline
 70
8
 71
3
 72
8
 73
4
 74
0
 40
0
 40
0
 40
0
 40
0
 40
1
 40
1
 40
1
 40
1
 10
-48.152245
 20
326.024778
 30
0.0
 10
-47.742676
 20
325.966137
 30
0.0
 10
-47.331938
 20
325.915975
 30
0.0
 10
-46.920294
 20
325.874325
 30
0.0
  0
LWPOLYLINE
  5
1a0
100
AcDbEntity
  8
0
 62
7
100
AcDbPolyline
 90
2
 70
0
 10
-32.718920
 20
324.128330
 30
0.0
 10
-35.519287
 20
326.916419
 30
0.0
  0
SPLINE
  5
1a1
100
AcDbEntity
  8
0
 62
7
100
AcDbSpline
 70
8
 71
3
 72
8
 73
4
 74
0
 40
0
 40
0
 40
0
 40
0
 40
1
 40
1
 40
1
 40
1
 10
-10.490255
 20
353.086400
 30
0.0
 10
-11.074088
 20
354.597411
 30
0.0
 10
-12.341025
 20
355.741209
 30
0.0
 10
-13.903659
 20
356.168041
 30
0.0
  0
LWPOLYLINE
  5
1a2
100
AcDbEntity
  8
0
 62
7
100
AcDbPolyline
 90
2
 70
0
 10
-15.497069
 20
346.065135
 30
0.0
 10
-11.606974
 20
346.759876
 30
0.0
  0
LWPOLYLINE
  5
1a3
100
AcDbEntity
  8
0
 62
7
100
AcDbPolyline
 90
2
 70
0
 10
-14.176309
 20
351.662160
 30
0.0
 10
-10.490249
 20
353.086400
 30
0.0
  0
SPLINE
  5
1a4
100
AcDbEntity
  8
0
 62
7
100
AcDbSpline
 70
8
 71
3
 72
8
 73
4
 74
0
 40
0
 40
0
 40
0
 40
0
 40
1
 40
1
 40
1
 40
1
 10
-9.558148
 20
362.475708
 30
0.0
 10
-11.472227
 20
372.208586
 30
0.0
 10
-17.426254
 20
380.672186
 30
0.0
 10
-25.939961
 20
385.762315
 30
0.0
  0
SPLINE
  5
1a5
100
AcDbEntity
  8
0
 62
7
100
AcDbSpline
 70
8
 71
3
 72
8
 73
4
 74
0
 40
0
 40
0
 40
0
 40
0
 40
1
 40
1
 40
1
 40
1
 10
-25.939961
 20
385.762315
 30
0.0
 10
-34.453667
 20
390.852445
 30
0.0
 10
-44.727369
 20
392.090995
 30
0.0
 10
-54.206854
 20
389.170041
 30
0.0
  0
LWPOLYLINE
  5
1a6
100
AcDbEntity
  8
0
 62
7
100
AcDbPolyline
 90
2
 70
0
 10
-4.652121
 20
363.440535
 30
0.0
 10
-9.558148
 20
362.475708
 30
0.0
  0
SPLINE
  5
1a7
100
AcDbEntity
  8
0
 62
7
100
AcDbSpline
 70
8
 71
3
 72
8
 73
4
 74
0
 40
0
 40
0
 40
0
 40
0
 40
1
 40
1
 40
1
 40
1
 10
-60.390016
 20
391.484252
 30
0.0
 10
-60.914229
 20
391.680453
 30
0.0
 10
-61.496672
 20
391.648006
 30
0.0
 10
-61.995849
 20
391.394793
 30
0.0
  0
SPLINE
  5
1a8
100
AcDbEntity
  8
0
 62
7
100
AcDbSpline
 70
8
 71
3
 72
8
 73
4
 74
0
 40
0
 40
0
 40
0
 40
0
 40
1
 40
1
 40
1
 40
1
 10
236.730461
 20
264.937366
 30
0.0
 10
236.730461
 20
266.009163
 30
0.0
 10
236.158664
 20
266.999545
 30
0.0
 10
235.230460
 20
267.535444
 30
0.0
  0
SPLINE
  5
1a9
100
AcDbEntity
  8
0
 62
7
100
AcDbSpline
 70
8
 71
3
 72
8
 73
4
 74
0
 40
0
 40
0
 40
0
 40
0
 40
1
 40
1
 40
1
 40
1
 10
235.230460
 20
267.535444
 30
0.0
 10
234.302256
 20
268.071343
 30
0.0
 10
233.158661
 20
268.071343
 30
0.0
 10
232.230457
 20
267.535444
 30
0.0
  0
SPLINE
  5
1aa
100
AcDbEntity
  8
0
 62
7
100
AcDbSpline
 70
8
 71
3
 72
8
 73
4
 74
0
 40
0
 40
0
 40
0
 40
0
 40
1
 40
1
 40
1
 40
1
 10
232.230457
 20
267.535444
 30
0.0
 10
231.302253
 20
266.999545
 30
0.0
 10
230.730456
 20
266.009163
 30
0.0
 10
230.730456
 20
264.937366
 30
0.0
  0
SPLINE
  5
1ab
100
AcDbEntity
  8
0
 62
7
100
AcDbSpline
 70
8
 71
3
 72
8
 73
4
 74
0
 40
0
 40
0
 40
0
 40
0
 40
1
 40
1
 40
1
 40
1
 10
230.730456
 20
264.937366
 30
0.0
 10
230.730456
 20
263.865568
 30
0.0
 10
231.302253
 20
262.875186
 30
0.0
 10
232.230457
 20
262.339287
 30
0.0
  0
SPLINE
  5
1ac
100
AcDbEntity
  8
0
 62
7
100
AcDbSpline
 70
8
 71
3
 72
8
 73
4
 74
0
 40
0
 40
0
 40
0
 40
0
 40
1
 40
1
 40
1
 40
1
 10
232.230457
 20
262.339287
 30
0.0
 10
233.158661
 20
261.803388
 30
0.0
 10
234.302256
 20
261.803388
 30
0.0
 10
235.230460
 20
262.339287
 30
0.0
  0
SPLINE
  5
1ad
100
AcDbEntity
  8
0
 62
7
100
AcDbSpline
 70
8
 71
3
 72
8
 73
4
 74
0
 40
0
 40
0
 40
0
 40
0
 40
1
 40
1
 40
1
 40
1
 10
235.230460
 20
262.339287
 30
0.0
 10
236.158664
 20
262.875186
 30
0.0
 10
236.730461
 20
263.865568
 30
0.0
 10
236.730461
 20
264.937366
 30
0.0
  0
LWPOLYLINE
  5
1ae
100
AcDbEntity
  8
0
 62
7
100
AcDbPolyline
 90
2
 70
0
 10
-54.206854
 20
389.170041
 30
0.0
 10
-60.390016
 20
391.484252
 30
0.0
  0
SPLINE
  5
1af
100
AcDbEntity
  8
0
 62
7
100
AcDbSpline
 70
8
 71
3
 72
8
 73
4
 74
0
 40
0
 40
0
 40
0
 40
0
 40
1
 40
1
 40
1
 40
1
 10
262.872547
 20
248.720769
 30
0.0
 10
262.872547
 20
250.542824
 30
0.0
 10
261.900493
 20
252.226472
 30
0.0
 10
260.322547
 20
253.137500
 30
0.0
  0
SPLINE
  5
1b0
100
AcDbEntity
  8
0
 62
7
100
AcDbSpline
 70
8
 71
3
 72
8
 73
4
 74
0
 40
0
 40
0
 40
0
 40
0
 40
1
 40
1
 40
1
 40
1
 10
260.322547
 20
253.137500
 30
0.0
 10
258.744601
 20
254.048527
 30
0.0
 10
256.800492
 20
254.048527
 30
0.0
 10
255.222546
 20
253.137500
 30
0.0
  0
SPLINE
  5
1b1
100
AcDbEntity
  8
0
 62
7
100
AcDbSpline
 70
8
 71
3
 72
8
 73
4
 74
0
 40
0
 40
0
 40
0
 40
0
 40
1
 40
1
 40
1
 40
1
 10
255.222546
 20
253.137500
 30
0.0
 10
253.644600
 20
252.226472
 30
0.0
 10
252.672545
 20
250.542824
 30
0.0
 10
252.672545
 20
248.720769
 30
0.0
  0
SPLINE
  5
1b2
100
AcDbEntity
  8
0
 62
7
100
AcDbSpline
 70
8
 71
3
 72
8
 73
4
 74
0
 40
0
 40
0
 40
0
 40
0
 40
1
 40
1
 40
1
 40
1
 10
252.672545
 20
248.720769
 30
0.0
 10
252.672545
 20
246.898714
 30
0.0
 10
253.644600
 20
245.215066
 30
0.0
 10
255.222546
 20
244.304039
 30
0.0
  0
SPLINE
  5
1b3
100
AcDbEntity
  8
0
 62
7
100
AcDbSpline
 70
8
 71
3
 72
8
 73
4
 74
0
 40
0
 40
0
 40
0
 40
0
 40
1
 40
1
 40
1
 40
1
 10
255.222546
 20
244.304039
 30
0.0
 10
256.800492
 20
243.393011
 30
0.0
 10
258.744601
 20
243.393011
 30
0.0
 10
260.322547
 20
244.304039
 30
0.0
  0
SPLINE
  5
1b4
100
AcDbEntity
  8
0
 62
7
100
AcDbSpline
 70
8
 71
3
 72
8
 73
4
 74
0
 40
0
 40
0
 40
0
 40
0
 40
1
 40
1
 40
1
 40
1
 10
260.322547
 20
244.304039
 30
0.0
 10
261.900493
 20
245.215066
 30
0.0
 10
262.872547
 20
246.898714
 30
0.0
 10
262.872547
 20
248.720769
 30
0.0
  0
LWPOLYLINE
  5
1b5
100
AcDbEntity
  8
0
 62
7
100
AcDbPolyline
 90
2
 70
1
 10
236.730461
 20
264.937366
 30
0.0
 10
236.730461
 20
264.937366
 30
0.0
  0
SPLINE
  5
1b6
100
AcDbEntity
  8
0
 62
7
100
AcDbSpline
 70
8
 71
3
 72
8
 73
4
 74
0
 40
0
 40
0
 40
0
 40
0
 40
1
 40
1
 40
1
 40
1
 10
255.067443
 20
310.156089
 30
0.0
 10
251.825278
 20
311.685944
 30
0.0
 10
248.427981
 20
312.862672
 30
0.0
 10
244.934159
 20
313.665974
 30
0.0
  0
LWPOLYLINE
  5
1b7
100
AcDbEntity
  8
0
 62
7
100
AcDbPolyline
 90
2
 70
1
 10
262.872547
 20
248.720769
 30
0.0
 10
262.872547
 20
248.720769
 30
0.0
  0
LWPOLYLINE
  5
1b8
100
AcDbEntity
  8
0
 62
7
100
AcDbPolyline
 90
2
 70
0
 10
239.362533
 20
285.002458
 30
0.0
 10
244.934159
 20
313.665974
 30
0.0
  0
SPLINE
  5
1b9
100
AcDbEntity
  8
0
 62
7
100
AcDbSpline
 70
8
 71
3
 72
8
 73
4
 74
0
 40
0
 40
0
 40
0
 40
0
 40
1
 40
1
 40
1
 40
1
 10
241.596627
 20
314.314724
 30
0.0
 10
216.627759
 20
318.292448
 30
0.0
 10
192.618881
 20
303.004484
 30
0.0
 10
185.660994
 20
278.696986
 30
0.0
  0
SPLINE
  5
1ba
100
AcDbEntity
  8
0
 62
7
100
AcDbSpline
 70
8
 71
3
 72
8
 73
4
 74
0
 40
0
 40
0
 40
0
 40
0
 40
1
 40
1
 40
1
 40
1
 10
185.660994
 20
278.696986
 30
0.0
 10
178.703107
 20
254.389489
 30
0.0
 10
190.986181
 20
228.713153
 30
0.0
 10
214.277971
 20
218.876531
 30
0.0
  0
SPLINE
  5
1bb
100
AcDbEntity
  8
0
 62
7
100
AcDbSpline
 70
8
 71
3
 72
8
 73
4
 74
0
 40
0
 40
0
 40
0
 40
0
 40
1
 40
1
 40
1
 40
1
 10
214.277971
 20
218.876531
 30
0.0
 10
237.569761
 20
209.039908
 30
0.0
 10
264.539261
 20
218.139038
 30
0.0
 10
277.111228
 20
240.075589
 30
0.0
  0
SPLINE
  5
1bc
100
AcDbEntity
  8
0
 62
7
100
AcDbSpline
 70
8
 71
3
 72
8
 73
4
 74
0
 40
0
 40
0
 40
0
 40
0
 40
1
 40
1
 40
1
 40
1
 10
277.111228
 20
240.075589
 30
0.0
 10
289.683196
 20
262.012140
 30
0.0
 10
283.900650
 20
289.881662
 30
0.0
 10
263.639114
 20
305.005709
 30
0.0
  0
SPLINE
  5
1bd
100
AcDbEntity
  8
0
 62
7
100
AcDbSpline
 70
8
 71
3
 72
8
 73
4
 74
0
 40
0
 40
0
 40
0
 40
0
 40
1
 40
1
 40
1
 40
1
 10
263.639114
 20
305.005709
 30
0.0
 10
265.058849
 20
307.372523
 30
0.0
 10
264.292317
 20
310.442061
 30
0.0
 10
261.926557
 20
311.863553
 30
0.0
  0
SPLINE
  5
1be
100
AcDbEntity
  8
0
 62
7
100
AcDbSpline
 70
8
 71
3
 72
8
 73
4
 74
0
 40
0
 40
0
 40
0
 40
0
 40
1
 40
1
 40
1
 40
1
 10
261.926557
 20
311.863553
 30
0.0
 10
259.560798
 20
313.285045
 30
0.0
 10
256.490692
 20
312.520792
 30
0.0
 10
255.067443
 20
310.156089
 30
0.0
  0
SPLINE
  5
1bf
100
AcDbEntity
  8
0
 62
7
100
AcDbSpline
 70
8
 71
3
 72
8
 73
4
 74
0
 40
0
 40
0
 40
0
 40
0
 40
1
 40
1
 40
1
 40
1
 10
126.199003
 20
264.937366
 30
0.0
 10
126.199660
 20
266.009600
 30
0.0
 10
125.628007
 20
267.000668
 30
0.0
 10
124.699534
 20
267.536975
 30
0.0
  0
SPLINE
  5
1c0
100
AcDbEntity
  8
0
 62
7
100
AcDbSpline
 70
8
 71
3
 72
8
 73
4
 74
0
 40
0
 40
0
 40
0
 40
0
 40
1
 40
1
 40
1
 40
1
 10
124.699534
 20
267.536975
 30
0.0
 10
123.771061
 20
268.073283
 30
0.0
 10
122.626945
 20
268.073283
 30
0.0
 10
121.698472
 20
267.536975
 30
0.0
  0
SPLINE
  5
1c1
100
AcDbEntity
  8
0
 62
7
100
AcDbSpline
 70
8
 71
3
 72
8
 73
4
 74
0
 40
0
 40
0
 40
0
 40
0
 40
1
 40
1
 40
1
 40
1
 10
121.698472
 20
267.536975
 30
0.0
 10
120.769998
 20
267.000668
 30
0.0
 10
120.198346
 20
266.009600
 30
0.0
 10
120.199003
 20
264.937366
 30
0.0
  0
SPLINE
  5
1c2
100
AcDbEntity
  8
0
 62
7
100
AcDbSpline
 70
8
 71
3
 72
8
 73
4
 74
0
 40
0
 40
0
 40
0
 40
0
 40
1
 40
1
 40
1
 40
1
 10
120.199003
 20
264.937366
 30
0.0
 10
120.198346
 20
263.865131
 30
0.0
 10
120.769998
 20
262.874063
 30
0.0
 10
121.698472
 20
262.337756
 30
0.0
  0
SPLINE
  5
1c3
100
AcDbEntity
  8
0
 62
7
100
AcDbSpline
 70
8
 71
3
 72
8
 73
4
 74
0
 40
0
 40
0
 40
0
 40
0
 40
1
 40
1
 40
1
 40
1
 10
121.698472
 20
262.337756
 30
0.0
 10
122.626945
 20
261.801448
 30
0.0
 10
123.771061
 20
261.801448
 30
0.0
 10
124.699534
 20
262.337756
 30
0.0
  0
SPLINE
  5
1c4
100
AcDbEntity
  8
0
 62
7
100
AcDbSpline
 70
8
 71
3
 72
8
 73
4
 74
0
 40
0
 40
0
 40
0
 40
0
 40
1
 40
1
 40
1
 40
1
 10
124.699534
 20
262.337756
 30
0.0
 10
125.628007
 20
262.874063
 30
0.0
 10
126.199660
 20
263.865131
 30
0.0
 10
126.199003
 20
264.937366
 30
0.0
  0
LWPOLYLINE
  5
1c5
100
AcDbEntity
  8
0
 62
7
100
AcDbPolyline
 90
3
 70
0
 10
239.362533
 20
285.002458
 30
0.0
 10
236.025001
 20
285.651208
 30
0.0
 10
241.596627
 20
314.314724
 30
0.0
  0
LWPOLYLINE
  5
1c6
100
AcDbEntity
  8
0
 62
7
100
AcDbPolyline
 90
2
 70
1
 10
126.199003
 20
264.937366
 30
0.0
 10
126.199003
 20
264.937366
 30
0.0
  0
LWPOLYLINE
  5
1c7
100
AcDbEntity
  8
0
 62
7
100
AcDbPolyline
 90
2
 70
0
 10
147.241096
 20
248.720769
 30
0.0
 10
144.389213
 20
244.492680
 30
0.0
  0
SPLINE
  5
1c8
100
AcDbEntity
  8
0
 62
7
100
AcDbSpline
 70
8
 71
3
 72
8
 73
4
 74
0
 40
0
 40
0
 40
0
 40
0
 40
1
 40
1
 40
1
 40
1
 10
144.389213
 20
244.492680
 30
0.0
 10
146.099317
 20
243.339201
 30
0.0
 10
148.335872
 20
243.329443
 30
0.0
 10
150.055975
 20
244.467956
 30
0.0
  0
SPLINE
  5
1c9
100
AcDbEntity
  8
0
 62
7
100
AcDbSpline
 70
8
 71
3
 72
8
 73
4
 74
0
 40
0
 40
0
 40
0
 40
0
 40
1
 40
1
 40
1
 40
1
 10
150.055975
 20
244.467956
 30
0.0
 10
151.776079
 20
245.606469
 30
0.0
 10
152.640987
 20
247.669042
 30
0.0
 10
152.247393
 20
249.693901
 30
0.0
  0
SPLINE
  5
1ca
100
AcDbEntity
  8
0
 62
7
100
AcDbSpline
 70
8
 71
3
 72
8
 73
4
 74
0
 40
0
 40
0
 40
0
 40
0
 40
1
 40
1
 40
1
 40
1
 10
152.247393
 20
249.693901
 30
0.0
 10
151.853799
 20
251.718760
 30
0.0
 10
150.279215
 20
253.307143
 30
0.0
 10
148.257868
 20
253.718389
 30
0.0
  0
SPLINE
  5
1cb
100
AcDbEntity
  8
0
 62
7
100
AcDbSpline
 70
8
 71
3
 72
8
 73
4
 74
0
 40
0
 40
0
 40
0
 40
0
 40
1
 40
1
 40
1
 40
1
 10
148.257868
 20
253.718389
 30
0.0
 10
146.236521
 20
254.129635
 30
0.0
 10
144.166479
 20
253.282758
 30
0.0
 10
143.013001
 20
251.572653
 30
0.0
  0
SPLINE
  5
1cc
100
AcDbEntity
  8
0
 62
7
100
AcDbSpline
 70
8
 71
3
 72
8
 73
4
 74
0
 40
0
 40
0
 40
0
 40
0
 40
1
 40
1
 40
1
 40
1
 10
102.994770
 20
310.673448
 30
0.0
 10
101.043076
 20
309.811272
 30
0.0
 10
99.148570
 20
308.825052
 30
0.0
 10
97.322871
 20
307.720839
 30
0.0
  0
LWPOLYLINE
  5
1cd
100
AcDbEntity
  8
0
 62
7
100
AcDbPolyline
 90
2
 70
0
 10
143.013001
 20
251.572653
 30
0.0
 10
147.241096
 20
248.720769
 30
0.0
  0
LWPOLYLINE
  5
1ce
100
AcDbEntity
  8
0
 62
7
100
AcDbPolyline
 90
2
 70
0
 10
105.478512
 20
295.162261
 30
0.0
 10
97.322871
 20
307.720839
 30
0.0
  0
LWPOLYLINE
  5
1cf
100
AcDbEntity
  8
0
 62
7
100
AcDbPolyline
 90
2
 70
0
 10
102.794765
 20
293.419414
 30
0.0
 10
105.478512
 20
295.162261
 30
0.0
  0
SPLINE
  5
1d0
100
AcDbEntity
  8
0
 62
7
100
AcDbSpline
 70
8
 71
3
 72
8
 73
4
 74
0
 40
0
 40
0
 40
0
 40
0
 40
1
 40
1
 40
1
 40
1
 10
94.639124
 20
305.977998
 30
0.0
 10
92.887798
 20
304.759262
 30
0.0
 10
91.216278
 20
303.429674
 30
0.0
 10
89.634816
 20
301.997389
 30
0.0
  0
LWPOLYLINE
  5
1d1
100
AcDbEntity
  8
0
 62
7
100
AcDbPolyline
 90
2
 70
0
 10
94.639124
 20
305.977998
 30
0.0
 10
102.794765
 20
293.419414
 30
0.0
  0
LWPOLYLINE
  5
1d2
100
AcDbEntity
  8
0
 62
7
100
AcDbPolyline
 90
2
 70
0
 10
100.036907
 20
291.225712
 30
0.0
 10
89.634816
 20
301.997389
 30
0.0
  0
LWPOLYLINE
  5
1d3
100
AcDbEntity
  8
0
 62
7
100
AcDbPolyline
 90
2
 70
0
 10
97.735017
 20
289.002806
 30
0.0
 10
100.036907
 20
291.225712
 30
0.0
  0
SPLINE
  5
1d4
100
AcDbEntity
  8
0
 62
7
100
AcDbSpline
 70
8
 71
3
 72
8
 73
4
 74
0
 40
0
 40
0
 40
0
 40
0
 40
1
 40
1
 40
1
 40
1
 10
87.332927
 20
299.774483
 30
0.0
 10
85.846324
 20
298.243970
 30
0.0
 10
84.459213
 20
296.619870
 30
0.0
 10
83.180101
 20
294.912144
 30
0.0
  0
LWPOLYLINE
  5
1d5
100
AcDbEntity
  8
0
 62
7
100
AcDbPolyline
 90
2
 70
0
 10
87.332927
 20
299.774483
 30
0.0
 10
97.735017
 20
289.002806
 30
0.0
  0
LWPOLYLINE
  5
1d6
100
AcDbEntity
  8
0
 62
7
100
AcDbPolyline
 90
2
 70
0
 10
95.446404
 20
286.323185
 30
0.0
 10
83.180101
 20
294.912144
 30
0.0
  0
LWPOLYLINE
  5
1d7
100
AcDbEntity
  8
0
 62
7
100
AcDbPolyline
 90
2
 70
0
 10
93.610961
 20
283.701899
 30
0.0
 10
95.446404
 20
286.323185
 30
0.0
  0
SPLINE
  5
1d8
100
AcDbEntity
  8
0
 62
7
100
AcDbSpline
 70
8
 71
3
 72
8
 73
4
 74
0
 40
0
 40
0
 40
0
 40
0
 40
1
 40
1
 40
1
 40
1
 10
81.344657
 20
292.290858
 30
0.0
 10
80.177401
 20
290.504807
 30
0.0
 10
79.125667
 20
288.645871
 30
0.0
 10
78.195904
 20
286.725453
 30
0.0
  0
LWPOLYLINE
  5
1d9
100
AcDbEntity
  8
0
 62
7
100
AcDbPolyline
 90
2
 70
0
 10
81.344657
 20
292.290858
 30
0.0
 10
93.610961
 20
283.701899
 30
0.0
  0
LWPOLYLINE
  5
1da
100
AcDbEntity
  8
0
 62
7
100
AcDbPolyline
 90
2
 70
0
 10
91.875689
 20
280.634821
 30
0.0
 10
78.195904
 20
286.725453
 30
0.0
  0
LWPOLYLINE
  5
1db
100
AcDbEntity
  8
0
 62
7
100
AcDbPolyline
 90
2
 70
0
 10
90.574137
 20
277.711473
 30
0.0
 10
91.875689
 20
280.634821
 30
0.0
  0
SPLINE
  5
1dc
100
AcDbEntity
  8
0
 62
7
100
AcDbSpline
 70
8
 71
3
 72
8
 73
4
 74
0
 40
0
 40
0
 40
0
 40
0
 40
1
 40
1
 40
1
 40
1
 10
76.894346
 20
283.802111
 30
0.0
 10
76.089330
 20
281.826152
 30
0.0
 10
75.411619
 20
279.800690
 30
0.0
 10
74.865371
 20
277.738148
 30
0.0
  0
LWPOLYLINE
  5
1dd
100
AcDbEntity
  8
0
 62
7
100
AcDbPolyline
 90
2
 70
0
 10
76.894346
 20
283.802111
 30
0.0
 10
90.574137
 20
277.711473
 30
0.0
  0
LWPOLYLINE
  5
1de
100
AcDbEntity
  8
0
 62
7
100
AcDbPolyline
 90
2
 70
0
 10
89.455972
 20
274.369646
 30
0.0
 10
74.865371
 20
277.738148
 30
0.0
  0
LWPOLYLINE
  5
1df
100
AcDbEntity
  8
0
 62
7
100
AcDbPolyline
 90
2
 70
0
 10
88.736130
 20
271.251660
 30
0.0
 10
89.455972
 20
274.369646
 30
0.0
  0
SPLINE
  5
1e0
100
AcDbEntity
  8
0
 62
7
100
AcDbSpline
 70
8
 71
3
 72
8
 73
4
 74
0
 40
0
 40
0
 40
0
 40
0
 40
1
 40
1
 40
1
 40
1
 10
74.145529
 20
274.620163
 30
0.0
 10
73.732335
 20
272.526904
 30
0.0
 10
73.453552
 20
270.409344
 30
0.0
 10
73.310891
 20
268.280468
 30
0.0
  0
LWPOLYLINE
  5
1e1
100
AcDbEntity
  8
0
 62
7
100
AcDbPolyline
 90
2
 70
0
 10
74.145529
 20
274.620163
 30
0.0
 10
88.736130
 20
271.251660
 30
0.0
  0
LWPOLYLINE
  5
1e2
100
AcDbEntity
  8
0
 62
7
100
AcDbPolyline
 90
2
 70
0
 10
88.276165
 20
267.757872
 30
0.0
 10
73.310891
 20
268.280468
 30
0.0
  0
LWPOLYLINE
  5
1e3
100
AcDbEntity
  8
0
 62
7
100
AcDbPolyline
 90
2
 70
0
 10
88.164484
 20
264.559820
 30
0.0
 10
88.276165
 20
267.757872
 30
0.0
  0
SPLINE
  5
1e4
100
AcDbEntity
  8
0
 62
7
100
AcDbSpline
 70
8
 71
3
 72
8
 73
4
 74
0
 40
0
 40
0
 40
0
 40
0
 40
1
 40
1
 40
1
 40
1
 10
73.199216
 20
265.082422
 30
0.0
 10
73.123286
 20
238.909410
 30
0.0
 10
93.244562
 20
217.106797
 30
0.0
 10
119.339598
 20
215.086543
 30
0.0
  0
SPLINE
  5
1e5
100
AcDbEntity
  8
0
 62
7
100
AcDbSpline
 70
8
 71
3
 72
8
 73
4
 74
0
 40
0
 40
0
 40
0
 40
0
 40
1
 40
1
 40
1
 40
1
 10
119.339598
 20
215.086543
 30
0.0
 10
145.434634
 20
213.066289
 30
0.0
 10
168.671908
 20
231.512121
 30
0.0
 10
172.625320
 20
257.384943
 30
0.0
  0
SPLINE
  5
1e6
100
AcDbEntity
  8
0
 62
7
100
AcDbSpline
 70
8
 71
3
 72
8
 73
4
 74
0
 40
0
 40
0
 40
0
 40
0
 40
1
 40
1
 40
1
 40
1
 10
172.625320
 20
257.384943
 30
0.0
 10
176.578732
 20
283.257764
 30
0.0
 10
159.910301
 20
307.801257
 30
0.0
 10
134.402706
 20
313.665974
 30
0.0
  0
LWPOLYLINE
  5
1e7
100
AcDbEntity
  8
0
 62
7
100
AcDbPolyline
 90
2
 70
0
 10
73.199216
 20
265.082422
 30
0.0
 10
88.164484
 20
264.559820
 30
0.0
  0
LWPOLYLINE
  5
1e8
100
AcDbEntity
  8
0
 62
7
100
AcDbPolyline
 90
2
 70
0
 10
130.109502
 20
291.579359
 30
0.0
 10
134.402706
 20
313.665974
 30
0.0
  0
LWPOLYLINE
  5
1e9
100
AcDbEntity
  8
0
 62
7
100
AcDbPolyline
 90
2
 70
0
 10
133.054384
 20
291.006933
 30
0.0
 10
130.109502
 20
291.579359
 30
0.0
  0
LWPOLYLINE
  5
1ea
100
AcDbEntity
  8
0
 62
7
100
AcDbPolyline
 90
2
 70
0
 10
132.882657
 20
290.123471
 30
0.0
 10
133.054384
 20
291.006933
 30
0.0
  0
LWPOLYLINE
  5
1eb
100
AcDbEntity
  8
0
 62
7
100
AcDbPolyline
 90
2
 70
0
 10
135.827539
 20
289.551045
 30
0.0
 10
132.882657
 20
290.123471
 30
0.0
  0
LWPOLYLINE
  5
1ec
100
AcDbEntity
  8
0
 62
7
100
AcDbPolyline
 90
2
 70
0
 10
135.216951
 20
286.409833
 30
0.0
 10
135.827539
 20
289.551045
 30
0.0
  0
LWPOLYLINE
  5
1ed
100
AcDbEntity
  8
0
 62
7
100
AcDbPolyline
 90
2
 70
0
 10
132.272069
 20
286.982264
 30
0.0
 10
135.216951
 20
286.409833
 30
0.0
  0
LWPOLYLINE
  5
1ee
100
AcDbEntity
  8
0
 62
7
100
AcDbPolyline
 90
2
 70
0
 10
132.100337
 20
286.098796
 30
0.0
 10
132.272069
 20
286.982264
 30
0.0
  0
LWPOLYLINE
  5
1ef
100
AcDbEntity
  8
0
 62
7
100
AcDbPolyline
 90
2
 70
0
 10
129.155455
 20
286.671227
 30
0.0
 10
132.100337
 20
286.098796
 30
0.0
  0
LWPOLYLINE
  5
1f0
100
AcDbEntity
  8
0
 62
7
100
AcDbPolyline
 90
2
 70
0
 10
128.831080
 20
285.002458
 30
0.0
 10
129.155455
 20
286.671227
 30
0.0
  0
LWPOLYLINE
  5
1f1
100
AcDbEntity
  8
0
 62
7
100
AcDbPolyline
 90
3
 70
0
 10
128.831080
 20
285.002458
 30
0.0
 10
125.493549
 20
285.651208
 30
0.0
 10
125.989650
 20
288.203440
 30
0.0
  0
LWPOLYLINE
  5
1f2
100
AcDbEntity
  8
0
 62
7
100
AcDbPolyline
 90
2
 70
0
 10
123.044768
 20
288.775865
 30
0.0
 10
125.989650
 20
288.203440
 30
0.0
  0
LWPOLYLINE
  5
1f3
100
AcDbEntity
  8
0
 62
7
100
AcDbPolyline
 90
2
 70
0
 10
123.655362
 20
291.917072
 30
0.0
 10
123.044768
 20
288.775865
 30
0.0
  0
LWPOLYLINE
  5
1f4
100
AcDbEntity
  8
0
 62
7
100
AcDbPolyline
 90
2
 70
0
 10
126.600244
 20
291.344646
 30
0.0
 10
123.655362
 20
291.917072
 30
0.0
  0
SPLINE
  5
1f5
100
AcDbEntity
  8
0
 62
7
100
AcDbSpline
 70
8
 71
3
 72
8
 73
4
 74
0
 40
0
 40
0
 40
0
 40
0
 40
1
 40
1
 40
1
 40
1
 10
131.065174
 20
314.314724
 30
0.0
 10
128.991064
 20
314.645145
 30
0.0
 10
126.898195
 20
314.844552
 30
0.0
 10
124.799005
 20
314.911760
 30
0.0
  0
LWPOLYLINE
  5
1f6
100
AcDbEntity
  8
0
 62
7
100
AcDbPolyline
 90
2
 70
0
 10
126.600244
 20
291.344646
 30
0.0
 10
131.065174
 20
314.314724
 30
0.0
  0
LWPOLYLINE
  5
1f7
100
AcDbEntity
  8
0
 62
7
100
AcDbPolyline
 90
2
 70
0
 10
124.799005
 20
299.937365
 30
0.0
 10
124.799005
 20
314.911760
 30
0.0
  0
LWPOLYLINE
  5
1f8
100
AcDbEntity
  8
0
 62
7
100
AcDbPolyline
 90
2
 70
0
 10
121.599006
 20
299.937365
 30
0.0
 10
124.799005
 20
299.937365
 30
0.0
  0
SPLINE
  5
1f9
100
AcDbEntity
  8
0
 62
7
100
AcDbSpline
 70
8
 71
3
 72
8
 73
4
 74
0
 40
0
 40
0
 40
0
 40
0
 40
1
 40
1
 40
1
 40
1
 10
121.599006
 20
314.911760
 30
0.0
 10
119.466448
 20
314.843484
 30
0.0
 10
117.340447
 20
314.638774
 30
0.0
 10
115.234043
 20
314.298886
 30
0.0
  0
LWPOLYLINE
  5
1fa
100
AcDbEntity
  8
0
 62
7
100
AcDbPolyline
 90
2
 70
0
 10
121.599006
 20
314.911760
 30
0.0
 10
121.599006
 20
299.937365
 30
0.0
  0
LWPOLYLINE
  5
1fb
100
AcDbEntity
  8
0
 62
7
100
AcDbPolyline
 90
2
 70
0
 10
118.091294
 20
299.599612
 30
0.0
 10
115.234043
 20
314.298886
 30
0.0
  0
LWPOLYLINE
  5
1fc
100
AcDbEntity
  8
0
 62
7
100
AcDbPolyline
 90
2
 70
0
 10
114.950088
 20
298.989025
 30
0.0
 10
118.091294
 20
299.599612
 30
0.0
  0
SPLINE
  5
1fd
100
AcDbEntity
  8
0
 62
7
100
AcDbSpline
 70
8
 71
3
 72
8
 73
4
 74
0
 40
0
 40
0
 40
0
 40
0
 40
1
 40
1
 40
1
 40
1
 10
112.092836
 20
313.688292
 30
0.0
 10
110.012488
 20
313.214360
 30
0.0
 10
107.964610
 20
312.607751
 30
0.0
 10
105.961761
 20
311.872187
 30
0.0
  0
LWPOLYLINE
  5
1fe
100
AcDbEntity
  8
0
 62
7
100
AcDbPolyline
 90
2
 70
0
 10
112.092836
 20
313.688292
 30
0.0
 10
114.950088
 20
298.989025
 30
0.0
  0
LWPOLYLINE
  5
1ff
100
AcDbEntity
  8
0
 62
7
100
AcDbPolyline
 90
2
 70
0
 10
111.571267
 20
297.988169
 30
0.0
 10
105.961761
 20
311.872187
 30
0.0
  0
LWPOLYLINE
  5
200
100
AcDbEntity
  8
0
 62
7
100
AcDbPolyline
 90
2
 70
0
 10
108.604281
 20
296.789430
 30
0.0
 10
111.571267
 20
297.988169
 30
0.0
  0
LWPOLYLINE
  5
201
100
AcDbEntity
  8
0
 62
7
100
AcDbPolyline
 90
2
 70
0
 10
102.994770
 20
310.673448
 30
0.0
 10
108.604281
 20
296.789430
 30
0.0
  0
LWPOLYLINE
  5
202
100
AcDbEntity
  8
0
 62
7
100
AcDbPolyline
 90
4
 70
0
 10
26.417582
 20
266.572053
 30
0.0
 10
25.432378
 20
269.604194
 30
0.0
 10
27.986613
 20
270.858045
 30
0.0
 10
30.396361
 20
274.501291
 30
0.0
  0
LWPOLYLINE
  5
203
100
AcDbEntity
  8
0
 62
7
100
AcDbPolyline
 90
2
 70
0
 10
23.169057
 20
272.719385
 30
0.0
 10
20.589761
 20
274.593352
 30
0.0
  0
LWPOLYLINE
  5
204
100
AcDbEntity
  8
0
 62
7
100
AcDbPolyline
 90
2
 70
0
 10
20.051094
 20
282.017563
 30
0.0
 10
17.330817
 20
278.599925
 30
0.0
  0
SPLINE
  5
205
100
AcDbEntity
  8
0
 62
7
100
AcDbSpline
 70
8
 71
3
 72
8
 73
4
 74
0
 40
0
 40
0
 40
0
 40
0
 40
1
 40
1
 40
1
 40
1
 10
42.681279
 20
252.313814
 30
0.0
 10
41.189877
 20
253.583256
 30
0.0
 10
39.103267
 20
253.886508
 30
0.0
 10
37.312214
 20
253.094112
 30
0.0
  0
SPLINE
  5
206
100
AcDbEntity
  8
0
 62
7
100
AcDbSpline
 70
8
 71
3
 72
8
 73
4
 74
0
 40
0
 40
0
 40
0
 40
0
 40
1
 40
1
 40
1
 40
1
 10
37.312214
 20
253.094112
 30
0.0
 10
35.521160
 20
252.301717
 30
0.0
 10
34.342085
 20
250.553665
 30
0.0
 10
34.278330
 20
248.596192
 30
0.0
  0
SPLINE
  5
207
100
AcDbEntity
  8
0
 62
7
100
AcDbSpline
 70
8
 71
3
 72
8
 73
4
 74
0
 40
0
 40
0
 40
0
 40
0
 40
1
 40
1
 40
1
 40
1
 10
34.278330
 20
248.596192
 30
0.0
 10
34.214575
 20
246.638720
 30
0.0
 10
35.277404
 20
244.817649
 30
0.0
 10
37.013100
 20
243.910388
 30
0.0
  0
LWPOLYLINE
  5
208
100
AcDbEntity
  8
0
 62
7
100
AcDbPolyline
 90
4
 70
0
 10
30.396361
 20
254.792233
 30
0.0
 10
27.986613
 20
258.435474
 30
0.0
 10
25.432378
 20
259.689325
 30
0.0
 10
26.417582
 20
262.721464
 30
0.0
  0
LWPOLYLINE
  5
209
100
AcDbEntity
  8
0
 62
7
100
AcDbPolyline
 90
2
 70
0
 10
20.589761
 20
254.700166
 30
0.0
 10
23.169057
 20
256.574133
 30
0.0
  0
LWPOLYLINE
  5
20a
100
AcDbEntity
  8
0
 62
7
100
AcDbPolyline
 90
2
 70
0
 10
21.919191
 20
252.184443
 30
0.0
 10
20.589761
 20
254.700166
 30
0.0
  0
LWPOLYLINE
  5
20b
100
AcDbEntity
  8
0
 62
7
100
AcDbPolyline
 90
2
 70
0
 10
21.727274
 20
247.820582
 30
0.0
 10
21.919191
 20
252.184443
 30
0.0
  0
LWPOLYLINE
  5
20c
100
AcDbEntity
  8
0
 62
7
100
AcDbPolyline
 90
2
 70
0
 10
20.051094
 20
247.275955
 30
0.0
 10
21.727274
 20
247.820582
 30
0.0
  0
LWPOLYLINE
  5
20d
100
AcDbEntity
  8
0
 62
7
100
AcDbPolyline
 90
2
 70
0
 10
17.330817
 20
250.693587
 30
0.0
 10
20.051094
 20
247.275955
 30
0.0
  0
LWPOLYLINE
  5
20e
100
AcDbEntity
  8
0
 62
7
100
AcDbPolyline
 90
2
 70
0
 10
16.927634
 20
253.510272
 30
0.0
 10
17.330817
 20
250.693587
 30
0.0
  0
LWPOLYLINE
  5
20f
100
AcDbEntity
  8
0
 62
7
100
AcDbPolyline
 90
2
 70
0
 10
13.739454
 20
253.510272
 30
0.0
 10
16.927634
 20
253.510272
 30
0.0
  0
LWPOLYLINE
  5
210
100
AcDbEntity
  8
0
 62
7
100
AcDbPolyline
 90
2
 70
0
 10
13.336277
 20
250.693587
 30
0.0
 10
13.739454
 20
253.510272
 30
0.0
  0
LWPOLYLINE
  5
211
100
AcDbEntity
  8
0
 62
7
100
AcDbPolyline
 90
2
 70
0
 10
10.615993
 20
247.275955
 30
0.0
 10
13.336277
 20
250.693587
 30
0.0
  0
LWPOLYLINE
  5
212
100
AcDbEntity
  8
0
 62
7
100
AcDbPolyline
 90
2
 70
0
 10
8.939825
 20
247.820582
 30
0.0
 10
10.615993
 20
247.275955
 30
0.0
  0
LWPOLYLINE
  5
213
100
AcDbEntity
  8
0
 62
7
100
AcDbPolyline
 90
2
 70
0
 10
8.747903
 20
252.184443
 30
0.0
 10
8.939825
 20
247.820582
 30
0.0
  0
LWPOLYLINE
  5
214
100
AcDbEntity
  8
0
 62
7
100
AcDbPolyline
 90
2
 70
0
 10
10.077327
 20
254.700166
 30
0.0
 10
8.747903
 20
252.184443
 30
0.0
  0
LWPOLYLINE
  5
215
100
AcDbEntity
  8
0
 62
7
100
AcDbPolyline
 90
2
 70
0
 10
7.498036
 20
256.574133
 30
0.0
 10
10.077327
 20
254.700166
 30
0.0
  0
LWPOLYLINE
  5
216
100
AcDbEntity
  8
0
 62
7
100
AcDbPolyline
 90
2
 70
0
 10
5.516249
 20
254.532374
 30
0.0
 10
7.498036
 20
256.574133
 30
0.0
  0
LWPOLYLINE
  5
217
100
AcDbEntity
  8
0
 62
7
100
AcDbPolyline
 90
2
 70
0
 10
1.306668
 20
253.366390
 30
0.0
 10
5.516249
 20
254.532374
 30
0.0
  0
LWPOLYLINE
  5
218
100
AcDbEntity
  8
0
 62
7
100
AcDbPolyline
 90
2
 70
0
 10
0.270731
 20
254.792233
 30
0.0
 10
1.306668
 20
253.366390
 30
0.0
  0
LWPOLYLINE
  5
219
100
AcDbEntity
  8
0
 62
7
100
AcDbPolyline
 90
2
 70
0
 10
2.680480
 20
258.435474
 30
0.0
 10
0.270731
 20
254.792233
 30
0.0
  0
LWPOLYLINE
  5
21a
100
AcDbEntity
  8
0
 62
7
100
AcDbPolyline
 90
2
 70
0
 10
5.234716
 20
259.689325
 30
0.0
 10
2.680480
 20
258.435474
 30
0.0
  0
LWPOLYLINE
  5
21b
100
AcDbEntity
  8
0
 62
7
100
AcDbPolyline
 90
2
 70
0
 10
4.249517
 20
262.721464
 30
0.0
 10
5.234716
 20
259.689325
 30
0.0
  0
LWPOLYLINE
  5
21c
100
AcDbEntity
  8
0
 62
7
100
AcDbPolyline
 90
2
 70
0
 10
1.446102
 20
262.234512
 30
0.0
 10
4.249517
 20
262.721464
 30
0.0
  0
LWPOLYLINE
  5
21d
100
AcDbEntity
  8
0
 62
7
100
AcDbPolyline
 90
2
 70
0
 10
-2.644872
 20
263.765539
 30
0.0
 10
1.446102
 20
262.234512
 30
0.0
  0
LWPOLYLINE
  5
21e
100
AcDbEntity
  8
0
 62
7
100
AcDbPolyline
 90
2
 70
0
 10
-2.644872
 20
265.527978
 30
0.0
 10
-2.644872
 20
263.765539
 30
0.0
  0
LWPOLYLINE
  5
21f
100
AcDbEntity
  8
0
 62
7
100
AcDbPolyline
 90
2
 70
0
 10
1.446102
 20
267.059005
 30
0.0
 10
-2.644872
 20
265.527978
 30
0.0
  0
LWPOLYLINE
  5
220
100
AcDbEntity
  8
0
 62
7
100
AcDbPolyline
 90
2
 70
0
 10
4.249517
 20
266.572053
 30
0.0
 10
1.446102
 20
267.059005
 30
0.0
  0
LWPOLYLINE
  5
221
100
AcDbEntity
  8
0
 62
7
100
AcDbPolyline
 90
2
 70
0
 10
5.234716
 20
269.604194
 30
0.0
 10
4.249517
 20
266.572053
 30
0.0
  0
LWPOLYLINE
  5
222
100
AcDbEntity
  8
0
 62
7
100
AcDbPolyline
 90
2
 70
0
 10
2.680480
 20
270.858045
 30
0.0
 10
5.234716
 20
269.604194
 30
0.0
  0
LWPOLYLINE
  5
223
100
AcDbEntity
  8
0
 62
7
100
AcDbPolyline
 90
2
 70
0
 10
0.270731
 20
274.501291
 30
0.0
 10
2.680480
 20
270.858045
 30
0.0
  0
LWPOLYLINE
  5
224
100
AcDbEntity
  8
0
 62
7
100
AcDbPolyline
 90
2
 70
0
 10
1.306668
 20
275.927128
 30
0.0
 10
0.270731
 20
274.501291
 30
0.0
  0
LWPOLYLINE
  5
225
100
AcDbEntity
  8
0
 62
7
100
AcDbPolyline
 90
2
 70
0
 10
5.516249
 20
274.761144
 30
0.0
 10
1.306668
 20
275.927128
 30
0.0
  0
LWPOLYLINE
  5
226
100
AcDbEntity
  8
0
 62
7
100
AcDbPolyline
 90
2
 70
0
 10
7.498036
 20
272.719385
 30
0.0
 10
5.516249
 20
274.761144
 30
0.0
  0
LWPOLYLINE
  5
227
100
AcDbEntity
  8
0
 62
7
100
AcDbPolyline
 90
2
 70
0
 10
10.077327
 20
274.593352
 30
0.0
 10
7.498036
 20
272.719385
 30
0.0
  0
LWPOLYLINE
  5
228
100
AcDbEntity
  8
0
 62
7
100
AcDbPolyline
 90
2
 70
0
 10
8.747903
 20
277.109075
 30
0.0
 10
10.077327
 20
274.593352
 30
0.0
  0
LWPOLYLINE
  5
229
100
AcDbEntity
  8
0
 62
7
100
AcDbPolyline
 90
2
 70
0
 10
8.939825
 20
281.472936
 30
0.0
 10
8.747903
 20
277.109075
 30
0.0
  0
LWPOLYLINE
  5
22a
100
AcDbEntity
  8
0
 62
7
100
AcDbPolyline
 90
2
 70
0
 10
10.615993
 20
282.017563
 30
0.0
 10
8.939825
 20
281.472936
 30
0.0
  0
LWPOLYLINE
  5
22b
100
AcDbEntity
  8
0
 62
7
100
AcDbPolyline
 90
2
 70
0
 10
13.336277
 20
278.599925
 30
0.0
 10
10.615993
 20
282.017563
 30
0.0
  0
LWPOLYLINE
  5
22c
100
AcDbEntity
  8
0
 62
7
100
AcDbPolyline
 90
2
 70
0
 10
13.739454
 20
275.783252
 30
0.0
 10
13.336277
 20
278.599925
 30
0.0
  0
LWPOLYLINE
  5
22d
100
AcDbEntity
  8
0
 62
7
100
AcDbPolyline
 90
2
 70
0
 10
16.927634
 20
275.783252
 30
0.0
 10
13.739454
 20
275.783252
 30
0.0
  0
LWPOLYLINE
  5
22e
100
AcDbEntity
  8
0
 62
7
100
AcDbPolyline
 90
2
 70
0
 10
17.330817
 20
278.599925
 30
0.0
 10
16.927634
 20
275.783252
 30
0.0
  0
LWPOLYLINE
  5
22f
100
AcDbEntity
  8
0
 62
7
100
AcDbPolyline
 90
2
 70
0
 10
24.234886
 20
285.808191
 30
0.0
 10
21.289999
 20
286.380617
 30
0.0
  0
LWPOLYLINE
  5
230
100
AcDbEntity
  8
0
 62
7
100
AcDbPolyline
 90
2
 70
0
 10
21.727274
 20
281.472936
 30
0.0
 10
20.051094
 20
282.017563
 30
0.0
  0
LWPOLYLINE
  5
231
100
AcDbEntity
  8
0
 62
7
100
AcDbPolyline
 90
2
 70
0
 10
21.919191
 20
277.109075
 30
0.0
 10
21.727274
 20
281.472936
 30
0.0
  0
LWPOLYLINE
  5
232
100
AcDbEntity
  8
0
 62
7
100
AcDbPolyline
 90
2
 70
0
 10
20.589761
 20
274.593352
 30
0.0
 10
21.919191
 20
277.109075
 30
0.0
  0
LWPOLYLINE
  5
233
100
AcDbEntity
  8
0
 62
7
100
AcDbPolyline
 90
2
 70
0
 10
25.600780
 20
292.835124
 30
0.0
 10
24.234886
 20
285.808191
 30
0.0
  0
LWPOLYLINE
  5
234
100
AcDbEntity
  8
0
 62
7
100
AcDbPolyline
 90
2
 70
0
 10
25.150844
 20
274.761144
 30
0.0
 10
23.169057
 20
272.719385
 30
0.0
  0
LWPOLYLINE
  5
235
100
AcDbEntity
  8
0
 62
7
100
AcDbPolyline
 90
2
 70
0
 10
29.360424
 20
275.927128
 30
0.0
 10
25.150844
 20
274.761144
 30
0.0
  0
LWPOLYLINE
  5
236
100
AcDbEntity
  8
0
 62
7
100
AcDbPolyline
 90
2
 70
0
 10
30.396361
 20
274.501291
 30
0.0
 10
29.360424
 20
275.927128
 30
0.0
  0
LWPOLYLINE
  5
237
100
AcDbEntity
  8
0
 62
7
100
AcDbPolyline
 90
2
 70
0
 10
17.628092
 20
285.360604
 30
0.0
 10
19.379851
 20
294.372631
 30
0.0
  0
LWPOLYLINE
  5
238
100
AcDbEntity
  8
0
 62
7
100
AcDbPolyline
 90
2
 70
0
 10
20.965624
 20
284.711854
 30
0.0
 10
17.628092
 20
285.360604
 30
0.0
  0
LWPOLYLINE
  5
239
100
AcDbEntity
  8
0
 62
7
100
AcDbPolyline
 90
2
 70
0
 10
21.289999
 20
286.380617
 30
0.0
 10
20.965624
 20
284.711854
 30
0.0
  0
LWPOLYLINE
  5
23a
100
AcDbEntity
  8
0
 62
7
100
AcDbPolyline
 90
2
 70
0
 10
29.220990
 20
267.059005
 30
0.0
 10
26.417582
 20
266.572053
 30
0.0
  0
LWPOLYLINE
  5
23b
100
AcDbEntity
  8
0
 62
7
100
AcDbPolyline
 90
2
 70
0
 10
33.311965
 20
265.527978
 30
0.0
 10
29.220990
 20
267.059005
 30
0.0
  0
LWPOLYLINE
  5
23c
100
AcDbEntity
  8
0
 62
7
100
AcDbPolyline
 90
2
 70
0
 10
33.311965
 20
263.765539
 30
0.0
 10
33.311965
 20
265.527978
 30
0.0
  0
LWPOLYLINE
  5
23d
100
AcDbEntity
  8
0
 62
7
100
AcDbPolyline
 90
2
 70
0
 10
29.220990
 20
262.234512
 30
0.0
 10
33.311965
 20
263.765539
 30
0.0
  0
SPLINE
  5
23e
100
AcDbEntity
  8
0
 62
7
100
AcDbSpline
 70
8
 71
3
 72
8
 73
4
 74
0
 40
0
 40
0
 40
0
 40
0
 40
1
 40
1
 40
1
 40
1
 10
42.681279
 20
252.313814
 30
0.0
 10
46.111367
 20
259.919874
 30
0.0
 10
46.218880
 20
268.610834
 30
0.0
 10
42.977996
 20
276.299418
 30
0.0
  0
SPLINE
  5
23f
100
AcDbEntity
  8
0
 62
7
100
AcDbSpline
 70
8
 71
3
 72
8
 73
4
 74
0
 40
0
 40
0
 40
0
 40
0
 40
1
 40
1
 40
1
 40
1
 10
42.977996
 20
276.299418
 30
0.0
 10
39.737112
 20
283.988001
 30
0.0
 10
33.440640
 20
289.979561
 30
0.0
 10
25.600780
 20
292.835124
 30
0.0
  0
SPLINE
  5
240
100
AcDbEntity
  8
0
 62
7
100
AcDbSpline
 70
8
 71
3
 72
8
 73
4
 74
0
 40
0
 40
0
 40
0
 40
0
 40
1
 40
1
 40
1
 40
1
 10
19.379851
 20
294.372631
 30
0.0
 10
5.342898
 20
296.283348
 30
0.0
 10
-8.117513
 20
288.114491
 30
0.0
 10
-12.902958
 20
274.780834
 30
0.0
  0
SPLINE
  5
241
100
AcDbEntity
  8
0
 62
7
100
AcDbSpline
 70
8
 71
3
 72
8
 73
4
 74
0
 40
0
 40
0
 40
0
 40
0
 40
1
 40
1
 40
1
 40
1
 10
-12.902958
 20
274.780834
 30
0.0
 10
-17.688404
 20
261.447176
 30
0.0
 10
-12.494443
 20
246.583272
 30
0.0
 10
-0.446009
 20
239.131952
 30
0.0
  0
SPLINE
  5
242
100
AcDbEntity
  8
0
 62
7
100
AcDbSpline
 70
8
 71
3
 72
8
 73
4
 74
0
 40
0
 40
0
 40
0
 40
0
 40
1
 40
1
 40
1
 40
1
 10
-0.446009
 20
239.131952
 30
0.0
 10
11.602424
 20
231.680632
 30
0.0
 10
27.221108
 20
233.673015
 30
0.0
 10
37.013100
 20
243.910388
 30
0.0
  0
LWPOLYLINE
  5
243
100
AcDbEntity
  8
0
 62
7
100
AcDbPolyline
 90
2
 70
0
 10
26.417582
 20
262.721464
 30
0.0
 10
29.220990
 20
262.234512
 30
0.0
  0
LWPOLYLINE
  5
244
100
AcDbEntity
  8
0
 62
7
100
AcDbPolyline
 90
2
 70
0
 10
29.360424
 20
253.366390
 30
0.0
 10
30.396361
 20
254.792233
 30
0.0
  0
LWPOLYLINE
  5
245
100
AcDbEntity
  8
0
 62
7
100
AcDbPolyline
 90
2
 70
0
 10
25.150844
 20
254.532374
 30
0.0
 10
29.360424
 20
253.366390
 30
0.0
  0
SPLINE
  5
246
100
AcDbEntity
  8
0
 62
7
100
AcDbSpline
 70
8
 71
3
 72
8
 73
4
 74
0
 40
0
 40
0
 40
0
 40
0
 40
1
 40
1
 40
1
 40
1
 10
18.333546
 20
264.646761
 30
0.0
 10
18.334204
 20
265.718996
 30
0.0
 10
17.762551
 20
266.710064
 30
0.0
 10
16.834078
 20
267.246371
 30
0.0
  0
SPLINE
  5
247
100
AcDbEntity
  8
0
 62
7
100
AcDbSpline
 70
8
 71
3
 72
8
 73
4
 74
0
 40
0
 40
0
 40
0
 40
0
 40
1
 40
1
 40
1
 40
1
 10
16.834078
 20
267.246371
 30
0.0
 10
15.905605
 20
267.782679
 30
0.0
 10
14.761489
 20
267.782679
 30
0.0
 10
13.833015
 20
267.246371
 30
0.0
  0
SPLINE
  5
248
100
AcDbEntity
  8
0
 62
7
100
AcDbSpline
 70
8
 71
3
 72
8
 73
4
 74
0
 40
0
 40
0
 40
0
 40
0
 40
1
 40
1
 40
1
 40
1
 10
13.833015
 20
267.246371
 30
0.0
 10
12.904542
 20
266.710064
 30
0.0
 10
12.332889
 20
265.718996
 30
0.0
 10
12.333547
 20
264.646761
 30
0.0
  0
SPLINE
  5
249
100
AcDbEntity
  8
0
 62
7
100
AcDbSpline
 70
8
 71
3
 72
8
 73
4
 74
0
 40
0
 40
0
 40
0
 40
0
 40
1
 40
1
 40
1
 40
1
 10
12.333547
 20
264.646761
 30
0.0
 10
12.332889
 20
263.574526
 30
0.0
 10
12.904542
 20
262.583459
 30
0.0
 10
13.833015
 20
262.047151
 30
0.0
  0
SPLINE
  5
24a
100
AcDbEntity
  8
0
 62
7
100
AcDbSpline
 70
8
 71
3
 72
8
 73
4
 74
0
 40
0
 40
0
 40
0
 40
0
 40
1
 40
1
 40
1
 40
1
 10
13.833015
 20
262.047151
 30
0.0
 10
14.761489
 20
261.510844
 30
0.0
 10
15.905605
 20
261.510844
 30
0.0
 10
16.834078
 20
262.047151
 30
0.0
  0
SPLINE
  5
24b
100
AcDbEntity
  8
0
 62
7
100
AcDbSpline
 70
8
 71
3
 72
8
 73
4
 74
0
 40
0
 40
0
 40
0
 40
0
 40
1
 40
1
 40
1
 40
1
 10
16.834078
 20
262.047151
 30
0.0
 10
17.762551
 20
262.583459
 30
0.0
 10
18.334204
 20
263.574526
 30
0.0
 10
18.333546
 20
264.646761
 30
0.0
  0
LWPOLYLINE
  5
24c
100
AcDbEntity
  8
0
 62
7
100
AcDbPolyline
 90
2
 70
0
 10
23.169057
 20
256.574133
 30
0.0
 10
25.150844
 20
254.532374
 30
0.0
  0
LWPOLYLINE
  5
24d
100
AcDbEntity
  8
0
 62
7
100
AcDbPolyline
 90
2
 70
1
 10
18.333546
 20
264.646761
 30
0.0
 10
18.333546
 20
264.646761
 30
0.0
  0
LWPOLYLINE
  5
24e
100
AcDbEntity
  8
0
 62
7
100
AcDbPolyline
 90
2
 70
0
 10
37.013100
 20
243.910388
 30
0.0
 10
37.445312
 20
243.709586
 30
0.0
  0
SPLINE
  5
24f
100
AcDbEntity
  8
0
 62
7
100
AcDbSpline
 70
8
 71
3
 72
8
 73
4
 74
0
 40
0
 40
0
 40
0
 40
0
 40
1
 40
1
 40
1
 40
1
 10
20.281196
 20
231.500100
 30
0.0
 10
21.622146
 20
232.408872
 30
0.0
 10
22.451630
 20
233.900636
 30
0.0
 10
22.516006
 20
235.519238
 30
0.0
  0
LWPOLYLINE
  5
250
100
AcDbEntity
  8
0
 62
7
100
AcDbPolyline
 90
2
 70
0
 10
20.281196
 20
231.500100
 30
0.0
 10
18.064267
 20
234.771298
 30
0.0
  0
SPLINE
  5
251
100
AcDbEntity
  8
0
 62
7
100
AcDbSpline
 70
8
 71
3
 72
8
 73
4
 74
0
 40
0
 40
0
 40
0
 40
0
 40
1
 40
1
 40
1
 40
1
 10
26.514977
 20
233.053152
 30
0.0
 10
27.657887
 20
234.201094
 30
0.0
 10
28.187487
 20
235.823724
 30
0.0
 10
27.941836
 20
237.424870
 30
0.0
  0
LWPOLYLINE
  5
252
100
AcDbEntity
  8
0
 62
7
100
AcDbPolyline
 90
2
 70
0
 10
26.514977
 20
233.053152
 30
0.0
 10
23.714610
 20
235.841242
 30
0.0
  0
SPLINE
  5
253
100
AcDbEntity
  8
0
 62
7
100
AcDbSpline
 70
8
 71
3
 72
8
 73
4
 74
0
 40
0
 40
0
 40
0
 40
0
 40
1
 40
1
 40
1
 40
1
 10
32.337886
 20
235.767131
 30
0.0
 10
33.240761
 20
237.112060
 30
0.0
 10
33.451020
 20
238.805931
 30
0.0
 10
32.904368
 20
240.330788
 30
0.0
  0
LWPOLYLINE
  5
254
100
AcDbEntity
  8
0
 62
7
100
AcDbPolyline
 90
2
 70
0
 10
32.337886
 20
235.767131
 30
0.0
 10
29.056979
 20
237.969661
 30
0.0
  0
SPLINE
  5
255
100
AcDbEntity
  8
0
 62
7
100
AcDbSpline
 70
8
 71
3
 72
8
 73
4
 74
0
 40
0
 40
0
 40
0
 40
0
 40
1
 40
1
 40
1
 40
1
 10
37.535962
 20
239.542310
 30
0.0
 10
38.165623
 20
241.034807
 30
0.0
 10
38.048811
 20
242.737676
 30
0.0
 10
37.221245
 20
244.130210
 30
0.0
  0
LWPOLYLINE
  5
256
100
AcDbEntity
  8
0
 62
7
100
AcDbPolyline
 90
2
 70
0
 10
37.535962
 20
239.542316
 30
0.0
 10
33.895070
 20
241.078350
 30
0.0
  0
SPLINE
  5
257
100
AcDbEntity
  8
0
 62
7
100
AcDbSpline
 70
8
 71
3
 72
8
 73
4
 74
0
 40
0
 40
0
 40
0
 40
0
 40
1
 40
1
 40
1
 40
1
 10
41.918196
 20
244.239972
 30
0.0
 10
42.251506
 20
245.825192
 30
0.0
 10
41.811919
 20
247.474484
 30
0.0
 10
40.733850
 20
248.683527
 30
0.0
  0
SPLINE
  5
258
100
AcDbEntity
  8
0
 62
7
100
AcDbSpline
 70
8
 71
3
 72
8
 73
4
 74
0
 40
0
 40
0
 40
0
 40
0
 40
1
 40
1
 40
1
 40
1
 10
40.733850
 20
248.683527
 30
0.0
 10
40.954007
 20
249.033836
 30
0.0
 10
41.166893
 20
249.388661
 30
0.0
 10
41.372372
 20
249.747776
 30
0.0
  0
LWPOLYLINE
  5
259
100
AcDbEntity
  8
0
 62
7
100
AcDbPolyline
 90
2
 70
0
 10
41.918196
 20
244.239972
 30
0.0
 10
38.051108
 20
245.053071
 30
0.0
  0
SPLINE
  5
25a
100
AcDbEntity
  8
0
 62
7
100
AcDbSpline
 70
8
 71
3
 72
8
 73
4
 74
0
 40
0
 40
0
 40
0
 40
0
 40
1
 40
1
 40
1
 40
1
 10
45.323557
 20
249.687493
 30
0.0
 10
45.348269
 20
251.307185
 30
0.0
 10
44.602058
 20
252.842297
 30
0.0
 10
43.313102
 20
253.823421
 30
0.0
  0
SPLINE
  5
25b
100
AcDbEntity
  8
0
 62
7
100
AcDbSpline
 70
8
 71
3
 72
8
 73
4
 74
0
 40
0
 40
0
 40
0
 40
0
 40
1
 40
1
 40
1
 40
1
 10
47.626919
 20
255.684699
 30
0.0
 10
47.342126
 20
257.279348
 30
0.0
 10
46.316711
 20
258.643873
 30
0.0
 10
44.864229
 20
259.361027
 30
0.0
  0
SPLINE
  5
25c
100
AcDbEntity
  8
0
 62
7
100
AcDbSpline
 70
8
 71
3
 72
8
 73
4
 74
0
 40
0
 40
0
 40
0
 40
0
 40
1
 40
1
 40
1
 40
1
 10
44.864229
 20
259.361027
 30
0.0
 10
44.937128
 20
259.768300
 30
0.0
 10
45.001594
 20
260.177038
 30
0.0
 10
45.057585
 20
260.586978
 30
0.0
  0
SPLINE
  5
25d
100
AcDbEntity
  8
0
 62
7
100
AcDbSpline
 70
8
 71
3
 72
8
 73
4
 74
0
 40
0
 40
0
 40
0
 40
0
 40
1
 40
1
 40
1
 40
1
 10
45.330234
 20
265.092864
 30
0.0
 10
45.101539
 20
280.470459
 30
0.0
 10
33.281185
 20
293.184538
 30
0.0
 10
17.960986
 20
294.531474
 30
0.0
  0
SPLINE
  5
25e
100
AcDbEntity
  8
0
 62
7
100
AcDbSpline
 70
8
 71
3
 72
8
 73
4
 74
0
 40
0
 40
0
 40
0
 40
0
 40
1
 40
1
 40
1
 40
1
 10
17.960986
 20
294.531474
 30
0.0
 10
2.640788
 20
295.878411
 30
0.0
 10
-11.216700
 20
285.421902
 30
0.0
 10
-14.125112
 20
270.320118
 30
0.0
  0
SPLINE
  5
25f
100
AcDbEntity
  8
0
 62
7
100
AcDbSpline
 70
8
 71
3
 72
8
 73
4
 74
0
 40
0
 40
0
 40
0
 40
0
 40
1
 40
1
 40
1
 40
1
 10
-14.125112
 20
270.320118
 30
0.0
 10
-17.033524
 20
255.218335
 30
0.0
 10
-8.050760
 20
240.363083
 30
0.0
 10
6.673885
 20
235.923764
 30
0.0
  0
LWPOLYLINE
  5
260
100
AcDbEntity
  8
0
 62
7
100
AcDbPolyline
 90
2
 70
0
 10
45.323557
 20
249.687493
 30
0.0
 10
41.372372
 20
249.747776
 30
0.0
  0
SPLINE
  5
261
100
AcDbEntity
  8
0
 62
7
100
AcDbSpline
 70
8
 71
3
 72
8
 73
4
 74
0
 40
0
 40
0
 40
0
 40
0
 40
1
 40
1
 40
1
 40
1
 10
7.503969
 20
232.060288
 30
0.0
 10
9.087709
 20
232.400561
 30
0.0
 10
10.415618
 20
233.472973
 30
0.0
 10
11.081643
 20
234.949601
 30
0.0
  0
SPLINE
  5
262
100
AcDbEntity
  8
0
 62
7
100
AcDbSpline
 70
8
 71
3
 72
8
 73
4
 74
0
 40
0
 40
0
 40
0
 40
0
 40
1
 40
1
 40
1
 40
1
 10
11.081643
 20
234.949601
 30
0.0
 10
11.491212
 20
234.890960
 30
0.0
 10
11.901950
 20
234.840798
 30
0.0
 10
12.313594
 20
234.799148
 30
0.0
  0
LWPOLYLINE
  5
263
100
AcDbEntity
  8
0
 62
7
100
AcDbPolyline
 90
2
 70
0
 10
7.503969
 20
232.060288
 30
0.0
 10
6.673885
 20
235.923764
 30
0.0
  0
SPLINE
  5
264
100
AcDbEntity
  8
0
 62
7
100
AcDbSpline
 70
8
 71
3
 72
8
 73
4
 74
0
 40
0
 40
0
 40
0
 40
0
 40
1
 40
1
 40
1
 40
1
 10
13.865613
 20
231.165040
 30
0.0
 10
15.355326
 20
231.801253
 30
0.0
 10
16.454208
 20
233.107338
 30
0.0
 10
16.826243
 20
234.683917
 30
0.0
  0
SPLINE
  5
265
100
AcDbEntity
  8
0
 62
7
100
AcDbSpline
 70
8
 71
3
 72
8
 73
4
 74
0
 40
0
 40
0
 40
0
 40
0
 40
1
 40
1
 40
1
 40
1
 10
44.811600
 20
224.260569
 30
0.0
 10
66.431169
 20
240.040789
 30
0.0
 10
71.789274
 20
270.047819
 30
0.0
 10
56.967106
 20
292.335135
 30
0.0
  0
SPLINE
  5
266
100
AcDbEntity
  8
0
 62
7
100
AcDbSpline
 70
8
 71
3
 72
8
 73
4
 74
0
 40
0
 40
0
 40
0
 40
0
 40
1
 40
1
 40
1
 40
1
 10
56.967106
 20
292.335135
 30
0.0
 10
42.144938
 20
314.622451
 30
0.0
 10
12.400185
 20
321.284344
 30
0.0
 10
-10.512452
 20
307.448443
 30
0.0
  0
SPLINE
  5
267
100
AcDbEntity
  8
0
 62
7
100
AcDbSpline
 70
8
 71
3
 72
8
 73
4
 74
0
 40
0
 40
0
 40
0
 40
0
 40
1
 40
1
 40
1
 40
1
 10
-10.512452
 20
307.448443
 30
0.0
 10
-33.425089
 20
293.612542
 30
0.0
 10
-41.378090
 20
264.186687
 30
0.0
 10
-28.554793
 20
240.692344
 30
0.0
  0
SPLINE
  5
268
100
AcDbEntity
  8
0
 62
7
100
AcDbSpline
 70
8
 71
3
 72
8
 73
4
 74
0
 40
0
 40
0
 40
0
 40
0
 40
1
 40
1
 40
1
 40
1
 10
-28.554793
 20
240.692344
 30
0.0
 10
-15.731496
 20
217.198001
 30
0.0
 10
13.319447
 20
207.969032
 30
0.0
 10
37.350773
 20
219.755315
 30
0.0
  0
LWPOLYLINE
  5
269
100
AcDbEntity
  8
0
 62
7
100
AcDbPolyline
 90
2
 70
0
 10
13.865613
 20
231.165040
 30
0.0
 10
12.313594
 20
234.799148
 30
0.0
  0
SPLINE
  5
26a
100
AcDbEntity
  8
0
 62
7
100
AcDbSpline
 70
8
 71
3
 72
8
 73
4
 74
0
 40
0
 40
0
 40
0
 40
0
 40
1
 40
1
 40
1
 40
1
 10
46.059903
 20
219.029976
 30
0.0
 10
46.510700
 20
219.333621
 30
0.0
 10
46.818501
 20
219.807662
 30
0.0
 10
46.912467
 20
220.343002
 30
0.0
  0
SPLINE
  5
26b
100
AcDbEntity
  8
0
 62
7
100
AcDbSpline
 70
8
 71
3
 72
8
 73
4
 74
0
 40
0
 40
0
 40
0
 40
0
 40
1
 40
1
 40
1
 40
1
 10
46.912467
 20
220.343002
 30
0.0
 10
47.006433
 20
220.878343
 30
0.0
 10
46.878471
 20
221.428871
 30
0.0
 10
46.558031
 20
221.867889
 30
0.0
  0
SPLINE
  5
26c
100
AcDbEntity
  8
0
 62
7
100
AcDbSpline
 70
8
 71
3
 72
8
 73
4
 74
0
 40
0
 40
0
 40
0
 40
0
 40
1
 40
1
 40
1
 40
1
 10
41.398664
 20
216.215266
 30
0.0
 10
42.997930
 20
217.075967
 30
0.0
 10
44.553582
 20
218.015355
 30
0.0
 10
46.059903
 20
219.029976
 30
0.0
  0
SPLINE
  5
26d
100
AcDbEntity
  8
0
 62
7
100
AcDbSpline
 70
8
 71
3
 72
8
 73
4
 74
0
 40
0
 40
0
 40
0
 40
0
 40
1
 40
1
 40
1
 40
1
 10
38.655188
 20
217.095720
 30
0.0
 10
38.894526
 20
216.607730
 30
0.0
 10
39.322166
 20
216.238165
 30
0.0
 10
39.839692
 20
216.072077
 30
0.0
  0
SPLINE
  5
26e
100
AcDbEntity
  8
0
 62
7
100
AcDbSpline
 70
8
 71
3
 72
8
 73
4
 74
0
 40
0
 40
0
 40
0
 40
0
 40
1
 40
1
 40
1
 40
1
 10
39.839692
 20
216.072077
 30
0.0
 10
40.357218
 20
215.905989
 30
0.0
 10
40.920052
 20
215.957685
 30
0.0
 10
41.398664
 20
216.215266
 30
0.0
  0
LWPOLYLINE
  5
26f
100
AcDbEntity
  8
0
 62
7
100
AcDbPolyline
 90
2
 70
0
 10
44.811600
 20
224.260569
 30
0.0
 10
46.558031
 20
221.867889
 30
0.0
  0
SPLINE
  5
270
100
AcDbEntity
  8
0
 62
7
100
AcDbSpline
 70
8
 71
3
 72
8
 73
4
 74
0
 40
0
 40
0
 40
0
 40
0
 40
1
 40
1
 40
1
 40
1
 10
-1.156128
 20
300.409077
 30
0.0
 10
-1.680341
 20
300.605278
 30
0.0
 10
-2.262784
 20
300.572831
 30
0.0
 10
-2.761961
 20
300.319618
 30
0.0
  0
LWPOLYLINE
  5
271
100
AcDbEntity
  8
0
 62
7
100
AcDbPolyline
 90
2
 70
0
 10
38.655188
 20
217.095720
 30
0.0
 10
37.350773
 20
219.755315
 30
0.0
  0
SPLINE
  5
272
100
AcDbEntity
  8
0
 62
7
100
AcDbSpline
 70
8
 71
3
 72
8
 73
4
 74
0
 40
0
 40
0
 40
0
 40
0
 40
1
 40
1
 40
1
 40
1
 10
49.675745
 20
271.400532
 30
0.0
 10
47.761667
 20
281.133412
 30
0.0
 10
41.807639
 20
289.597013
 30
0.0
 10
33.293931
 20
294.687143
 30
0.0
  0
SPLINE
  5
273
100
AcDbEntity
  8
0
 62
7
100
AcDbSpline
 70
8
 71
3
 72
8
 73
4
 74
0
 40
0
 40
0
 40
0
 40
0
 40
1
 40
1
 40
1
 40
1
 10
33.293931
 20
294.687143
 30
0.0
 10
24.780223
 20
299.777273
 30
0.0
 10
14.506520
 20
301.015822
 30
0.0
 10
5.027034
 20
298.094866
 30
0.0
  0
SPLINE
  5
274
100
AcDbEntity
  8
0
 62
7
100
AcDbSpline
 70
8
 71
3
 72
8
 73
4
 74
0
 40
0
 40
0
 40
0
 40
0
 40
1
 40
1
 40
1
 40
1
 10
54.581778
 20
272.365360
 30
0.0
 10
52.472668
 20
283.089952
 30
0.0
 10
46.066816
 20
292.484358
 30
0.0
 10
36.853387
 20
298.364661
 30
0.0
  0
SPLINE
  5
275
100
AcDbEntity
  8
0
 62
7
100
AcDbSpline
 70
8
 71
3
 72
8
 73
4
 74
0
 40
0
 40
0
 40
0
 40
0
 40
1
 40
1
 40
1
 40
1
 10
36.853387
 20
298.364661
 30
0.0
 10
27.639959
 20
304.244964
 30
0.0
 10
16.421552
 20
306.098921
 30
0.0
 10
5.806108
 20
303.495543
 30
0.0
  0
SPLINE
  5
276
100
AcDbEntity
  8
0
 62
7
100
AcDbSpline
 70
8
 71
3
 72
8
 73
4
 74
0
 40
0
 40
0
 40
0
 40
0
 40
1
 40
1
 40
1
 40
1
 10
4.662516
 20
303.552564
 30
0.0
 10
5.030010
 20
303.422512
 30
0.0
 10
5.427500
 20
303.402693
 30
0.0
 10
5.806108
 20
303.495543
 30
0.0
  0
LWPOLYLINE
  5
277
100
AcDbEntity
  8
0
 62
7
100
AcDbPolyline
 90
2
 70
0
 10
5.027034
 20
298.094866
 30
0.0
 10
-1.156128
 20
300.409077
 30
0.0
  0
SPLINE
  5
278
100
AcDbEntity
  8
0
 62
7
100
AcDbSpline
 70
8
 71
3
 72
8
 73
4
 74
0
 40
0
 40
0
 40
0
 40
0
 40
1
 40
1
 40
1
 40
1
 10
43.313102
 20
253.823421
 30
0.0
 10
43.462372
 20
254.209303
 30
0.0
 10
43.603643
 20
254.598232
 30
0.0
 10
43.736824
 20
254.989958
 30
0.0
  0
SPLINE
  5
279
100
AcDbEntity
  8
0
 62
7
100
AcDbSpline
 70
8
 71
3
 72
8
 73
4
 74
0
 40
0
 40
0
 40
0
 40
0
 40
1
 40
1
 40
1
 40
1
 10
32.904368
 20
240.330788
 30
0.0
 10
33.239721
 20
240.573117
 30
0.0
 10
33.570026
 20
240.822357
 30
0.0
 10
33.895070
 20
241.078350
 30
0.0
  0
SPLINE
  5
27a
100
AcDbEntity
  8
0
 62
7
100
AcDbSpline
 70
8
 71
3
 72
8
 73
4
 74
0
 40
0
 40
0
 40
0
 40
0
 40
1
 40
1
 40
1
 40
1
 10
27.941836
 20
237.424870
 30
0.0
 10
28.317267
 20
237.598758
 30
0.0
 10
28.689061
 20
237.780393
 30
0.0
 10
29.056979
 20
237.969661
 30
0.0
  0
SPLINE
  5
27b
100
AcDbEntity
  8
0
 62
7
100
AcDbSpline
 70
8
 71
3
 72
8
 73
4
 74
0
 40
0
 40
0
 40
0
 40
0
 40
1
 40
1
 40
1
 40
1
 10
37.221245
 20
244.130210
 30
0.0
 10
37.504200
 20
244.432075
 30
0.0
 10
37.780880
 20
244.739761
 30
0.0
 10
38.051108
 20
245.053071
 30
0.0
  0
SPLINE
  5
27c
100
AcDbEntity
  8
0
 62
7
100
AcDbSpline
 70
8
 71
3
 72
8
 73
4
 74
0
 40
0
 40
0
 40
0
 40
0
 40
1
 40
1
 40
1
 40
1
 10
22.516006
 20
235.519238
 30
0.0
 10
22.917719
 20
235.618296
 30
0.0
 10
23.317339
 20
235.725654
 30
0.0
 10
23.714610
 20
235.841242
 30
0.0
  0
SPLINE
  5
27d
100
AcDbEntity
  8
0
 62
7
100
AcDbSpline
 70
8
 71
3
 72
8
 73
4
 74
0
 40
0
 40
0
 40
0
 40
0
 40
1
 40
1
 40
1
 40
1
 10
16.826243
 20
234.683917
 30
0.0
 10
17.239478
 20
234.704503
 30
0.0
 10
17.652243
 20
234.733637
 30
0.0
 10
18.064273
 20
234.771298
 30
0.0
  0
LWPOLYLINE
  5
27e
100
AcDbEntity
  8
0
 62
7
100
AcDbPolyline
 90
2
 70
0
 10
-2.340310
 20
306.030757
 30
0.0
 10
4.662521
 20
303.552564
 30
0.0
  0
SPLINE
  5
27f
100
AcDbEntity
  8
0
 62
7
100
AcDbSpline
 70
8
 71
3
 72
8
 73
4
 74
0
 40
0
 40
0
 40
0
 40
0
 40
1
 40
1
 40
1
 40
1
 10
48.743639
 20
262.011223
 30
0.0
 10
48.159806
 20
263.522234
 30
0.0
 10
46.892869
 20
264.666032
 30
0.0
 10
45.330234
 20
265.092864
 30
0.0
  0
LWPOLYLINE
  5
280
100
AcDbEntity
  8
0
 62
7
100
AcDbPolyline
 90
2
 70
0
 10
43.736824
 20
254.989958
 30
0.0
 10
47.626919
 20
255.684699
 30
0.0
  0
LWPOLYLINE
  5
281
100
AcDbEntity
  8
0
 62
7
100
AcDbPolyline
 90
2
 70
0
 10
45.057585
 20
260.586978
 30
0.0
 10
48.743644
 20
262.011223
 30
0.0
  0
SPLINE
  5
282
100
AcDbEntity
  8
0
 62
7
100
AcDbSpline
 70
8
 71
3
 72
8
 73
4
 74
0
 40
0
 40
0
 40
0
 40
0
 40
1
 40
1
 40
1
 40
1
 10
-2.761961
 20
300.319618
 30
0.0
 10
-12.463666
 20
295.398307
 30
0.0
 10
-19.742480
 20
286.737826
 30
0.0
 10
-22.920980
 20
276.334003
 30
0.0
  0
SPLINE
  5
283
100
AcDbEntity
  8
0
 62
7
100
AcDbSpline
 70
8
 71
3
 72
8
 73
4
 74
0
 40
0
 40
0
 40
0
 40
0
 40
1
 40
1
 40
1
 40
1
 10
-22.920980
 20
276.334003
 30
0.0
 10
-26.099481
 20
265.930181
 30
0.0
 10
-24.903466
 20
254.680531
 30
0.0
 10
-19.608562
 20
245.177565
 30
0.0
  0
LWPOLYLINE
  5
284
100
AcDbEntity
  8
0
 62
7
100
AcDbPolyline
 90
2
 70
0
 10
54.581772
 20
272.365354
 30
0.0
 10
49.675745
 20
271.400532
 30
0.0
  0
SPLINE
  5
285
100
AcDbEntity
  8
0
 62
7
100
AcDbSpline
 70
8
 71
3
 72
8
 73
4
 74
0
 40
0
 40
0
 40
0
 40
0
 40
1
 40
1
 40
1
 40
1
 10
-2.340310
 20
306.030751
 30
0.0
 10
-14.068895
 20
301.021827
 30
0.0
 10
-23.121274
 20
291.271484
 30
0.0
 10
-27.246873
 20
279.203822
 30
0.0
  0
SPLINE
  5
286
100
AcDbEntity
  8
0
 62
7
100
AcDbSpline
 70
8
 71
3
 72
8
 73
4
 74
0
 40
0
 40
0
 40
0
 40
0
 40
1
 40
1
 40
1
 40
1
 10
-27.246873
 20
279.203822
 30
0.0
 10
-31.372472
 20
267.136159
 30
0.0
 10
-30.183779
 20
253.884678
 30
0.0
 10
-23.976323
 20
242.743918
 30
0.0
  0
SPLINE
  5
287
100
AcDbEntity
  8
0
 62
7
100
AcDbSpline
 70
8
 71
3
 72
8
 73
4
 74
0
 40
0
 40
0
 40
0
 40
0
 40
1
 40
1
 40
1
 40
1
 10
188.595937
 20
170.550401
 30
0.0
 10
188.595937
 20
171.622199
 30
0.0
 10
188.024140
 20
172.612581
 30
0.0
 10
187.095936
 20
173.148479
 30
0.0
  0
SPLINE
  5
288
100
AcDbEntity
  8
0
 62
7
100
AcDbSpline
 70
8
 71
3
 72
8
 73
4
 74
0
 40
0
 40
0
 40
0
 40
0
 40
1
 40
1
 40
1
 40
1
 10
187.095936
 20
173.148479
 30
0.0
 10
186.167732
 20
173.684378
 30
0.0
 10
185.024137
 20
173.684378
 30
0.0
 10
184.095933
 20
173.148479
 30
0.0
  0
SPLINE
  5
289
100
AcDbEntity
  8
0
 62
7
100
AcDbSpline
 70
8
 71
3
 72
8
 73
4
 74
0
 40
0
 40
0
 40
0
 40
0
 40
1
 40
1
 40
1
 40
1
 10
184.095933
 20
173.148479
 30
0.0
 10
183.167729
 20
172.612581
 30
0.0
 10
182.595932
 20
171.622199
 30
0.0
 10
182.595932
 20
170.550401
 30
0.0
  0
SPLINE
  5
28a
100
AcDbEntity
  8
0
 62
7
100
AcDbSpline
 70
8
 71
3
 72
8
 73
4
 74
0
 40
0
 40
0
 40
0
 40
0
 40
1
 40
1
 40
1
 40
1
 10
182.595932
 20
170.550401
 30
0.0
 10
182.595932
 20
169.478603
 30
0.0
 10
183.167729
 20
168.488222
 30
0.0
 10
184.095933
 20
167.952323
 30
0.0
  0
SPLINE
  5
28b
100
AcDbEntity
  8
0
 62
7
100
AcDbSpline
 70
8
 71
3
 72
8
 73
4
 74
0
 40
0
 40
0
 40
0
 40
0
 40
1
 40
1
 40
1
 40
1
 10
184.095933
 20
167.952323
 30
0.0
 10
185.024137
 20
167.416424
 30
0.0
 10
186.167732
 20
167.416424
 30
0.0
 10
187.095936
 20
167.952323
 30
0.0
  0
SPLINE
  5
28c
100
AcDbEntity
  8
0
 62
7
100
AcDbSpline
 70
8
 71
3
 72
8
 73
4
 74
0
 40
0
 40
0
 40
0
 40
0
 40
1
 40
1
 40
1
 40
1
 10
187.095936
 20
167.952323
 30
0.0
 10
188.024140
 20
168.488222
 30
0.0
 10
188.595937
 20
169.478603
 30
0.0
 10
188.595937
 20
170.550401
 30
0.0
  0
LWPOLYLINE
  5
28d
100
AcDbEntity
  8
0
 62
7
100
AcDbPolyline
 90
2
 70
0
 10
-19.608556
 20
245.177565
 30
0.0
 10
-23.976323
 20
242.743918
 30
0.0
  0
SPLINE
  5
28e
100
AcDbEntity
  8
0
 62
7
100
AcDbSpline
 70
8
 71
3
 72
8
 73
4
 74
0
 40
0
 40
0
 40
0
 40
0
 40
1
 40
1
 40
1
 40
1
 10
214.738023
 20
154.333777
 30
0.0
 10
214.738023
 20
156.155832
 30
0.0
 10
213.765969
 20
157.839480
 30
0.0
 10
212.188023
 20
158.750507
 30
0.0
  0
SPLINE
  5
28f
100
AcDbEntity
  8
0
 62
7
100
AcDbSpline
 70
8
 71
3
 72
8
 73
4
 74
0
 40
0
 40
0
 40
0
 40
0
 40
1
 40
1
 40
1
 40
1
 10
212.188023
 20
158.750507
 30
0.0
 10
210.610077
 20
159.661535
 30
0.0
 10
208.665968
 20
159.661535
 30
0.0
 10
207.088022
 20
158.750507
 30
0.0
  0
SPLINE
  5
290
100
AcDbEntity
  8
0
 62
7
100
AcDbSpline
 70
8
 71
3
 72
8
 73
4
 74
0
 40
0
 40
0
 40
0
 40
0
 40
1
 40
1
 40
1
 40
1
 10
207.088022
 20
158.750507
 30
0.0
 10
205.510076
 20
157.839480
 30
0.0
 10
204.538021
 20
156.155832
 30
0.0
 10
204.538021
 20
154.333777
 30
0.0
  0
SPLINE
  5
291
100
AcDbEntity
  8
0
 62
7
100
AcDbSpline
 70
8
 71
3
 72
8
 73
4
 74
0
 40
0
 40
0
 40
0
 40
0
 40
1
 40
1
 40
1
 40
1
 10
204.538021
 20
154.333777
 30
0.0
 10
204.538021
 20
152.511722
 30
0.0
 10
205.510076
 20
150.828074
 30
0.0
 10
207.088022
 20
149.917046
 30
0.0
  0
SPLINE
  5
292
100
AcDbEntity
  8
0
 62
7
100
AcDbSpline
 70
8
 71
3
 72
8
 73
4
 74
0
 40
0
 40
0
 40
0
 40
0
 40
1
 40
1
 40
1
 40
1
 10
207.088022
 20
149.917046
 30
0.0
 10
208.665968
 20
149.006019
 30
0.0
 10
210.610077
 20
149.006019
 30
0.0
 10
212.188023
 20
149.917046
 30
0.0
  0
SPLINE
  5
293
100
AcDbEntity
  8
0
 62
7
100
AcDbSpline
 70
8
 71
3
 72
8
 73
4
 74
0
 40
0
 40
0
 40
0
 40
0
 40
1
 40
1
 40
1
 40
1
 10
212.188023
 20
149.917046
 30
0.0
 10
213.765969
 20
150.828074
 30
0.0
 10
214.738023
 20
152.511722
 30
0.0
 10
214.738023
 20
154.333777
 30
0.0
  0
LWPOLYLINE
  5
294
100
AcDbEntity
  8
0
 62
7
100
AcDbPolyline
 90
2
 70
1
 10
188.595937
 20
170.550401
 30
0.0
 10
188.595937
 20
170.550401
 30
0.0
  0
SPLINE
  5
295
100
AcDbEntity
  8
0
 62
7
100
AcDbSpline
 70
8
 71
3
 72
8
 73
4
 74
0
 40
0
 40
0
 40
0
 40
0
 40
1
 40
1
 40
1
 40
1
 10
215.169039
 20
210.867042
 30
0.0
 10
212.278351
 20
212.987423
 30
0.0
 10
209.168003
 20
214.790765
 30
0.0
 10
205.891649
 20
216.245961
 30
0.0
  0
LWPOLYLINE
  5
296
100
AcDbEntity
  8
0
 62
7
100
AcDbPolyline
 90
2
 70
1
 10
214.738023
 20
154.333777
 30
0.0
 10
214.738023
 20
154.333777
 30
0.0
  0
LWPOLYLINE
  5
297
100
AcDbEntity
  8
0
 62
7
100
AcDbPolyline
 90
2
 70
0
 10
194.953134
 20
189.172191
 30
0.0
 10
205.891649
 20
216.245961
 30
0.0
  0
SPLINE
  5
298
100
AcDbEntity
  8
0
 62
7
100
AcDbSpline
 70
8
 71
3
 72
8
 73
4
 74
0
 40
0
 40
0
 40
0
 40
0
 40
1
 40
1
 40
1
 40
1
 10
202.739221
 20
217.519618
 30
0.0
 10
178.988086
 20
226.188539
 30
0.0
 10
152.503239
 20
215.762562
 30
0.0
 10
141.035104
 20
193.229287
 30
0.0
  0
SPLINE
  5
299
100
AcDbEntity
  8
0
 62
7
100
AcDbSpline
 70
8
 71
3
 72
8
 73
4
 74
0
 40
0
 40
0
 40
0
 40
0
 40
1
 40
1
 40
1
 40
1
 10
141.035104
 20
193.229287
 30
0.0
 10
129.566969
 20
170.696012
 30
0.0
 10
136.725099
 20
143.147704
 30
0.0
 10
157.712039
 20
129.047529
 30
0.0
  0
SPLINE
  5
29a
100
AcDbEntity
  8
0
 62
7
100
AcDbSpline
 70
8
 71
3
 72
8
 73
4
 74
0
 40
0
 40
0
 40
0
 40
0
 40
1
 40
1
 40
1
 40
1
 10
157.712039
 20
129.047529
 30
0.0
 10
178.698980
 20
114.947354
 30
0.0
 10
206.909169
 20
118.733290
 30
0.0
 10
223.435842
 20
137.867963
 30
0.0
  0
SPLINE
  5
29b
100
AcDbEntity
  8
0
 62
7
100
AcDbSpline
 70
8
 71
3
 72
8
 73
4
 74
0
 40
0
 40
0
 40
0
 40
0
 40
1
 40
1
 40
1
 40
1
 10
223.435842
 20
137.867963
 30
0.0
 10
239.962514
 20
157.002636
 30
0.0
 10
239.603960
 20
185.463479
 30
0.0
 10
222.600486
 20
204.175734
 30
0.0
  0
SPLINE
  5
29c
100
AcDbEntity
  8
0
 62
7
100
AcDbSpline
 70
8
 71
3
 72
8
 73
4
 74
0
 40
0
 40
0
 40
0
 40
0
 40
1
 40
1
 40
1
 40
1
 10
222.600486
 20
204.175734
 30
0.0
 10
224.447777
 20
206.227926
 30
0.0
 10
224.281893
 20
209.389026
 30
0.0
 10
222.229955
 20
211.236599
 30
0.0
  0
SPLINE
  5
29d
100
AcDbEntity
  8
0
 62
7
100
AcDbSpline
 70
8
 71
3
 72
8
 73
4
 74
0
 40
0
 40
0
 40
0
 40
0
 40
1
 40
1
 40
1
 40
1
 10
222.229955
 20
211.236599
 30
0.0
 10
220.178018
 20
213.084173
 30
0.0
 10
217.016895
 20
212.918725
 30
0.0
 10
215.169039
 20
210.867042
 30
0.0
  0
SPLINE
  5
29e
100
AcDbEntity
  8
0
 62
7
100
AcDbSpline
 70
8
 71
3
 72
8
 73
4
 74
0
 40
0
 40
0
 40
0
 40
0
 40
1
 40
1
 40
1
 40
1
 10
78.064479
 20
170.550401
 30
0.0
 10
78.065136
 20
171.622636
 30
0.0
 10
77.493483
 20
172.613704
 30
0.0
 10
76.565010
 20
173.150011
 30
0.0
  0
SPLINE
  5
29f
100
AcDbEntity
  8
0
 62
7
100
AcDbSpline
 70
8
 71
3
 72
8
 73
4
 74
0
 40
0
 40
0
 40
0
 40
0
 40
1
 40
1
 40
1
 40
1
 10
76.565010
 20
173.150011
 30
0.0
 10
75.636537
 20
173.686318
 30
0.0
 10
74.492421
 20
173.686318
 30
0.0
 10
73.563948
 20
173.150011
 30
0.0
  0
SPLINE
  5
2a0
100
AcDbEntity
  8
0
 62
7
100
AcDbSpline
 70
8
 71
3
 72
8
 73
4
 74
0
 40
0
 40
0
 40
0
 40
0
 40
1
 40
1
 40
1
 40
1
 10
73.563948
 20
173.150011
 30
0.0
 10
72.635474
 20
172.613704
 30
0.0
 10
72.063822
 20
171.622636
 30
0.0
 10
72.064479
 20
170.550401
 30
0.0
  0
SPLINE
  5
2a1
100
AcDbEntity
  8
0
 62
7
100
AcDbSpline
 70
8
 71
3
 72
8
 73
4
 74
0
 40
0
 40
0
 40
0
 40
0
 40
1
 40
1
 40
1
 40
1
 10
72.064479
 20
170.550401
 30
0.0
 10
72.063822
 20
169.478166
 30
0.0
 10
72.635474
 20
168.487099
 30
0.0
 10
73.563948
 20
167.950791
 30
0.0
  0
SPLINE
  5
2a2
100
AcDbEntity
  8
0
 62
7
100
AcDbSpline
 70
8
 71
3
 72
8
 73
4
 74
0
 40
0
 40
0
 40
0
 40
0
 40
1
 40
1
 40
1
 40
1
 10
73.563948
 20
167.950791
 30
0.0
 10
74.492421
 20
167.414484
 30
0.0
 10
75.636537
 20
167.414484
 30
0.0
 10
76.565010
 20
167.950791
 30
0.0
  0
SPLINE
  5
2a3
100
AcDbEntity
  8
0
 62
7
100
AcDbSpline
 70
8
 71
3
 72
8
 73
4
 74
0
 40
0
 40
0
 40
0
 40
0
 40
1
 40
1
 40
1
 40
1
 10
76.565010
 20
167.950791
 30
0.0
 10
77.493483
 20
168.487099
 30
0.0
 10
78.065136
 20
169.478166
 30
0.0
 10
78.064479
 20
170.550401
 30
0.0
  0
LWPOLYLINE
  5
2a4
100
AcDbEntity
  8
0
 62
7
100
AcDbPolyline
 90
3
 70
0
 10
194.953134
 20
189.172191
 30
0.0
 10
191.800711
 20
190.445854
 30
0.0
 10
202.739221
 20
217.519618
 30
0.0
  0
LWPOLYLINE
  5
2a5
100
AcDbEntity
  8
0
 62
7
100
AcDbPolyline
 90
2
 70
1
 10
78.064479
 20
170.550401
 30
0.0
 10
78.064479
 20
170.550401
 30
0.0
  0
LWPOLYLINE
  5
2a6
100
AcDbEntity
  8
0
 62
7
100
AcDbPolyline
 90
2
 70
0
 10
99.106572
 20
154.333777
 30
0.0
 10
96.254689
 20
150.105693
 30
0.0
  0
SPLINE
  5
2a7
100
AcDbEntity
  8
0
 62
7
100
AcDbSpline
 70
8
 71
3
 72
8
 73
4
 74
0
 40
0
 40
0
 40
0
 40
0
 40
1
 40
1
 40
1
 40
1
 10
96.254689
 20
150.105693
 30
0.0
 10
98.589800
 20
148.530650
 30
0.0
 10
101.759607
 20
149.146804
 30
0.0
 10
103.334654
 20
151.481913
 30
0.0
  0
SPLINE
  5
2a8
100
AcDbEntity
  8
0
 62
7
100
AcDbSpline
 70
8
 71
3
 72
8
 73
4
 74
0
 40
0
 40
0
 40
0
 40
0
 40
1
 40
1
 40
1
 40
1
 10
103.334654
 20
151.481913
 30
0.0
 10
104.909702
 20
153.817021
 30
0.0
 10
104.293554
 20
156.986829
 30
0.0
 10
101.958448
 20
158.561881
 30
0.0
  0
SPLINE
  5
2a9
100
AcDbEntity
  8
0
 62
7
100
AcDbSpline
 70
8
 71
3
 72
8
 73
4
 74
0
 40
0
 40
0
 40
0
 40
0
 40
1
 40
1
 40
1
 40
1
 10
101.958448
 20
158.561881
 30
0.0
 10
99.623343
 20
160.136933
 30
0.0
 10
96.453534
 20
159.520791
 30
0.0
 10
94.878477
 20
157.185689
 30
0.0
  0
SPLINE
  5
2aa
100
AcDbEntity
  8
0
 62
7
100
AcDbSpline
 70
8
 71
3
 72
8
 73
4
 74
0
 40
0
 40
0
 40
0
 40
0
 40
1
 40
1
 40
1
 40
1
 10
54.860246
 20
216.286482
 30
0.0
 10
52.908552
 20
215.424306
 30
0.0
 10
51.014046
 20
214.438086
 30
0.0
 10
49.188347
 20
213.333873
 30
0.0
  0
LWPOLYLINE
  5
2ab
100
AcDbEntity
  8
0
 62
7
100
AcDbPolyline
 90
2
 70
0
 10
94.878477
 20
157.185689
 30
0.0
 10
99.106572
 20
154.333777
 30
0.0
  0
LWPOLYLINE
  5
2ac
100
AcDbEntity
  8
0
 62
7
100
AcDbPolyline
 90
2
 70
0
 10
57.343988
 20
200.775295
 30
0.0
 10
49.188347
 20
213.333873
 30
0.0
  0
LWPOLYLINE
  5
2ad
100
AcDbEntity
  8
0
 62
7
100
AcDbPolyline
 90
2
 70
0
 10
54.660241
 20
199.032448
 30
0.0
 10
57.343988
 20
200.775295
 30
0.0
  0
SPLINE
  5
2ae
100
AcDbEntity
  8
0
 62
7
100
AcDbSpline
 70
8
 71
3
 72
8
 73
4
 74
0
 40
0
 40
0
 40
0
 40
0
 40
1
 40
1
 40
1
 40
1
 10
46.504600
 20
211.591032
 30
0.0
 10
44.753274
 20
210.372296
 30
0.0
 10
43.081754
 20
209.042708
 30
0.0
 10
41.500292
 20
207.610423
 30
0.0
  0
LWPOLYLINE
  5
2af
100
AcDbEntity
  8
0
 62
7
100
AcDbPolyline
 90
2
 70
0
 10
46.504600
 20
211.591032
 30
0.0
 10
54.660241
 20
199.032448
 30
0.0
  0
LWPOLYLINE
  5
2b0
100
AcDbEntity
  8
0
 62
7
100
AcDbPolyline
 90
2
 70
0
 10
51.902383
 20
196.838746
 30
0.0
 10
41.500292
 20
207.610423
 30
0.0
  0
LWPOLYLINE
  5
2b1
100
AcDbEntity
  8
0
 62
7
100
AcDbPolyline
 90
2
 70
0
 10
49.600493
 20
194.615840
 30
0.0
 10
51.902383
 20
196.838746
 30
0.0
  0
SPLINE
  5
2b2
100
AcDbEntity
  8
0
 62
7
100
AcDbSpline
 70
8
 71
3
 72
8
 73
4
 74
0
 40
0
 40
0
 40
0
 40
0
 40
1
 40
1
 40
1
 40
1
 10
39.198403
 20
205.387517
 30
0.0
 10
37.711800
 20
203.857004
 30
0.0
 10
36.324689
 20
202.232904
 30
0.0
 10
35.045577
 20
200.525178
 30
0.0
  0
LWPOLYLINE
  5
2b3
100
AcDbEntity
  8
0
 62
7
100
AcDbPolyline
 90
2
 70
0
 10
39.198403
 20
205.387517
 30
0.0
 10
49.600493
 20
194.615840
 30
0.0
  0
LWPOLYLINE
  5
2b4
100
AcDbEntity
  8
0
 62
7
100
AcDbPolyline
 90
2
 70
0
 10
47.311880
 20
191.936219
 30
0.0
 10
35.045577
 20
200.525178
 30
0.0
  0
LWPOLYLINE
  5
2b5
100
AcDbEntity
  8
0
 62
7
100
AcDbPolyline
 90
2
 70
0
 10
45.476437
 20
189.314933
 30
0.0
 10
47.311880
 20
191.936219
 30
0.0
  0
SPLINE
  5
2b6
100
AcDbEntity
  8
0
 62
7
100
AcDbSpline
 70
8
 71
3
 72
8
 73
4
 74
0
 40
0
 40
0
 40
0
 40
0
 40
1
 40
1
 40
1
 40
1
 10
33.210133
 20
197.903892
 30
0.0
 10
32.042877
 20
196.117841
 30
0.0
 10
30.991143
 20
194.258905
 30
0.0
 10
30.061380
 20
192.338487
 30
0.0
  0
LWPOLYLINE
  5
2b7
100
AcDbEntity
  8
0
 62
7
100
AcDbPolyline
 90
2
 70
0
 10
33.210133
 20
197.903892
 30
0.0
 10
45.476437
 20
189.314933
 30
0.0
  0
LWPOLYLINE
  5
2b8
100
AcDbEntity
  8
0
 62
7
100
AcDbPolyline
 90
2
 70
0
 10
43.741165
 20
186.247855
 30
0.0
 10
30.061380
 20
192.338487
 30
0.0
  0
LWPOLYLINE
  5
2b9
100
AcDbEntity
  8
0
 62
7
100
AcDbPolyline
 90
2
 70
0
 10
42.439613
 20
183.324507
 30
0.0
 10
43.741165
 20
186.247855
 30
0.0
  0
SPLINE
  5
2ba
100
AcDbEntity
  8
0
 62
7
100
AcDbSpline
 70
8
 71
3
 72
8
 73
4
 74
0
 40
0
 40
0
 40
0
 40
0
 40
1
 40
1
 40
1
 40
1
 10
28.759822
 20
189.415145
 30
0.0
 10
27.954806
 20
187.439186
 30
0.0
 10
27.277096
 20
185.413724
 30
0.0
 10
26.730849
 20
183.351183
 30
0.0
  0
LWPOLYLINE
  5
2bb
100
AcDbEntity
  8
0
 62
7
100
AcDbPolyline
 90
2
 70
0
 10
28.759822
 20
189.415145
 30
0.0
 10
42.439613
 20
183.324507
 30
0.0
  0
LWPOLYLINE
  5
2bc
100
AcDbEntity
  8
0
 62
7
100
AcDbPolyline
 90
2
 70
0
 10
41.321448
 20
179.982680
 30
0.0
 10
26.730849
 20
183.351183
 30
0.0
  0
LWPOLYLINE
  5
2bd
100
AcDbEntity
  8
0
 62
7
100
AcDbPolyline
 90
2
 70
0
 10
40.601606
 20
176.864694
 30
0.0
 10
41.321448
 20
179.982680
 30
0.0
  0
SPLINE
  5
2be
100
AcDbEntity
  8
0
 62
7
100
AcDbSpline
 70
8
 71
3
 72
8
 73
4
 74
0
 40
0
 40
0
 40
0
 40
0
 40
1
 40
1
 40
1
 40
1
 10
26.011007
 20
180.233197
 30
0.0
 10
25.597812
 20
178.139939
 30
0.0
 10
25.319030
 20
176.022379
 30
0.0
 10
25.176369
 20
173.893504
 30
0.0
  0
LWPOLYLINE
  5
2bf
100
AcDbEntity
  8
0
 62
7
100
AcDbPolyline
 90
2
 70
0
 10
26.011007
 20
180.233197
 30
0.0
 10
40.601606
 20
176.864694
 30
0.0
  0
LWPOLYLINE
  5
2c0
100
AcDbEntity
  8
0
 62
7
100
AcDbPolyline
 90
2
 70
0
 10
40.141641
 20
173.370907
 30
0.0
 10
25.176369
 20
173.893504
 30
0.0
  0
LWPOLYLINE
  5
2c1
100
AcDbEntity
  8
0
 62
7
100
AcDbPolyline
 90
2
 70
0
 10
40.029960
 20
170.172878
 30
0.0
 10
40.141641
 20
173.370907
 30
0.0
  0
SPLINE
  5
2c2
100
AcDbEntity
  8
0
 62
7
100
AcDbSpline
 70
8
 71
3
 72
8
 73
4
 74
0
 40
0
 40
0
 40
0
 40
0
 40
1
 40
1
 40
1
 40
1
 10
25.064693
 20
170.695458
 30
0.0
 10
24.992311
 20
145.745845
 30
0.0
 10
43.323727
 20
124.561134
 30
0.0
 10
68.024929
 20
121.048437
 30
0.0
  0
SPLINE
  5
2c3
100
AcDbEntity
  8
0
 62
7
100
AcDbSpline
 70
8
 71
3
 72
8
 73
4
 74
0
 40
0
 40
0
 40
0
 40
0
 40
1
 40
1
 40
1
 40
1
 10
68.024929
 20
121.048437
 30
0.0
 10
92.726131
 20
117.535740
 30
0.0
 10
116.236630
 20
132.770215
 30
0.0
 10
123.122504
 20
156.750898
 30
0.0
  0
SPLINE
  5
2c4
100
AcDbEntity
  8
0
 62
7
100
AcDbSpline
 70
8
 71
3
 72
8
 73
4
 74
0
 40
0
 40
0
 40
0
 40
0
 40
1
 40
1
 40
1
 40
1
 10
123.122504
 20
156.750898
 30
0.0
 10
130.008379
 20
180.731580
 30
0.0
 10
118.162017
 20
206.118516
 30
0.0
 10
95.360191
 20
216.245961
 30
0.0
  0
LWPOLYLINE
  5
2c5
100
AcDbEntity
  8
0
 62
7
100
AcDbPolyline
 90
2
 70
0
 10
25.064693
 20
170.695458
 30
0.0
 10
40.029960
 20
170.172878
 30
0.0
  0
LWPOLYLINE
  5
2c6
100
AcDbEntity
  8
0
 62
7
100
AcDbPolyline
 90
2
 70
0
 10
86.931545
 20
195.384320
 30
0.0
 10
95.360191
 20
216.245961
 30
0.0
  0
LWPOLYLINE
  5
2c7
100
AcDbEntity
  8
0
 62
7
100
AcDbPolyline
 90
2
 70
0
 10
89.713099
 20
194.260500
 30
0.0
 10
86.931545
 20
195.384320
 30
0.0
  0
LWPOLYLINE
  5
2c8
100
AcDbEntity
  8
0
 62
7
100
AcDbPolyline
 90
2
 70
0
 10
89.375951
 20
193.426036
 30
0.0
 10
89.713099
 20
194.260500
 30
0.0
  0
LWPOLYLINE
  5
2c9
100
AcDbEntity
  8
0
 62
7
100
AcDbPolyline
 90
2
 70
0
 10
92.157499
 20
192.302216
 30
0.0
 10
89.375951
 20
193.426036
 30
0.0
  0
LWPOLYLINE
  5
2ca
100
AcDbEntity
  8
0
 62
7
100
AcDbPolyline
 90
2
 70
0
 10
90.958760
 20
189.335225
 30
0.0
 10
92.157499
 20
192.302216
 30
0.0
  0
LWPOLYLINE
  5
2cb
100
AcDbEntity
  8
0
 62
7
100
AcDbPolyline
 90
2
 70
0
 10
88.177212
 20
190.459045
 30
0.0
 10
90.958760
 20
189.335225
 30
0.0
  0
LWPOLYLINE
  5
2cc
100
AcDbEntity
  8
0
 62
7
100
AcDbPolyline
 90
2
 70
0
 10
87.840064
 20
189.624582
 30
0.0
 10
88.177212
 20
190.459045
 30
0.0
  0
LWPOLYLINE
  5
2cd
100
AcDbEntity
  8
0
 62
7
100
AcDbPolyline
 90
2
 70
0
 10
85.058510
 20
190.748402
 30
0.0
 10
87.840064
 20
189.624582
 30
0.0
  0
LWPOLYLINE
  5
2ce
100
AcDbEntity
  8
0
 62
7
100
AcDbPolyline
 90
2
 70
0
 10
84.421681
 20
189.172191
 30
0.0
 10
85.058510
 20
190.748402
 30
0.0
  0
LWPOLYLINE
  5
2cf
100
AcDbEntity
  8
0
 62
7
100
AcDbPolyline
 90
3
 70
0
 10
84.421681
 20
189.172191
 30
0.0
 10
81.269259
 20
190.445854
 30
0.0
 10
82.243236
 20
192.856529
 30
0.0
  0
LWPOLYLINE
  5
2d0
100
AcDbEntity
  8
0
 62
7
100
AcDbPolyline
 90
2
 70
0
 10
79.461682
 20
193.980349
 30
0.0
 10
82.243236
 20
192.856529
 30
0.0
  0
LWPOLYLINE
  5
2d1
100
AcDbEntity
  8
0
 62
7
100
AcDbPolyline
 90
2
 70
0
 10
80.660421
 20
196.947340
 30
0.0
 10
79.461682
 20
193.980349
 30
0.0
  0
LWPOLYLINE
  5
2d2
100
AcDbEntity
  8
0
 62
7
100
AcDbPolyline
 90
2
 70
0
 10
83.441975
 20
195.823520
 30
0.0
 10
80.660421
 20
196.947340
 30
0.0
  0
SPLINE
  5
2d3
100
AcDbEntity
  8
0
 62
7
100
AcDbSpline
 70
8
 71
3
 72
8
 73
4
 74
0
 40
0
 40
0
 40
0
 40
0
 40
1
 40
1
 40
1
 40
1
 10
92.207769
 20
217.519618
 30
0.0
 10
87.219140
 20
219.340418
 30
0.0
 10
81.972292
 20
220.354856
 30
0.0
 10
76.664481
 20
220.524794
 30
0.0
  0
LWPOLYLINE
  5
2d4
100
AcDbEntity
  8
0
 62
7
100
AcDbPolyline
 90
2
 70
0
 10
83.441975
 20
195.823520
 30
0.0
 10
92.207769
 20
217.519618
 30
0.0
  0
LWPOLYLINE
  5
2d5
100
AcDbEntity
  8
0
 62
7
100
AcDbPolyline
 90
2
 70
0
 10
76.664481
 20
205.550399
 30
0.0
 10
76.664481
 20
220.524794
 30
0.0
  0
LWPOLYLINE
  5
2d6
100
AcDbEntity
  8
0
 62
7
100
AcDbPolyline
 90
2
 70
0
 10
73.464482
 20
205.550399
 30
0.0
 10
76.664481
 20
205.550399
 30
0.0
  0
SPLINE
  5
2d7
100
AcDbEntity
  8
0
 62
7
100
AcDbSpline
 70
8
 71
3
 72
8
 73
4
 74
0
 40
0
 40
0
 40
0
 40
0
 40
1
 40
1
 40
1
 40
1
 10
73.464482
 20
220.524794
 30
0.0
 10
71.331924
 20
220.456518
 30
0.0
 10
69.205923
 20
220.251808
 30
0.0
 10
67.099519
 20
219.911920
 30
0.0
  0
LWPOLYLINE
  5
2d8
100
AcDbEntity
  8
0
 62
7
100
AcDbPolyline
 90
2
 70
0
 10
73.464482
 20
220.524794
 30
0.0
 10
73.464482
 20
205.550399
 30
0.0
  0
LWPOLYLINE
  5
2d9
100
AcDbEntity
  8
0
 62
7
100
AcDbPolyline
 90
2
 70
0
 10
69.956770
 20
205.212647
 30
0.0
 10
67.099519
 20
219.911920
 30
0.0
  0
LWPOLYLINE
  5
2da
100
AcDbEntity
  8
0
 62
7
100
AcDbPolyline
 90
2
 70
0
 10
66.815564
 20
204.602059
 30
0.0
 10
69.956770
 20
205.212647
 30
0.0
  0
SPLINE
  5
2db
100
AcDbEntity
  8
0
 62
7
100
AcDbSpline
 70
8
 71
3
 72
8
 73
4
 74
0
 40
0
 40
0
 40
0
 40
0
 40
1
 40
1
 40
1
 40
1
 10
63.958312
 20
219.301327
 30
0.0
 10
61.877964
 20
218.827394
 30
0.0
 10
59.830086
 20
218.220785
 30
0.0
 10
57.827237
 20
217.485221
 30
0.0
  0
LWPOLYLINE
  5
2dc
100
AcDbEntity
  8
0
 62
7
100
AcDbPolyline
 90
2
 70
0
 10
63.958312
 20
219.301327
 30
0.0
 10
66.815564
 20
204.602059
 30
0.0
  0
LWPOLYLINE
  5
2dd
100
AcDbEntity
  8
0
 62
7
100
AcDbPolyline
 90
2
 70
0
 10
63.436743
 20
203.601203
 30
0.0
 10
57.827237
 20
217.485221
 30
0.0
  0
LWPOLYLINE
  5
2de
100
AcDbEntity
  8
0
 62
7
100
AcDbPolyline
 90
2
 70
0
 10
60.469757
 20
202.402464
 30
0.0
 10
63.436743
 20
203.601203
 30
0.0
  0
LWPOLYLINE
  5
2df
100
AcDbEntity
  8
0
 62
7
100
AcDbPolyline
 90
2
 70
0
 10
54.860246
 20
216.286482
 30
0.0
 10
60.469757
 20
202.402464
 30
0.0
  0
SPLINE
  5
2e0
100
AcDbEntity
  8
0
 62
7
100
AcDbSpline
 70
8
 71
3
 72
8
 73
4
 74
0
 40
0
 40
0
 40
0
 40
0
 40
1
 40
1
 40
1
 40
1
 10
-27.853322
 20
137.113141
 30
0.0
 10
-26.512378
 20
138.021913
 30
0.0
 10
-25.682896
 20
139.513671
 30
0.0
 10
-25.618518
 20
141.132268
 30
0.0
  0
LWPOLYLINE
  5
2e1
100
AcDbEntity
  8
0
 62
7
100
AcDbPolyline
 90
2
 70
0
 10
-27.853322
 20
137.113141
 30
0.0
 10
-30.070253
 20
140.384322
 30
0.0
  0
SPLINE
  5
2e2
100
AcDbEntity
  8
0
 62
7
100
AcDbSpline
 70
8
 71
3
 72
8
 73
4
 74
0
 40
0
 40
0
 40
0
 40
0
 40
1
 40
1
 40
1
 40
1
 10
-21.619547
 20
138.666154
 30
0.0
 10
-20.476632
 20
139.814100
 30
0.0
 10
-19.947031
 20
141.436737
 30
0.0
 10
-20.192688
 20
143.037889
 30
0.0
  0
LWPOLYLINE
  5
2e3
100
AcDbEntity
  8
0
 62
7
100
AcDbPolyline
 90
2
 70
0
 10
-21.619547
 20
138.666154
 30
0.0
 10
-24.419914
 20
141.454283
 30
0.0
  0
SPLINE
  5
2e4
100
AcDbEntity
  8
0
 62
7
100
AcDbSpline
 70
8
 71
3
 72
8
 73
4
 74
0
 40
0
 40
0
 40
0
 40
0
 40
1
 40
1
 40
1
 40
1
 10
-15.796637
 20
141.380172
 30
0.0
 10
-14.893765
 20
142.725098
 30
0.0
 10
-14.683507
 20
144.418964
 30
0.0
 10
-15.230155
 20
145.943818
 30
0.0
  0
LWPOLYLINE
  5
2e5
100
AcDbEntity
  8
0
 62
7
100
AcDbPolyline
 90
2
 70
0
 10
-15.796637
 20
141.380172
 30
0.0
 10
-19.077543
 20
143.582690
 30
0.0
  0
SPLINE
  5
2e6
100
AcDbEntity
  8
0
 62
7
100
AcDbSpline
 70
8
 71
3
 72
8
 73
4
 74
0
 40
0
 40
0
 40
0
 40
0
 40
1
 40
1
 40
1
 40
1
 10
-10.598561
 20
145.155346
 30
0.0
 10
-9.968894
 20
146.647847
 30
0.0
 10
-10.085706
 20
148.350724
 30
0.0
 10
-10.913278
 20
149.743263
 30
0.0
  0
LWPOLYLINE
  5
2e7
100
AcDbEntity
  8
0
 62
7
100
AcDbPolyline
 90
2
 70
0
 10
-10.598561
 20
145.155346
 30
0.0
 10
-14.239453
 20
146.691368
 30
0.0
  0
SPLINE
  5
2e8
100
AcDbEntity
  8
0
 62
7
100
AcDbSpline
 70
8
 71
3
 72
8
 73
4
 74
0
 40
0
 40
0
 40
0
 40
0
 40
1
 40
1
 40
1
 40
1
 10
-6.216327
 20
149.852991
 30
0.0
 10
-5.883005
 20
151.438221
 30
0.0
 10
-6.322593
 20
153.087529
 30
0.0
 10
-7.400672
 20
154.296580
 30
0.0
  0
LWPOLYLINE
  5
2e9
100
AcDbEntity
  8
0
 62
7
100
AcDbPolyline
 90
2
 70
0
 10
-6.216327
 20
149.852991
 30
0.0
 10
-10.083415
 20
150.666130
 30
0.0
  0
SPLINE
  5
2ea
100
AcDbEntity
  8
0
 62
7
100
AcDbSpline
 70
8
 71
3
 72
8
 73
4
 74
0
 40
0
 40
0
 40
0
 40
0
 40
1
 40
1
 40
1
 40
1
 10
-2.810966
 20
155.300501
 30
0.0
 10
-2.786241
 20
156.920206
 30
0.0
 10
-3.532454
 20
158.455335
 30
0.0
 10
-4.821421
 20
159.436467
 30
0.0
  0
LWPOLYLINE
  5
2eb
100
AcDbEntity
  8
0
 62
7
100
AcDbPolyline
 90
2
 70
0
 10
-2.810966
 20
155.300501
 30
0.0
 10
-6.762150
 20
155.360783
 30
0.0
  0
SPLINE
  5
2ec
100
AcDbEntity
  8
0
 62
7
100
AcDbSpline
 70
8
 71
3
 72
8
 73
4
 74
0
 40
0
 40
0
 40
0
 40
0
 40
1
 40
1
 40
1
 40
1
 10
-0.507604
 20
161.297723
 30
0.0
 10
-0.792394
 20
162.892377
 30
0.0
 10
-1.817808
 20
164.256907
 30
0.0
 10
-3.270294
 20
164.974062
 30
0.0
  0
SPLINE
  5
2ed
100
AcDbEntity
  8
0
 62
7
100
AcDbSpline
 70
8
 71
3
 72
8
 73
4
 74
0
 40
0
 40
0
 40
0
 40
0
 40
1
 40
1
 40
1
 40
1
 10
-3.270294
 20
164.974062
 30
0.0
 10
-3.197394
 20
165.381343
 30
0.0
 10
-3.132929
 20
165.790088
 30
0.0
 10
-3.076938
 20
166.200036
 30
0.0
  0
LWPOLYLINE
  5
2ee
100
AcDbEntity
  8
0
 62
7
100
AcDbPolyline
 90
2
 70
0
 10
-4.397698
 20
160.603005
 30
0.0
 10
-0.507604
 20
161.297723
 30
0.0
  0
SPLINE
  5
2ef
100
AcDbEntity
  8
0
 62
7
100
AcDbSpline
 70
8
 71
3
 72
8
 73
4
 74
0
 40
0
 40
0
 40
0
 40
0
 40
1
 40
1
 40
1
 40
1
 10
0.609116
 20
167.624242
 30
0.0
 10
0.025288
 20
169.135259
 30
0.0
 10
-1.241650
 20
170.279064
 30
0.0
 10
-2.804288
 20
170.705900
 30
0.0
  0
LWPOLYLINE
  5
2f0
100
AcDbEntity
  8
0
 62
7
100
AcDbPolyline
 90
2
 70
0
 10
-3.076938
 20
166.200036
 30
0.0
 10
0.609122
 20
167.624242
 30
0.0
  0
SPLINE
  5
2f1
100
AcDbEntity
  8
0
 62
7
100
AcDbSpline
 70
8
 71
3
 72
8
 73
4
 74
0
 40
0
 40
0
 40
0
 40
0
 40
1
 40
1
 40
1
 40
1
 10
-40.630551
 20
137.673296
 30
0.0
 10
-39.046806
 20
138.013573
 30
0.0
 10
-37.718897
 20
139.085994
 30
0.0
 10
-37.052877
 20
140.562630
 30
0.0
  0
LWPOLYLINE
  5
2f2
100
AcDbEntity
  8
0
 62
7
100
AcDbPolyline
 90
2
 70
0
 10
-40.630551
 20
137.673296
 30
0.0
 10
-41.460634
 20
141.536805
 30
0.0
  0
SPLINE
  5
2f3
100
AcDbEntity
  8
0
 62
7
100
AcDbSpline
 70
8
 71
3
 72
8
 73
4
 74
0
 40
0
 40
0
 40
0
 40
0
 40
1
 40
1
 40
1
 40
1
 10
-34.268907
 20
136.778087
 30
0.0
 10
-32.779198
 20
137.414297
 30
0.0
 10
-31.680317
 20
138.720374
 30
0.0
 10
-31.308277
 20
140.296946
 30
0.0
  0
SPLINE
  5
2f4
100
AcDbEntity
  8
0
 62
7
100
AcDbSpline
 70
8
 71
3
 72
8
 73
4
 74
0
 40
0
 40
0
 40
0
 40
0
 40
1
 40
1
 40
1
 40
1
 10
-3.322923
 20
129.873577
 30
0.0
 10
18.296694
 20
145.653734
 30
0.0
 10
23.654885
 20
175.660751
 30
0.0
 10
8.832780
 20
197.948110
 30
0.0
  0
SPLINE
  5
2f5
100
AcDbEntity
  8
0
 62
7
100
AcDbSpline
 70
8
 71
3
 72
8
 73
4
 74
0
 40
0
 40
0
 40
0
 40
0
 40
1
 40
1
 40
1
 40
1
 10
8.832780
 20
197.948110
 30
0.0
 10
-5.989325
 20
220.235469
 30
0.0
 10
-35.734061
 20
226.897446
 30
0.0
 10
-58.646738
 20
213.061608
 30
0.0
  0
SPLINE
  5
2f6
100
AcDbEntity
  8
0
 62
7
100
AcDbSpline
 70
8
 71
3
 72
8
 73
4
 74
0
 40
0
 40
0
 40
0
 40
0
 40
1
 40
1
 40
1
 40
1
 10
-58.646738
 20
213.061608
 30
0.0
 10
-81.559415
 20
199.225769
 30
0.0
 10
-89.512496
 20
169.799934
 30
0.0
 10
-76.689262
 20
146.305556
 30
0.0
  0
SPLINE
  5
2f7
100
AcDbEntity
  8
0
 62
7
100
AcDbSpline
 70
8
 71
3
 72
8
 73
4
 74
0
 40
0
 40
0
 40
0
 40
0
 40
1
 40
1
 40
1
 40
1
 10
-76.689262
 20
146.305556
 30
0.0
 10
-63.866028
 20
122.811177
 30
0.0
 10
-34.815107
 20
113.582130
 30
0.0
 10
-10.783749
 20
125.368350
 30
0.0
  0
LWPOLYLINE
  5
2f8
100
AcDbEntity
  8
0
 62
7
100
AcDbPolyline
 90
2
 70
0
 10
-34.268907
 20
136.778087
 30
0.0
 10
-35.820926
 20
140.412150
 30
0.0
  0
SPLINE
  5
2f9
100
AcDbEntity
  8
0
 62
7
100
AcDbSpline
 70
8
 71
3
 72
8
 73
4
 74
0
 40
0
 40
0
 40
0
 40
0
 40
1
 40
1
 40
1
 40
1
 10
-2.074620
 20
124.642983
 30
0.0
 10
-1.623822
 20
124.946629
 30
0.0
 10
-1.316022
 20
125.420669
 30
0.0
 10
-1.222056
 20
125.956010
 30
0.0
  0
SPLINE
  5
2fa
100
AcDbEntity
  8
0
 62
7
100
AcDbSpline
 70
8
 71
3
 72
8
 73
4
 74
0
 40
0
 40
0
 40
0
 40
0
 40
1
 40
1
 40
1
 40
1
 10
-1.222056
 20
125.956010
 30
0.0
 10
-1.128090
 20
126.491350
 30
0.0
 10
-1.256051
 20
127.041879
 30
0.0
 10
-1.576492
 20
127.480897
 30
0.0
  0
SPLINE
  5
2fb
100
AcDbEntity
  8
0
 62
7
100
AcDbSpline
 70
8
 71
3
 72
8
 73
4
 74
0
 40
0
 40
0
 40
0
 40
0
 40
1
 40
1
 40
1
 40
1
 10
-6.735858
 20
121.828268
 30
0.0
 10
-5.136593
 20
122.688971
 30
0.0
 10
-3.580940
 20
123.628360
 30
0.0
 10
-2.074620
 20
124.642983
 30
0.0
  0
SPLINE
  5
2fc
100
AcDbEntity
  8
0
 62
7
100
AcDbSpline
 70
8
 71
3
 72
8
 73
4
 74
0
 40
0
 40
0
 40
0
 40
0
 40
1
 40
1
 40
1
 40
1
 10
-9.479335
 20
122.708745
 30
0.0
 10
-9.240001
 20
122.220750
 30
0.0
 10
-8.812362
 20
121.851180
 30
0.0
 10
-8.294836
 20
121.685088
 30
0.0
  0
SPLINE
  5
2fd
100
AcDbEntity
  8
0
 62
7
100
AcDbSpline
 70
8
 71
3
 72
8
 73
4
 74
0
 40
0
 40
0
 40
0
 40
0
 40
1
 40
1
 40
1
 40
1
 10
-8.294836
 20
121.685088
 30
0.0
 10
-7.777310
 20
121.518996
 30
0.0
 10
-7.214474
 20
121.570688
 30
0.0
 10
-6.735858
 20
121.828268
 30
0.0
  0
LWPOLYLINE
  5
2fe
100
AcDbEntity
  8
0
 62
7
100
AcDbPolyline
 90
2
 70
0
 10
-3.322923
 20
129.873577
 30
0.0
 10
-1.576492
 20
127.480897
 30
0.0
  0
SPLINE
  5
2ff
100
AcDbEntity
  8
0
 62
7
100
AcDbSpline
 70
8
 71
3
 72
8
 73
4
 74
0
 40
0
 40
0
 40
0
 40
0
 40
1
 40
1
 40
1
 40
1
 10
-50.474826
 20
211.643785
 30
0.0
 10
-62.203418
 20
206.634861
 30
0.0
 10
-71.255801
 20
196.884515
 30
0.0
 10
-75.381401
 20
184.816847
 30
0.0
  0
SPLINE
  5
300
100
AcDbEntity
  8
0
 62
7
100
AcDbSpline
 70
8
 71
3
 72
8
 73
4
 74
0
 40
0
 40
0
 40
0
 40
0
 40
1
 40
1
 40
1
 40
1
 10
-75.381401
 20
184.816847
 30
0.0
 10
-79.507001
 20
172.749179
 30
0.0
 10
-78.318304
 20
159.497693
 30
0.0
 10
-72.110840
 20
148.356931
 30
0.0
  0
LWPOLYLINE
  5
301
100
AcDbEntity
  8
0
 62
7
100
AcDbPolyline
 90
2
 70
0
 10
-9.479335
 20
122.708745
 30
0.0
 10
-10.783749
 20
125.368350
 30
0.0
  0
SPLINE
  5
302
100
AcDbEntity
  8
0
 62
7
100
AcDbSpline
 70
8
 71
3
 72
8
 73
4
 74
0
 40
0
 40
0
 40
0
 40
0
 40
1
 40
1
 40
1
 40
1
 10
-50.896478
 20
205.932652
 30
0.0
 10
-60.598186
 20
201.011342
 30
0.0
 10
-67.877001
 20
192.350858
 30
0.0
 10
-71.055502
 20
181.947034
 30
0.0
  0
SPLINE
  5
303
100
AcDbEntity
  8
0
 62
7
100
AcDbSpline
 70
8
 71
3
 72
8
 73
4
 74
0
 40
0
 40
0
 40
0
 40
0
 40
1
 40
1
 40
1
 40
1
 10
-71.055502
 20
181.947034
 30
0.0
 10
-74.234003
 20
171.543209
 30
0.0
 10
-73.037986
 20
160.293557
 30
0.0
 10
-67.743078
 20
150.790590
 30
0.0
  0
SPLINE
  5
304
100
AcDbEntity
  8
0
 62
7
100
AcDbSpline
 70
8
 71
3
 72
8
 73
4
 74
0
 40
0
 40
0
 40
0
 40
0
 40
1
 40
1
 40
1
 40
1
 10
-49.290645
 20
206.022111
 30
0.0
 10
-49.814858
 20
206.218312
 30
0.0
 10
-50.397301
 20
206.185865
 30
0.0
 10
-50.896478
 20
205.932652
 30
0.0
  0
LWPOLYLINE
  5
305
100
AcDbEntity
  8
0
 62
7
100
AcDbPolyline
 90
2
 70
0
 10
-67.743073
 20
150.790590
 30
0.0
 10
-72.110840
 20
148.356931
 30
0.0
  0
SPLINE
  5
306
100
AcDbEntity
  8
0
 62
7
100
AcDbSpline
 70
8
 71
3
 72
8
 73
4
 74
0
 40
0
 40
0
 40
0
 40
0
 40
1
 40
1
 40
1
 40
1
 10
1.541223
 20
177.013567
 30
0.0
 10
-0.372856
 20
186.746445
 30
0.0
 10
-6.326884
 20
195.210045
 30
0.0
 10
-14.840591
 20
200.300175
 30
0.0
  0
SPLINE
  5
307
100
AcDbEntity
  8
0
 62
7
100
AcDbSpline
 70
8
 71
3
 72
8
 73
4
 74
0
 40
0
 40
0
 40
0
 40
0
 40
1
 40
1
 40
1
 40
1
 10
-14.840591
 20
200.300175
 30
0.0
 10
-23.354297
 20
205.390305
 30
0.0
 10
-33.628000
 20
206.628855
 30
0.0
 10
-43.107486
 20
203.707900
 30
0.0
  0
LWPOLYLINE
  5
308
100
AcDbEntity
  8
0
 62
7
100
AcDbPolyline
 90
2
 70
0
 10
-43.107486
 20
203.707900
 30
0.0
 10
-49.290645
 20
206.022111
 30
0.0
  0
SPLINE
  5
309
100
AcDbEntity
  8
0
 62
7
100
AcDbSpline
 70
8
 71
3
 72
8
 73
4
 74
0
 40
0
 40
0
 40
0
 40
0
 40
1
 40
1
 40
1
 40
1
 10
6.447255
 20
177.978394
 30
0.0
 10
4.338146
 20
188.702986
 30
0.0
 10
-2.067706
 20
198.097391
 30
0.0
 10
-11.281134
 20
203.977694
 30
0.0
  0
SPLINE
  5
30a
100
AcDbEntity
  8
0
 62
7
100
AcDbSpline
 70
8
 71
3
 72
8
 73
4
 74
0
 40
0
 40
0
 40
0
 40
0
 40
1
 40
1
 40
1
 40
1
 10
-11.281134
 20
203.977694
 30
0.0
 10
-20.494562
 20
209.857997
 30
0.0
 10
-31.712968
 20
211.711954
 30
0.0
 10
-42.328411
 20
209.108578
 30
0.0
  0
SPLINE
  5
30b
100
AcDbEntity
  8
0
 62
7
100
AcDbSpline
 70
8
 71
3
 72
8
 73
4
 74
0
 40
0
 40
0
 40
0
 40
0
 40
1
 40
1
 40
1
 40
1
 10
-43.472004
 20
209.165598
 30
0.0
 10
-43.104510
 20
209.035546
 30
0.0
 10
-42.707020
 20
209.015727
 30
0.0
 10
-42.328411
 20
209.108578
 30
0.0
  0
LWPOLYLINE
  5
30c
100
AcDbEntity
  8
0
 62
7
100
AcDbPolyline
 90
2
 70
0
 10
6.447250
 20
177.978388
 30
0.0
 10
1.541223
 20
177.013567
 30
0.0
  0
SPLINE
  5
30d
100
AcDbEntity
  8
0
 62
7
100
AcDbSpline
 70
8
 71
3
 72
8
 73
4
 74
0
 40
0
 40
0
 40
0
 40
0
 40
1
 40
1
 40
1
 40
1
 10
-4.821421
 20
159.436467
 30
0.0
 10
-4.672151
 20
159.822350
 30
0.0
 10
-4.530880
 20
160.211279
 30
0.0
 10
-4.397698
 20
160.603005
 30
0.0
  0
SPLINE
  5
30e
100
AcDbEntity
  8
0
 62
7
100
AcDbSpline
 70
8
 71
3
 72
8
 73
4
 74
0
 40
0
 40
0
 40
0
 40
0
 40
1
 40
1
 40
1
 40
1
 10
-15.230155
 20
145.943818
 30
0.0
 10
-14.894801
 20
146.186143
 30
0.0
 10
-14.564497
 20
146.435380
 30
0.0
 10
-14.239453
 20
146.691368
 30
0.0
  0
SPLINE
  5
30f
100
AcDbEntity
  8
0
 62
7
100
AcDbSpline
 70
8
 71
3
 72
8
 73
4
 74
0
 40
0
 40
0
 40
0
 40
0
 40
1
 40
1
 40
1
 40
1
 10
-20.192688
 20
143.037889
 30
0.0
 10
-19.817256
 20
143.211780
 30
0.0
 10
-19.445462
 20
143.393420
 30
0.0
 10
-19.077543
 20
143.582690
 30
0.0
  0
SPLINE
  5
310
100
AcDbEntity
  8
0
 62
7
100
AcDbSpline
 70
8
 71
3
 72
8
 73
4
 74
0
 40
0
 40
0
 40
0
 40
0
 40
1
 40
1
 40
1
 40
1
 10
-7.400672
 20
154.296580
 30
0.0
 10
-7.180516
 20
154.646873
 30
0.0
 10
-6.967630
 20
155.001684
 30
0.0
 10
-6.762150
 20
155.360783
 30
0.0
  0
SPLINE
  5
311
100
AcDbEntity
  8
0
 62
7
100
AcDbSpline
 70
8
 71
3
 72
8
 73
4
 74
0
 40
0
 40
0
 40
0
 40
0
 40
1
 40
1
 40
1
 40
1
 10
-10.913278
 20
149.743263
 30
0.0
 10
-10.630323
 20
150.045130
 30
0.0
 10
-10.353642
 20
150.352818
 30
0.0
 10
-10.083415
 20
150.666130
 30
0.0
  0
SPLINE
  5
312
100
AcDbEntity
  8
0
 62
7
100
AcDbSpline
 70
8
 71
3
 72
8
 73
4
 74
0
 40
0
 40
0
 40
0
 40
0
 40
1
 40
1
 40
1
 40
1
 10
-25.618518
 20
141.132268
 30
0.0
 10
-25.216805
 20
141.231330
 30
0.0
 10
-24.817185
 20
141.338691
 30
0.0
 10
-24.419914
 20
141.454283
 30
0.0
  0
SPLINE
  5
313
100
AcDbEntity
  8
0
 62
7
100
AcDbSpline
 70
8
 71
3
 72
8
 73
4
 74
0
 40
0
 40
0
 40
0
 40
0
 40
1
 40
1
 40
1
 40
1
 10
-31.308277
 20
140.296946
 30
0.0
 10
-30.895042
 20
140.317532
 30
0.0
 10
-30.482277
 20
140.346663
 30
0.0
 10
-30.070247
 20
140.384322
 30
0.0
  0
SPLINE
  5
314
100
AcDbEntity
  8
0
 62
7
100
AcDbSpline
 70
8
 71
3
 72
8
 73
4
 74
0
 40
0
 40
0
 40
0
 40
0
 40
1
 40
1
 40
1
 40
1
 10
-2.804288
 20
170.705900
 30
0.0
 10
-3.032981
 20
186.083496
 30
0.0
 10
-14.853333
 20
198.797578
 30
0.0
 10
-30.173533
 20
200.144516
 30
0.0
  0
SPLINE
  5
315
100
AcDbEntity
  8
0
 62
7
100
AcDbSpline
 70
8
 71
3
 72
8
 73
4
 74
0
 40
0
 40
0
 40
0
 40
0
 40
1
 40
1
 40
1
 40
1
 10
-30.173533
 20
200.144516
 30
0.0
 10
-45.493733
 20
201.491454
 30
0.0
 10
-59.351223
 20
191.034945
 30
0.0
 10
-62.259635
 20
175.933161
 30
0.0
  0
SPLINE
  5
316
100
AcDbEntity
  8
0
 62
7
100
AcDbSpline
 70
8
 71
3
 72
8
 73
4
 74
0
 40
0
 40
0
 40
0
 40
0
 40
1
 40
1
 40
1
 40
1
 10
-62.259635
 20
175.933161
 30
0.0
 10
-65.168047
 20
160.831376
 30
0.0
 10
-56.185281
 20
145.976123
 30
0.0
 10
-41.460634
 20
141.536805
 30
0.0
  0
SPLINE
  5
317
100
AcDbEntity
  8
0
 62
7
100
AcDbSpline
 70
8
 71
3
 72
8
 73
4
 74
0
 40
0
 40
0
 40
0
 40
0
 40
1
 40
1
 40
1
 40
1
 10
-37.052877
 20
140.562630
 30
0.0
 10
-36.643308
 20
140.503980
 30
0.0
 10
-36.232570
 20
140.453809
 30
0.0
 10
-35.820926
 20
140.412150
 30
0.0
  0
LWPOLYLINE
  5
318
100
AcDbEntity
  8
0
 62
7
100
AcDbPolyline
 90
2
 70
0
 10
-50.474826
 20
211.643791
 30
0.0
 10
-43.471998
 20
209.165598
 30
0.0
  0
LWPOLYLINE
  5
319
100
AcDbEntity
  8
0
 62
7
100
AcDbPolyline
 90
4
 70
0
 10
-21.716942
 20
172.185089
 30
0.0
 10
-22.702146
 20
175.217228
 30
0.0
 10
-20.147911
 20
176.471079
 30
0.0
 10
-17.738162
 20
180.114325
 30
0.0
  0
LWPOLYLINE
  5
31a
100
AcDbEntity
  8
0
 62
7
100
AcDbPolyline
 90
2
 70
0
 10
-24.965467
 20
178.332419
 30
0.0
 10
-27.544758
 20
180.206386
 30
0.0
  0
SPLINE
  5
31b
100
AcDbEntity
  8
0
 62
7
100
AcDbSpline
 70
8
 71
3
 72
8
 73
4
 74
0
 40
0
 40
0
 40
0
 40
0
 40
1
 40
1
 40
1
 40
1
 10
-5.453243
 20
157.926861
 30
0.0
 10
-6.944652
 20
159.196264
 30
0.0
 10
-9.031242
 20
159.499486
 30
0.0
 10
-10.822272
 20
158.707087
 30
0.0
  0
SPLINE
  5
31c
100
AcDbEntity
  8
0
 62
7
100
AcDbSpline
 70
8
 71
3
 72
8
 73
4
 74
0
 40
0
 40
0
 40
0
 40
0
 40
1
 40
1
 40
1
 40
1
 10
-10.822272
 20
158.707087
 30
0.0
 10
-12.613302
 20
157.914687
 30
0.0
 10
-13.792361
 20
156.166655
 30
0.0
 10
-13.856123
 20
154.209202
 30
0.0
  0
SPLINE
  5
31d
100
AcDbEntity
  8
0
 62
7
100
AcDbSpline
 70
8
 71
3
 72
8
 73
4
 74
0
 40
0
 40
0
 40
0
 40
0
 40
1
 40
1
 40
1
 40
1
 10
-13.856123
 20
154.209202
 30
0.0
 10
-13.919886
 20
152.251750
 30
0.0
 10
-12.857087
 20
150.430690
 30
0.0
 10
-11.121422
 20
149.523412
 30
0.0
  0
LWPOLYLINE
  5
31e
100
AcDbEntity
  8
0
 62
7
100
AcDbPolyline
 90
4
 70
0
 10
-17.738162
 20
160.405280
 30
0.0
 10
-20.147911
 20
164.048486
 30
0.0
 10
-22.702146
 20
165.302343
 30
0.0
 10
-21.716942
 20
168.334482
 30
0.0
  0
LWPOLYLINE
  5
31f
100
AcDbEntity
  8
0
 62
7
100
AcDbPolyline
 90
2
 70
0
 10
-27.544758
 20
160.313219
 30
0.0
 10
-24.965467
 20
162.187174
 30
0.0
  0
LWPOLYLINE
  5
320
100
AcDbEntity
  8
0
 62
7
100
AcDbPolyline
 90
2
 70
0
 10
-26.215333
 20
157.797490
 30
0.0
 10
-27.544758
 20
160.313219
 30
0.0
  0
LWPOLYLINE
  5
321
100
AcDbEntity
  8
0
 62
7
100
AcDbPolyline
 90
2
 70
0
 10
-26.407250
 20
153.433601
 30
0.0
 10
-26.215333
 20
157.797490
 30
0.0
  0
LWPOLYLINE
  5
322
100
AcDbEntity
  8
0
 62
7
100
AcDbPolyline
 90
2
 70
0
 10
-28.083424
 20
152.888968
 30
0.0
 10
-26.407250
 20
153.433601
 30
0.0
  0
LWPOLYLINE
  5
323
100
AcDbEntity
  8
0
 62
7
100
AcDbPolyline
 90
2
 70
0
 10
-30.803703
 20
156.306623
 30
0.0
 10
-28.083424
 20
152.888968
 30
0.0
  0
LWPOLYLINE
  5
324
100
AcDbEntity
  8
0
 62
7
100
AcDbPolyline
 90
2
 70
0
 10
-31.206886
 20
159.123314
 30
0.0
 10
-30.803703
 20
156.306623
 30
0.0
  0
LWPOLYLINE
  5
325
100
AcDbEntity
  8
0
 62
7
100
AcDbPolyline
 90
2
 70
0
 10
-34.395066
 20
159.123314
 30
0.0
 10
-31.206886
 20
159.123314
 30
0.0
  0
LWPOLYLINE
  5
326
100
AcDbEntity
  8
0
 62
7
100
AcDbPolyline
 90
2
 70
0
 10
-34.798243
 20
156.306623
 30
0.0
 10
-34.395066
 20
159.123314
 30
0.0
  0
LWPOLYLINE
  5
327
100
AcDbEntity
  8
0
 62
7
100
AcDbPolyline
 90
2
 70
0
 10
-37.518526
 20
152.888968
 30
0.0
 10
-34.798243
 20
156.306623
 30
0.0
  0
LWPOLYLINE
  5
328
100
AcDbEntity
  8
0
 62
7
100
AcDbPolyline
 90
2
 70
0
 10
-39.194695
 20
153.433601
 30
0.0
 10
-37.518526
 20
152.888968
 30
0.0
  0
LWPOLYLINE
  5
329
100
AcDbEntity
  8
0
 62
7
100
AcDbPolyline
 90
2
 70
0
 10
-39.386617
 20
157.797490
 30
0.0
 10
-39.194695
 20
153.433601
 30
0.0
  0
LWPOLYLINE
  5
32a
100
AcDbEntity
  8
0
 62
7
100
AcDbPolyline
 90
2
 70
0
 10
-38.057193
 20
160.313219
 30
0.0
 10
-39.386617
 20
157.797490
 30
0.0
  0
LWPOLYLINE
  5
32b
100
AcDbEntity
  8
0
 62
7
100
AcDbPolyline
 90
2
 70
0
 10
-40.636484
 20
162.187174
 30
0.0
 10
-38.057193
 20
160.313219
 30
0.0
  0
LWPOLYLINE
  5
32c
100
AcDbEntity
  8
0
 62
7
100
AcDbPolyline
 90
2
 70
0
 10
-42.618271
 20
160.145410
 30
0.0
 10
-40.636484
 20
162.187174
 30
0.0
  0
LWPOLYLINE
  5
32d
100
AcDbEntity
  8
0
 62
7
100
AcDbPolyline
 90
2
 70
0
 10
-46.827849
 20
158.979437
 30
0.0
 10
-42.618271
 20
160.145410
 30
0.0
  0
LWPOLYLINE
  5
32e
100
AcDbEntity
  8
0
 62
7
100
AcDbPolyline
 90
2
 70
0
 10
-47.863785
 20
160.405280
 30
0.0
 10
-46.827849
 20
158.979437
 30
0.0
  0
LWPOLYLINE
  5
32f
100
AcDbEntity
  8
0
 62
7
100
AcDbPolyline
 90
2
 70
0
 10
-45.454039
 20
164.048486
 30
0.0
 10
-47.863785
 20
160.405280
 30
0.0
  0
LWPOLYLINE
  5
330
100
AcDbEntity
  8
0
 62
7
100
AcDbPolyline
 90
2
 70
0
 10
-42.899804
 20
165.302343
 30
0.0
 10
-45.454039
 20
164.048486
 30
0.0
  0
LWPOLYLINE
  5
331
100
AcDbEntity
  8
0
 62
7
100
AcDbPolyline
 90
2
 70
0
 10
-43.885002
 20
168.334482
 30
0.0
 10
-42.899804
 20
165.302343
 30
0.0
  0
LWPOLYLINE
  5
332
100
AcDbEntity
  8
0
 62
7
100
AcDbPolyline
 90
2
 70
0
 10
-46.688415
 20
167.847536
 30
0.0
 10
-43.885002
 20
168.334482
 30
0.0
  0
LWPOLYLINE
  5
333
100
AcDbEntity
  8
0
 62
7
100
AcDbPolyline
 90
2
 70
0
 10
-50.779389
 20
169.378592
 30
0.0
 10
-46.688415
 20
167.847536
 30
0.0
  0
LWPOLYLINE
  5
334
100
AcDbEntity
  8
0
 62
7
100
AcDbPolyline
 90
2
 70
0
 10
-50.779389
 20
171.141013
 30
0.0
 10
-50.779389
 20
169.378592
 30
0.0
  0
LWPOLYLINE
  5
335
100
AcDbEntity
  8
0
 62
7
100
AcDbPolyline
 90
2
 70
0
 10
-46.688415
 20
172.672040
 30
0.0
 10
-50.779389
 20
171.141013
 30
0.0
  0
LWPOLYLINE
  5
336
100
AcDbEntity
  8
0
 62
7
100
AcDbPolyline
 90
2
 70
0
 10
-43.885002
 20
172.185089
 30
0.0
 10
-46.688415
 20
172.672040
 30
0.0
  0
LWPOLYLINE
  5
337
100
AcDbEntity
  8
0
 62
7
100
AcDbPolyline
 90
2
 70
0
 10
-42.899804
 20
175.217228
 30
0.0
 10
-43.885002
 20
172.185089
 30
0.0
  0
LWPOLYLINE
  5
338
100
AcDbEntity
  8
0
 62
7
100
AcDbPolyline
 90
2
 70
0
 10
-45.454039
 20
176.471079
 30
0.0
 10
-42.899804
 20
175.217228
 30
0.0
  0
LWPOLYLINE
  5
339
100
AcDbEntity
  8
0
 62
7
100
AcDbPolyline
 90
2
 70
0
 10
-47.863785
 20
180.114325
 30
0.0
 10
-45.454039
 20
176.471079
 30
0.0
  0
LWPOLYLINE
  5
33a
100
AcDbEntity
  8
0
 62
7
100
AcDbPolyline
 90
2
 70
0
 10
-46.827849
 20
181.540163
 30
0.0
 10
-47.863785
 20
180.114325
 30
0.0
  0
LWPOLYLINE
  5
33b
100
AcDbEntity
  8
0
 62
7
100
AcDbPolyline
 90
2
 70
0
 10
-42.618271
 20
180.374178
 30
0.0
 10
-46.827849
 20
181.540163
 30
0.0
  0
LWPOLYLINE
  5
33c
100
AcDbEntity
  8
0
 62
7
100
AcDbPolyline
 90
2
 70
0
 10
-40.636484
 20
178.332419
 30
0.0
 10
-42.618271
 20
180.374178
 30
0.0
  0
LWPOLYLINE
  5
33d
100
AcDbEntity
  8
0
 62
7
100
AcDbPolyline
 90
2
 70
0
 10
-38.057193
 20
180.206386
 30
0.0
 10
-40.636484
 20
178.332419
 30
0.0
  0
LWPOLYLINE
  5
33e
100
AcDbEntity
  8
0
 62
7
100
AcDbPolyline
 90
2
 70
0
 10
-39.386617
 20
182.722109
 30
0.0
 10
-38.057193
 20
180.206386
 30
0.0
  0
LWPOLYLINE
  5
33f
100
AcDbEntity
  8
0
 62
7
100
AcDbPolyline
 90
2
 70
0
 10
-39.194695
 20
187.085970
 30
0.0
 10
-39.386617
 20
182.722109
 30
0.0
  0
LWPOLYLINE
  5
340
100
AcDbEntity
  8
0
 62
7
100
AcDbPolyline
 90
2
 70
0
 10
-37.518526
 20
187.630597
 30
0.0
 10
-39.194695
 20
187.085970
 30
0.0
  0
LWPOLYLINE
  5
341
100
AcDbEntity
  8
0
 62
7
100
AcDbPolyline
 90
2
 70
0
 10
-34.798243
 20
184.212959
 30
0.0
 10
-37.518526
 20
187.630597
 30
0.0
  0
LWPOLYLINE
  5
342
100
AcDbEntity
  8
0
 62
7
100
AcDbPolyline
 90
2
 70
0
 10
-34.395066
 20
181.396286
 30
0.0
 10
-34.798243
 20
184.212959
 30
0.0
  0
LWPOLYLINE
  5
343
100
AcDbEntity
  8
0
 62
7
100
AcDbPolyline
 90
2
 70
0
 10
-31.206886
 20
181.396286
 30
0.0
 10
-34.395066
 20
181.396286
 30
0.0
  0
LWPOLYLINE
  5
344
100
AcDbEntity
  8
0
 62
7
100
AcDbPolyline
 90
2
 70
0
 10
-30.803703
 20
184.212959
 30
0.0
 10
-31.206886
 20
181.396286
 30
0.0
  0
LWPOLYLINE
  5
345
100
AcDbEntity
  8
0
 62
7
100
AcDbPolyline
 90
2
 70
0
 10
-20.025392
 20
189.333978
 30
0.0
 10
-22.806941
 20
190.457798
 30
0.0
  0
LWPOLYLINE
  5
346
100
AcDbEntity
  8
0
 62
7
100
AcDbPolyline
 90
2
 70
0
 10
-26.407250
 20
187.085970
 30
0.0
 10
-28.083424
 20
187.630597
 30
0.0
  0
LWPOLYLINE
  5
347
100
AcDbEntity
  8
0
 62
7
100
AcDbPolyline
 90
2
 70
0
 10
-26.215333
 20
182.722109
 30
0.0
 10
-26.407250
 20
187.085970
 30
0.0
  0
LWPOLYLINE
  5
348
100
AcDbEntity
  8
0
 62
7
100
AcDbPolyline
 90
2
 70
0
 10
-27.544758
 20
180.206386
 30
0.0
 10
-26.215333
 20
182.722109
 30
0.0
  0
LWPOLYLINE
  5
349
100
AcDbEntity
  8
0
 62
7
100
AcDbPolyline
 90
2
 70
0
 10
-17.343785
 20
195.971178
 30
0.0
 10
-20.025392
 20
189.333978
 30
0.0
  0
LWPOLYLINE
  5
34a
100
AcDbEntity
  8
0
 62
7
100
AcDbPolyline
 90
2
 70
0
 10
-22.983680
 20
180.374178
 30
0.0
 10
-24.965467
 20
178.332419
 30
0.0
  0
LWPOLYLINE
  5
34b
100
AcDbEntity
  8
0
 62
7
100
AcDbPolyline
 90
2
 70
0
 10
-18.774098
 20
181.540163
 30
0.0
 10
-22.983680
 20
180.374178
 30
0.0
  0
LWPOLYLINE
  5
34c
100
AcDbEntity
  8
0
 62
7
100
AcDbPolyline
 90
2
 70
0
 10
-17.738162
 20
180.114325
 30
0.0
 10
-18.774098
 20
181.540163
 30
0.0
  0
LWPOLYLINE
  5
34d
100
AcDbEntity
  8
0
 62
7
100
AcDbPolyline
 90
2
 70
0
 10
-26.596197
 20
190.155244
 30
0.0
 10
-23.157049
 20
198.667445
 30
0.0
  0
LWPOLYLINE
  5
34e
100
AcDbEntity
  8
0
 62
7
100
AcDbPolyline
 90
2
 70
0
 10
-23.443775
 20
188.881581
 30
0.0
 10
-26.596197
 20
190.155244
 30
0.0
  0
LWPOLYLINE
  5
34f
100
AcDbEntity
  8
0
 62
7
100
AcDbPolyline
 90
2
 70
0
 10
-22.806941
 20
190.457798
 30
0.0
 10
-23.443775
 20
188.881581
 30
0.0
  0
LWPOLYLINE
  5
350
100
AcDbEntity
  8
0
 62
7
100
AcDbPolyline
 90
2
 70
0
 10
-18.913533
 20
172.672040
 30
0.0
 10
-21.716942
 20
172.185089
 30
0.0
  0
LWPOLYLINE
  5
351
100
AcDbEntity
  8
0
 62
7
100
AcDbPolyline
 90
2
 70
0
 10
-14.822558
 20
171.141013
 30
0.0
 10
-18.913533
 20
172.672040
 30
0.0
  0
LWPOLYLINE
  5
352
100
AcDbEntity
  8
0
 62
7
100
AcDbPolyline
 90
2
 70
0
 10
-14.822558
 20
169.378592
 30
0.0
 10
-14.822558
 20
171.141013
 30
0.0
  0
LWPOLYLINE
  5
353
100
AcDbEntity
  8
0
 62
7
100
AcDbPolyline
 90
2
 70
0
 10
-18.913533
 20
167.847536
 30
0.0
 10
-14.822558
 20
169.378592
 30
0.0
  0
SPLINE
  5
354
100
AcDbEntity
  8
0
 62
7
100
AcDbSpline
 70
8
 71
3
 72
8
 73
4
 74
0
 40
0
 40
0
 40
0
 40
0
 40
1
 40
1
 40
1
 40
1
 10
-5.453243
 20
157.926861
 30
0.0
 10
0.798169
 20
171.789087
 30
0.0
 10
-4.311006
 20
188.136119
 30
0.0
 10
-17.343785
 20
195.971178
 30
0.0
  0
SPLINE
  5
355
100
AcDbEntity
  8
0
 62
7
100
AcDbSpline
 70
8
 71
3
 72
8
 73
4
 74
0
 40
0
 40
0
 40
0
 40
0
 40
1
 40
1
 40
1
 40
1
 10
-23.157049
 20
198.667445
 30
0.0
 10
-37.257462
 20
203.454295
 30
0.0
 10
-52.735024
 20
197.173891
 30
0.0
 10
-59.512981
 20
183.915125
 30
0.0
  0
SPLINE
  5
356
100
AcDbEntity
  8
0
 62
7
100
AcDbSpline
 70
8
 71
3
 72
8
 73
4
 74
0
 40
0
 40
0
 40
0
 40
0
 40
1
 40
1
 40
1
 40
1
 10
-59.512981
 20
183.915125
 30
0.0
 10
-66.290938
 20
170.656359
 30
0.0
 10
-62.317648
 20
154.432568
 30
0.0
 10
-50.179945
 20
145.806344
 30
0.0
  0
SPLINE
  5
357
100
AcDbEntity
  8
0
 62
7
100
AcDbSpline
 70
8
 71
3
 72
8
 73
4
 74
0
 40
0
 40
0
 40
0
 40
0
 40
1
 40
1
 40
1
 40
1
 10
-50.179945
 20
145.806344
 30
0.0
 10
-38.042241
 20
137.180120
 30
0.0
 10
-21.414124
 20
138.762562
 30
0.0
 10
-11.121422
 20
149.523412
 30
0.0
  0
LWPOLYLINE
  5
358
100
AcDbEntity
  8
0
 62
7
100
AcDbPolyline
 90
2
 70
0
 10
-21.716942
 20
168.334482
 30
0.0
 10
-18.913533
 20
167.847536
 30
0.0
  0
LWPOLYLINE
  5
359
100
AcDbEntity
  8
0
 62
7
100
AcDbPolyline
 90
2
 70
0
 10
-18.774098
 20
158.979437
 30
0.0
 10
-17.738162
 20
160.405280
 30
0.0
  0
LWPOLYLINE
  5
35a
100
AcDbEntity
  8
0
 62
7
100
AcDbPolyline
 90
2
 70
0
 10
-22.983680
 20
160.145410
 30
0.0
 10
-18.774098
 20
158.979437
 30
0.0
  0
LWPOLYLINE
  5
35b
100
AcDbEntity
  8
0
 62
7
100
AcDbPolyline
 90
2
 70
0
 10
-24.965467
 20
162.187174
 30
0.0
 10
-22.983680
 20
160.145410
 30
0.0
  0
LWPOLYLINE
  5
35c
100
AcDbEntity
  8
0
 62
7
100
AcDbPolyline
 90
2
 70
0
 10
-28.083424
 20
187.630597
 30
0.0
 10
-30.803703
 20
184.212959
 30
0.0
  0
LWPOLYLINE
  5
35d
100
AcDbEntity
  8
0
 62
7
100
AcDbPolyline
 90
2
 70
0
 10
-37.908687
 20
204.922037
 30
0.0
 10
-41.049894
 20
204.311455
 30
0.0
  0
LWPOLYLINE
  5
35e
100
AcDbEntity
  8
0
 62
7
100
AcDbPolyline
 90
2
 70
0
 10
-31.200976
 20
205.259795
 30
0.0
 10
-34.400975
 20
205.259795
 30
0.0
  0
SPLINE
  5
35f
100
AcDbEntity
  8
0
 62
7
100
AcDbSpline
 70
8
 71
3
 72
8
 73
4
 74
0
 40
0
 40
0
 40
0
 40
0
 40
1
 40
1
 40
1
 40
1
 10
-29.800973
 20
170.259802
 30
0.0
 10
-29.800316
 20
171.332037
 30
0.0
 10
-30.371968
 20
172.323105
 30
0.0
 10
-31.300442
 20
172.859412
 30
0.0
  0
SPLINE
  5
360
100
AcDbEntity
  8
0
 62
7
100
AcDbSpline
 70
8
 71
3
 72
8
 73
4
 74
0
 40
0
 40
0
 40
0
 40
0
 40
1
 40
1
 40
1
 40
1
 10
-31.300442
 20
172.859412
 30
0.0
 10
-32.228915
 20
173.395720
 30
0.0
 10
-33.373031
 20
173.395720
 30
0.0
 10
-34.301504
 20
172.859412
 30
0.0
  0
SPLINE
  5
361
100
AcDbEntity
  8
0
 62
7
100
AcDbSpline
 70
8
 71
3
 72
8
 73
4
 74
0
 40
0
 40
0
 40
0
 40
0
 40
1
 40
1
 40
1
 40
1
 10
-34.301504
 20
172.859412
 30
0.0
 10
-35.229978
 20
172.323105
 30
0.0
 10
-35.801630
 20
171.332037
 30
0.0
 10
-35.800973
 20
170.259802
 30
0.0
  0
SPLINE
  5
362
100
AcDbEntity
  8
0
 62
7
100
AcDbSpline
 70
8
 71
3
 72
8
 73
4
 74
0
 40
0
 40
0
 40
0
 40
0
 40
1
 40
1
 40
1
 40
1
 10
-35.800973
 20
170.259802
 30
0.0
 10
-35.801630
 20
169.187568
 30
0.0
 10
-35.229978
 20
168.196500
 30
0.0
 10
-34.301504
 20
167.660193
 30
0.0
  0
SPLINE
  5
363
100
AcDbEntity
  8
0
 62
7
100
AcDbSpline
 70
8
 71
3
 72
8
 73
4
 74
0
 40
0
 40
0
 40
0
 40
0
 40
1
 40
1
 40
1
 40
1
 10
-34.301504
 20
167.660193
 30
0.0
 10
-33.373031
 20
167.123885
 30
0.0
 10
-32.228915
 20
167.123885
 30
0.0
 10
-31.300442
 20
167.660193
 30
0.0
  0
SPLINE
  5
364
100
AcDbEntity
  8
0
 62
7
100
AcDbSpline
 70
8
 71
3
 72
8
 73
4
 74
0
 40
0
 40
0
 40
0
 40
0
 40
1
 40
1
 40
1
 40
1
 10
-31.300442
 20
167.660193
 30
0.0
 10
-30.371968
 20
168.196500
 30
0.0
 10
-29.800316
 20
169.187568
 30
0.0
 10
-29.800973
 20
170.259802
 30
0.0
  0
LWPOLYLINE
  5
365
100
AcDbEntity
  8
0
 62
7
100
AcDbPolyline
 90
2
 70
0
 10
-11.121422
 20
149.523412
 30
0.0
 10
-10.689210
 20
149.322639
 30
0.0
  0
SPLINE
  5
366
100
AcDbEntity
  8
0
 62
7
100
AcDbSpline
 70
8
 71
3
 72
8
 73
4
 74
0
 40
0
 40
0
 40
0
 40
0
 40
1
 40
1
 40
1
 40
1
 10
245.225705
 20
78.055161
 30
0.0
 10
245.225705
 20
79.126959
 30
0.0
 10
244.653908
 20
80.117340
 30
0.0
 10
243.725704
 20
80.653239
 30
0.0
  0
SPLINE
  5
367
100
AcDbEntity
  8
0
 62
7
100
AcDbSpline
 70
8
 71
3
 72
8
 73
4
 74
0
 40
0
 40
0
 40
0
 40
0
 40
1
 40
1
 40
1
 40
1
 10
243.725704
 20
80.653239
 30
0.0
 10
242.797500
 20
81.189138
 30
0.0
 10
241.653906
 20
81.189138
 30
0.0
 10
240.725702
 20
80.653239
 30
0.0
  0
SPLINE
  5
368
100
AcDbEntity
  8
0
 62
7
100
AcDbSpline
 70
8
 71
3
 72
8
 73
4
 74
0
 40
0
 40
0
 40
0
 40
0
 40
1
 40
1
 40
1
 40
1
 10
240.725702
 20
80.653239
 30
0.0
 10
239.797498
 20
80.117340
 30
0.0
 10
239.225701
 20
79.126959
 30
0.0
 10
239.225701
 20
78.055161
 30
0.0
  0
SPLINE
  5
369
100
AcDbEntity
  8
0
 62
7
100
AcDbSpline
 70
8
 71
3
 72
8
 73
4
 74
0
 40
0
 40
0
 40
0
 40
0
 40
1
 40
1
 40
1
 40
1
 10
239.225701
 20
78.055161
 30
0.0
 10
239.225701
 20
76.983363
 30
0.0
 10
239.797498
 20
75.992981
 30
0.0
 10
240.725702
 20
75.457083
 30
0.0
  0
SPLINE
  5
36a
100
AcDbEntity
  8
0
 62
7
100
AcDbSpline
 70
8
 71
3
 72
8
 73
4
 74
0
 40
0
 40
0
 40
0
 40
0
 40
1
 40
1
 40
1
 40
1
 10
240.725702
 20
75.457083
 30
0.0
 10
241.653906
 20
74.921184
 30
0.0
 10
242.797500
 20
74.921184
 30
0.0
 10
243.725704
 20
75.457083
 30
0.0
  0
SPLINE
  5
36b
100
AcDbEntity
  8
0
 62
7
100
AcDbSpline
 70
8
 71
3
 72
8
 73
4
 74
0
 40
0
 40
0
 40
0
 40
0
 40
1
 40
1
 40
1
 40
1
 10
243.725704
 20
75.457083
 30
0.0
 10
244.653908
 20
75.992981
 30
0.0
 10
245.225705
 20
76.983363
 30
0.0
 10
245.225705
 20
78.055161
 30
0.0
  0
LWPOLYLINE
  5
36c
100
AcDbEntity
  8
0
 62
7
100
AcDbPolyline
 90
2
 70
1
 10
-29.800973
 20
170.259802
 30
0.0
 10
-29.800973
 20
170.259802
 30
0.0
  0
SPLINE
  5
36d
100
AcDbEntity
  8
0
 62
7
100
AcDbSpline
 70
8
 71
3
 72
8
 73
4
 74
0
 40
0
 40
0
 40
0
 40
0
 40
1
 40
1
 40
1
 40
1
 10
271.367792
 20
61.838565
 30
0.0
 10
271.367792
 20
63.660620
 30
0.0
 10
270.395737
 20
65.344268
 30
0.0
 10
268.817791
 20
66.255295
 30
0.0
  0
SPLINE
  5
36e
100
AcDbEntity
  8
0
 62
7
100
AcDbSpline
 70
8
 71
3
 72
8
 73
4
 74
0
 40
0
 40
0
 40
0
 40
0
 40
1
 40
1
 40
1
 40
1
 10
268.817791
 20
66.255295
 30
0.0
 10
267.239845
 20
67.166323
 30
0.0
 10
265.295736
 20
67.166323
 30
0.0
 10
263.717790
 20
66.255295
 30
0.0
  0
SPLINE
  5
36f
100
AcDbEntity
  8
0
 62
7
100
AcDbSpline
 70
8
 71
3
 72
8
 73
4
 74
0
 40
0
 40
0
 40
0
 40
0
 40
1
 40
1
 40
1
 40
1
 10
263.717790
 20
66.255295
 30
0.0
 10
262.139844
 20
65.344268
 30
0.0
 10
261.167790
 20
63.660620
 30
0.0
 10
261.167790
 20
61.838565
 30
0.0
  0
SPLINE
  5
370
100
AcDbEntity
  8
0
 62
7
100
AcDbSpline
 70
8
 71
3
 72
8
 73
4
 74
0
 40
0
 40
0
 40
0
 40
0
 40
1
 40
1
 40
1
 40
1
 10
261.167790
 20
61.838565
 30
0.0
 10
261.167790
 20
60.016510
 30
0.0
 10
262.139844
 20
58.332862
 30
0.0
 10
263.717790
 20
57.421834
 30
0.0
  0
SPLINE
  5
371
100
AcDbEntity
  8
0
 62
7
100
AcDbSpline
 70
8
 71
3
 72
8
 73
4
 74
0
 40
0
 40
0
 40
0
 40
0
 40
1
 40
1
 40
1
 40
1
 10
263.717790
 20
57.421834
 30
0.0
 10
265.295736
 20
56.510807
 30
0.0
 10
267.239845
 20
56.510807
 30
0.0
 10
268.817791
 20
57.421834
 30
0.0
  0
SPLINE
  5
372
100
AcDbEntity
  8
0
 62
7
100
AcDbSpline
 70
8
 71
3
 72
8
 73
4
 74
0
 40
0
 40
0
 40
0
 40
0
 40
1
 40
1
 40
1
 40
1
 10
268.817791
 20
57.421834
 30
0.0
 10
270.395737
 20
58.332862
 30
0.0
 10
271.367792
 20
60.016510
 30
0.0
 10
271.367792
 20
61.838565
 30
0.0
  0
LWPOLYLINE
  5
373
100
AcDbEntity
  8
0
 62
7
100
AcDbPolyline
 90
2
 70
1
 10
245.225705
 20
78.055161
 30
0.0
 10
245.225705
 20
78.055161
 30
0.0
  0
SPLINE
  5
374
100
AcDbEntity
  8
0
 62
7
100
AcDbSpline
 70
8
 71
3
 72
8
 73
4
 74
0
 40
0
 40
0
 40
0
 40
0
 40
1
 40
1
 40
1
 40
1
 10
278.948241
 20
111.988257
 30
0.0
 10
276.515251
 20
114.621249
 30
0.0
 10
273.806143
 20
116.984941
 30
0.0
 10
270.867649
 20
119.038558
 30
0.0
  0
LWPOLYLINE
  5
375
100
AcDbEntity
  8
0
 62
7
100
AcDbPolyline
 90
2
 70
1
 10
271.367792
 20
61.838565
 30
0.0
 10
271.367792
 20
61.838565
 30
0.0
  0
LWPOLYLINE
  5
376
100
AcDbEntity
  8
0
 62
7
100
AcDbPolyline
 90
2
 70
0
 10
254.964190
 20
94.549379
 30
0.0
 10
270.867649
 20
119.038558
 30
0.0
  0
SPLINE
  5
377
100
AcDbEntity
  8
0
 62
7
100
AcDbSpline
 70
8
 71
3
 72
8
 73
4
 74
0
 40
0
 40
0
 40
0
 40
0
 40
1
 40
1
 40
1
 40
1
 10
268.016172
 20
120.890330
 30
0.0
 10
246.355527
 20
133.931923
 30
0.0
 10
218.367907
 20
128.751064
 30
0.0
 10
202.810911
 20
108.820020
 30
0.0
  0
SPLINE
  5
378
100
AcDbEntity
  8
0
 62
7
100
AcDbSpline
 70
8
 71
3
 72
8
 73
4
 74
0
 40
0
 40
0
 40
0
 40
0
 40
1
 40
1
 40
1
 40
1
 10
202.810911
 20
108.820020
 30
0.0
 10
187.253914
 20
88.888976
 30
0.0
 10
189.024048
 20
60.480971
 30
0.0
 10
206.934950
 20
42.635349
 30
0.0
  0
SPLINE
  5
379
100
AcDbEntity
  8
0
 62
7
100
AcDbSpline
 70
8
 71
3
 72
8
 73
4
 74
0
 40
0
 40
0
 40
0
 40
0
 40
1
 40
1
 40
1
 40
1
 10
206.934950
 20
42.635349
 30
0.0
 10
224.845852
 20
24.789726
 30
0.0
 10
253.260132
 20
23.123332
 30
0.0
 10
273.134239
 20
38.753000
 30
0.0
  0
SPLINE
  5
37a
100
AcDbEntity
  8
0
 62
7
100
AcDbSpline
 70
8
 71
3
 72
8
 73
4
 74
0
 40
0
 40
0
 40
0
 40
0
 40
1
 40
1
 40
1
 40
1
 10
273.134239
 20
38.753000
 30
0.0
 10
293.008346
 20
54.382668
 30
0.0
 10
298.086978
 20
82.389018
 30
0.0
 10
284.966382
 20
104.001899
 30
0.0
  0
SPLINE
  5
37b
100
AcDbEntity
  8
0
 62
7
100
AcDbSpline
 70
8
 71
3
 72
8
 73
4
 74
0
 40
0
 40
0
 40
0
 40
0
 40
1
 40
1
 40
1
 40
1
 10
284.966382
 20
104.001899
 30
0.0
 10
287.167950
 20
105.664978
 30
0.0
 10
287.606252
 20
108.797064
 30
0.0
 10
285.945776
 20
111.000595
 30
0.0
  0
SPLINE
  5
37c
100
AcDbEntity
  8
0
 62
7
100
AcDbSpline
 70
8
 71
3
 72
8
 73
4
 74
0
 40
0
 40
0
 40
0
 40
0
 40
1
 40
1
 40
1
 40
1
 10
285.945776
 20
111.000595
 30
0.0
 10
284.285299
 20
113.204127
 30
0.0
 10
281.153733
 20
113.646129
 30
0.0
 10
278.948241
 20
111.988257
 30
0.0
  0
SPLINE
  5
37d
100
AcDbEntity
  8
0
 62
7
100
AcDbSpline
 70
8
 71
3
 72
8
 73
4
 74
0
 40
0
 40
0
 40
0
 40
0
 40
1
 40
1
 40
1
 40
1
 10
134.694247
 20
78.055161
 30
0.0
 10
134.694905
 20
79.127396
 30
0.0
 10
134.123252
 20
80.118463
 30
0.0
 10
133.194779
 20
80.654771
 30
0.0
  0
SPLINE
  5
37e
100
AcDbEntity
  8
0
 62
7
100
AcDbSpline
 70
8
 71
3
 72
8
 73
4
 74
0
 40
0
 40
0
 40
0
 40
0
 40
1
 40
1
 40
1
 40
1
 10
133.194779
 20
80.654771
 30
0.0
 10
132.266305
 20
81.191078
 30
0.0
 10
131.122189
 20
81.191078
 30
0.0
 10
130.193716
 20
80.654771
 30
0.0
  0
SPLINE
  5
37f
100
AcDbEntity
  8
0
 62
7
100
AcDbSpline
 70
8
 71
3
 72
8
 73
4
 74
0
 40
0
 40
0
 40
0
 40
0
 40
1
 40
1
 40
1
 40
1
 10
130.193716
 20
80.654771
 30
0.0
 10
129.265243
 20
80.118463
 30
0.0
 10
128.693590
 20
79.127396
 30
0.0
 10
128.694248
 20
78.055161
 30
0.0
  0
SPLINE
  5
380
100
AcDbEntity
  8
0
 62
7
100
AcDbSpline
 70
8
 71
3
 72
8
 73
4
 74
0
 40
0
 40
0
 40
0
 40
0
 40
1
 40
1
 40
1
 40
1
 10
128.694248
 20
78.055161
 30
0.0
 10
128.693590
 20
76.982926
 30
0.0
 10
129.265243
 20
75.991858
 30
0.0
 10
130.193716
 20
75.455551
 30
0.0
  0
SPLINE
  5
381
100
AcDbEntity
  8
0
 62
7
100
AcDbSpline
 70
8
 71
3
 72
8
 73
4
 74
0
 40
0
 40
0
 40
0
 40
0
 40
1
 40
1
 40
1
 40
1
 10
130.193716
 20
75.455551
 30
0.0
 10
131.122189
 20
74.919244
 30
0.0
 10
132.266305
 20
74.919244
 30
0.0
 10
133.194779
 20
75.455551
 30
0.0
  0
SPLINE
  5
382
100
AcDbEntity
  8
0
 62
7
100
AcDbSpline
 70
8
 71
3
 72
8
 73
4
 74
0
 40
0
 40
0
 40
0
 40
0
 40
1
 40
1
 40
1
 40
1
 10
133.194779
 20
75.455551
 30
0.0
 10
134.123252
 20
75.991858
 30
0.0
 10
134.694905
 20
76.982926
 30
0.0
 10
134.694247
 20
78.055161
 30
0.0
  0
LWPOLYLINE
  5
383
100
AcDbEntity
  8
0
 62
7
100
AcDbPolyline
 90
3
 70
0
 10
254.964190
 20
94.549379
 30
0.0
 10
252.112712
 20
96.401152
 30
0.0
 10
268.016172
 20
120.890330
 30
0.0
  0
LWPOLYLINE
  5
384
100
AcDbEntity
  8
0
 62
7
100
AcDbPolyline
 90
2
 70
1
 10
134.694247
 20
78.055161
 30
0.0
 10
134.694247
 20
78.055161
 30
0.0
  0
LWPOLYLINE
  5
385
100
AcDbEntity
  8
0
 62
7
100
AcDbPolyline
 90
2
 70
0
 10
155.736341
 20
61.838565
 30
0.0
 10
152.884457
 20
57.610475
 30
0.0
  0
SPLINE
  5
386
100
AcDbEntity
  8
0
 62
7
100
AcDbSpline
 70
8
 71
3
 72
8
 73
4
 74
0
 40
0
 40
0
 40
0
 40
0
 40
1
 40
1
 40
1
 40
1
 10
152.884457
 20
57.610475
 30
0.0
 10
154.594561
 20
56.456996
 30
0.0
 10
156.831116
 20
56.447238
 30
0.0
 10
158.551220
 20
57.585751
 30
0.0
  0
SPLINE
  5
387
100
AcDbEntity
  8
0
 62
7
100
AcDbSpline
 70
8
 71
3
 72
8
 73
4
 74
0
 40
0
 40
0
 40
0
 40
0
 40
1
 40
1
 40
1
 40
1
 10
158.551220
 20
57.585751
 30
0.0
 10
160.271324
 20
58.724264
 30
0.0
 10
161.136231
 20
60.786838
 30
0.0
 10
160.742637
 20
62.811696
 30
0.0
  0
SPLINE
  5
388
100
AcDbEntity
  8
0
 62
7
100
AcDbSpline
 70
8
 71
3
 72
8
 73
4
 74
0
 40
0
 40
0
 40
0
 40
0
 40
1
 40
1
 40
1
 40
1
 10
160.742637
 20
62.811696
 30
0.0
 10
160.349043
 20
64.836555
 30
0.0
 10
158.774460
 20
66.424938
 30
0.0
 10
156.753112
 20
66.836184
 30
0.0
  0
SPLINE
  5
389
100
AcDbEntity
  8
0
 62
7
100
AcDbSpline
 70
8
 71
3
 72
8
 73
4
 74
0
 40
0
 40
0
 40
0
 40
0
 40
1
 40
1
 40
1
 40
1
 10
156.753112
 20
66.836184
 30
0.0
 10
154.731765
 20
67.247431
 30
0.0
 10
152.661724
 20
66.400553
 30
0.0
 10
151.508246
 20
64.690449
 30
0.0
  0
SPLINE
  5
38a
100
AcDbEntity
  8
0
 62
7
100
AcDbSpline
 70
8
 71
3
 72
8
 73
4
 74
0
 40
0
 40
0
 40
0
 40
0
 40
1
 40
1
 40
1
 40
1
 10
111.490015
 20
123.791242
 30
0.0
 10
109.538320
 20
122.929066
 30
0.0
 10
107.643814
 20
121.942846
 30
0.0
 10
105.818116
 20
120.838633
 30
0.0
  0
LWPOLYLINE
  5
38b
100
AcDbEntity
  8
0
 62
7
100
AcDbPolyline
 90
2
 70
0
 10
151.508246
 20
64.690449
 30
0.0
 10
155.736341
 20
61.838565
 30
0.0
  0
LWPOLYLINE
  5
38c
100
AcDbEntity
  8
0
 62
7
100
AcDbPolyline
 90
2
 70
0
 10
113.973757
 20
108.280055
 30
0.0
 10
105.818116
 20
120.838633
 30
0.0
  0
LWPOLYLINE
  5
38d
100
AcDbEntity
  8
0
 62
7
100
AcDbPolyline
 90
2
 70
0
 10
111.290010
 20
106.537208
 30
0.0
 10
113.973757
 20
108.280055
 30
0.0
  0
SPLINE
  5
38e
100
AcDbEntity
  8
0
 62
7
100
AcDbSpline
 70
8
 71
3
 72
8
 73
4
 74
0
 40
0
 40
0
 40
0
 40
0
 40
1
 40
1
 40
1
 40
1
 10
103.134369
 20
119.095792
 30
0.0
 10
101.383043
 20
117.877056
 30
0.0
 10
99.711523
 20
116.547468
 30
0.0
 10
98.130061
 20
115.115183
 30
0.0
  0
LWPOLYLINE
  5
38f
100
AcDbEntity
  8
0
 62
7
100
AcDbPolyline
 90
2
 70
0
 10
103.134369
 20
119.095792
 30
0.0
 10
111.290010
 20
106.537208
 30
0.0
  0
LWPOLYLINE
  5
390
100
AcDbEntity
  8
0
 62
7
100
AcDbPolyline
 90
2
 70
0
 10
108.532151
 20
104.343506
 30
0.0
 10
98.130061
 20
115.115183
 30
0.0
  0
LWPOLYLINE
  5
391
100
AcDbEntity
  8
0
 62
7
100
AcDbPolyline
 90
2
 70
0
 10
106.230262
 20
102.120600
 30
0.0
 10
108.532151
 20
104.343506
 30
0.0
  0
SPLINE
  5
392
100
AcDbEntity
  8
0
 62
7
100
AcDbSpline
 70
8
 71
3
 72
8
 73
4
 74
0
 40
0
 40
0
 40
0
 40
0
 40
1
 40
1
 40
1
 40
1
 10
95.828172
 20
112.892277
 30
0.0
 10
94.341569
 20
111.361764
 30
0.0
 10
92.954457
 20
109.737664
 30
0.0
 10
91.675345
 20
108.029938
 30
0.0
  0
LWPOLYLINE
  5
393
100
AcDbEntity
  8
0
 62
7
100
AcDbPolyline
 90
2
 70
0
 10
95.828172
 20
112.892277
 30
0.0
 10
106.230262
 20
102.120600
 30
0.0
  0
LWPOLYLINE
  5
394
100
AcDbEntity
  8
0
 62
7
100
AcDbPolyline
 90
2
 70
0
 10
103.941649
 20
99.440979
 30
0.0
 10
91.675345
 20
108.029938
 30
0.0
  0
LWPOLYLINE
  5
395
100
AcDbEntity
  8
0
 62
7
100
AcDbPolyline
 90
2
 70
0
 10
102.106205
 20
96.819693
 30
0.0
 10
103.941649
 20
99.440979
 30
0.0
  0
SPLINE
  5
396
100
AcDbEntity
  8
0
 62
7
100
AcDbSpline
 70
8
 71
3
 72
8
 73
4
 74
0
 40
0
 40
0
 40
0
 40
0
 40
1
 40
1
 40
1
 40
1
 10
89.839902
 20
105.408652
 30
0.0
 10
88.672646
 20
103.622601
 30
0.0
 10
87.620911
 20
101.763665
 30
0.0
 10
86.691148
 20
99.843247
 30
0.0
  0
LWPOLYLINE
  5
397
100
AcDbEntity
  8
0
 62
7
100
AcDbPolyline
 90
2
 70
0
 10
89.839902
 20
105.408652
 30
0.0
 10
102.106205
 20
96.819693
 30
0.0
  0
LWPOLYLINE
  5
398
100
AcDbEntity
  8
0
 62
7
100
AcDbPolyline
 90
2
 70
0
 10
100.370934
 20
93.752615
 30
0.0
 10
86.691148
 20
99.843247
 30
0.0
  0
LWPOLYLINE
  5
399
100
AcDbEntity
  8
0
 62
7
100
AcDbPolyline
 90
2
 70
0
 10
99.069381
 20
90.829267
 30
0.0
 10
100.370934
 20
93.752615
 30
0.0
  0
SPLINE
  5
39a
100
AcDbEntity
  8
0
 62
7
100
AcDbSpline
 70
8
 71
3
 72
8
 73
4
 74
0
 40
0
 40
0
 40
0
 40
0
 40
1
 40
1
 40
1
 40
1
 10
85.389590
 20
96.919905
 30
0.0
 10
84.584574
 20
94.943946
 30
0.0
 10
83.906864
 20
92.918484
 30
0.0
 10
83.360616
 20
90.855942
 30
0.0
  0
LWPOLYLINE
  5
39b
100
AcDbEntity
  8
0
 62
7
100
AcDbPolyline
 90
2
 70
0
 10
85.389590
 20
96.919905
 30
0.0
 10
99.069381
 20
90.829267
 30
0.0
  0
LWPOLYLINE
  5
39c
100
AcDbEntity
  8
0
 62
7
100
AcDbPolyline
 90
2
 70
0
 10
97.951217
 20
87.487440
 30
0.0
 10
83.360616
 20
90.855942
 30
0.0
  0
LWPOLYLINE
  5
39d
100
AcDbEntity
  8
0
 62
7
100
AcDbPolyline
 90
2
 70
0
 10
97.231375
 20
84.369454
 30
0.0
 10
97.951217
 20
87.487440
 30
0.0
  0
SPLINE
  5
39e
100
AcDbEntity
  8
0
 62
7
100
AcDbSpline
 70
8
 71
3
 72
8
 73
4
 74
0
 40
0
 40
0
 40
0
 40
0
 40
1
 40
1
 40
1
 40
1
 10
82.640774
 20
87.737957
 30
0.0
 10
82.227579
 20
85.644699
 30
0.0
 10
81.948797
 20
83.527138
 30
0.0
 10
81.806136
 20
81.398264
 30
0.0
  0
LWPOLYLINE
  5
39f
100
AcDbEntity
  8
0
 62
7
100
AcDbPolyline
 90
2
 70
0
 10
82.640774
 20
87.737957
 30
0.0
 10
97.231375
 20
84.369454
 30
0.0
  0
LWPOLYLINE
  5
3a0
100
AcDbEntity
  8
0
 62
7
100
AcDbPolyline
 90
2
 70
0
 10
96.771409
 20
80.875667
 30
0.0
 10
81.806136
 20
81.398264
 30
0.0
  0
LWPOLYLINE
  5
3a1
100
AcDbEntity
  8
0
 62
7
100
AcDbPolyline
 90
2
 70
0
 10
96.659728
 20
77.677615
 30
0.0
 10
96.771409
 20
80.875667
 30
0.0
  0
SPLINE
  5
3a2
100
AcDbEntity
  8
0
 62
7
100
AcDbSpline
 70
8
 71
3
 72
8
 73
4
 74
0
 40
0
 40
0
 40
0
 40
0
 40
1
 40
1
 40
1
 40
1
 10
81.694460
 20
78.200217
 30
0.0
 10
81.625585
 20
54.459442
 30
0.0
 10
98.260841
 20
33.943528
 30
0.0
 10
121.503368
 20
29.104719
 30
0.0
  0
SPLINE
  5
3a3
100
AcDbEntity
  8
0
 62
7
100
AcDbSpline
 70
8
 71
3
 72
8
 73
4
 74
0
 40
0
 40
0
 40
0
 40
0
 40
1
 40
1
 40
1
 40
1
 10
121.503368
 20
29.104719
 30
0.0
 10
144.745895
 20
24.265911
 30
0.0
 10
168.186500
 20
36.438523
 30
0.0
 10
177.597781
 20
58.234325
 30
0.0
  0
SPLINE
  5
3a4
100
AcDbEntity
  8
0
 62
7
100
AcDbSpline
 70
8
 71
3
 72
8
 73
4
 74
0
 40
0
 40
0
 40
0
 40
0
 40
1
 40
1
 40
1
 40
1
 10
177.597781
 20
58.234325
 30
0.0
 10
187.009062
 20
80.030126
 30
0.0
 10
179.795830
 20
105.438859
 30
0.0
 10
160.336196
 20
119.038558
 30
0.0
  0
LWPOLYLINE
  5
3a5
100
AcDbEntity
  8
0
 62
7
100
AcDbPolyline
 90
2
 70
0
 10
81.694460
 20
78.200217
 30
0.0
 10
96.659728
 20
77.677615
 30
0.0
  0
LWPOLYLINE
  5
3a6
100
AcDbEntity
  8
0
 62
7
100
AcDbPolyline
 90
2
 70
0
 10
148.081819
 20
100.168469
 30
0.0
 10
160.336196
 20
119.038558
 30
0.0
  0
LWPOLYLINE
  5
3a7
100
AcDbEntity
  8
0
 62
7
100
AcDbPolyline
 90
2
 70
0
 10
150.597830
 20
98.534554
 30
0.0
 10
148.081819
 20
100.168469
 30
0.0
  0
LWPOLYLINE
  5
3a8
100
AcDbEntity
  8
0
 62
7
100
AcDbPolyline
 90
2
 70
0
 10
150.107656
 20
97.779745
 30
0.0
 10
150.597830
 20
98.534554
 30
0.0
  0
LWPOLYLINE
  5
3a9
100
AcDbEntity
  8
0
 62
7
100
AcDbPolyline
 90
2
 70
0
 10
152.623667
 20
96.145831
 30
0.0
 10
150.107656
 20
97.779745
 30
0.0
  0
LWPOLYLINE
  5
3aa
100
AcDbEntity
  8
0
 62
7
100
AcDbPolyline
 90
2
 70
0
 10
150.880820
 20
93.462084
 30
0.0
 10
152.623667
 20
96.145831
 30
0.0
  0
LWPOLYLINE
  5
3ab
100
AcDbEntity
  8
0
 62
7
100
AcDbPolyline
 90
2
 70
0
 10
148.364809
 20
95.096004
 30
0.0
 10
150.880820
 20
93.462084
 30
0.0
  0
LWPOLYLINE
  5
3ac
100
AcDbEntity
  8
0
 62
7
100
AcDbPolyline
 90
2
 70
0
 10
147.874634
 20
94.341201
 30
0.0
 10
148.364809
 20
95.096004
 30
0.0
  0
LWPOLYLINE
  5
3ad
100
AcDbEntity
  8
0
 62
7
100
AcDbPolyline
 90
2
 70
0
 10
145.358623
 20
95.975115
 30
0.0
 10
147.874634
 20
94.341201
 30
0.0
  0
LWPOLYLINE
  5
3ae
100
AcDbEntity
  8
0
 62
7
100
AcDbPolyline
 90
2
 70
0
 10
144.432737
 20
94.549379
 30
0.0
 10
145.358623
 20
95.975115
 30
0.0
  0
LWPOLYLINE
  5
3af
100
AcDbEntity
  8
0
 62
7
100
AcDbPolyline
 90
3
 70
0
 10
144.432737
 20
94.549379
 30
0.0
 10
141.581254
 20
96.401152
 30
0.0
 10
142.997315
 20
98.581691
 30
0.0
  0
LWPOLYLINE
  5
3b0
100
AcDbEntity
  8
0
 62
7
100
AcDbPolyline
 90
2
 70
0
 10
140.481304
 20
100.215611
 30
0.0
 10
142.997315
 20
98.581691
 30
0.0
  0
LWPOLYLINE
  5
3b1
100
AcDbEntity
  8
0
 62
7
100
AcDbPolyline
 90
2
 70
0
 10
142.224150
 20
102.899358
 30
0.0
 10
140.481304
 20
100.215611
 30
0.0
  0
LWPOLYLINE
  5
3b2
100
AcDbEntity
  8
0
 62
7
100
AcDbPolyline
 90
2
 70
0
 10
144.740162
 20
101.265438
 30
0.0
 10
142.224150
 20
102.899358
 30
0.0
  0
SPLINE
  5
3b3
100
AcDbEntity
  8
0
 62
7
100
AcDbSpline
 70
8
 71
3
 72
8
 73
4
 74
0
 40
0
 40
0
 40
0
 40
0
 40
1
 40
1
 40
1
 40
1
 10
157.484713
 20
120.890330
 30
0.0
 10
150.163792
 20
125.298156
 30
0.0
 10
141.835329
 20
127.756098
 30
0.0
 10
133.294250
 20
128.029554
 30
0.0
  0
LWPOLYLINE
  5
3b4
100
AcDbEntity
  8
0
 62
7
100
AcDbPolyline
 90
2
 70
0
 10
144.740162
 20
101.265438
 30
0.0
 10
157.484713
 20
120.890330
 30
0.0
  0
LWPOLYLINE
  5
3b5
100
AcDbEntity
  8
0
 62
7
100
AcDbPolyline
 90
2
 70
0
 10
133.294250
 20
113.055159
 30
0.0
 10
133.294250
 20
128.029554
 30
0.0
  0
LWPOLYLINE
  5
3b6
100
AcDbEntity
  8
0
 62
7
100
AcDbPolyline
 90
2
 70
0
 10
130.094251
 20
113.055159
 30
0.0
 10
133.294250
 20
113.055159
 30
0.0
  0
SPLINE
  5
3b7
100
AcDbEntity
  8
0
 62
7
100
AcDbSpline
 70
8
 71
3
 72
8
 73
4
 74
0
 40
0
 40
0
 40
0
 40
0
 40
1
 40
1
 40
1
 40
1
 10
130.094251
 20
128.029554
 30
0.0
 10
127.961693
 20
127.961278
 30
0.0
 10
125.835692
 20
127.756568
 30
0.0
 10
123.729287
 20
127.416680
 30
0.0
  0
LWPOLYLINE
  5
3b8
100
AcDbEntity
  8
0
 62
7
100
AcDbPolyline
 90
2
 70
0
 10
130.094251
 20
128.029554
 30
0.0
 10
130.094251
 20
113.055159
 30
0.0
  0
LWPOLYLINE
  5
3b9
100
AcDbEntity
  8
0
 62
7
100
AcDbPolyline
 90
2
 70
0
 10
126.586539
 20
112.717406
 30
0.0
 10
123.729287
 20
127.416680
 30
0.0
  0
LWPOLYLINE
  5
3ba
100
AcDbEntity
  8
0
 62
7
100
AcDbPolyline
 90
2
 70
0
 10
123.445332
 20
112.106819
 30
0.0
 10
126.586539
 20
112.717406
 30
0.0
  0
SPLINE
  5
3bb
100
AcDbEntity
  8
0
 62
7
100
AcDbSpline
 70
8
 71
3
 72
8
 73
4
 74
0
 40
0
 40
0
 40
0
 40
0
 40
1
 40
1
 40
1
 40
1
 10
120.588080
 20
126.806086
 30
0.0
 10
118.507733
 20
126.332154
 30
0.0
 10
116.459855
 20
125.725545
 30
0.0
 10
114.457006
 20
124.989981
 30
0.0
  0
LWPOLYLINE
  5
3bc
100
AcDbEntity
  8
0
 62
7
100
AcDbPolyline
 90
2
 70
0
 10
120.588080
 20
126.806086
 30
0.0
 10
123.445332
 20
112.106819
 30
0.0
  0
LWPOLYLINE
  5
3bd
100
AcDbEntity
  8
0
 62
7
100
AcDbPolyline
 90
2
 70
0
 10
120.066511
 20
111.105963
 30
0.0
 10
114.457006
 20
124.989981
 30
0.0
  0
LWPOLYLINE
  5
3be
100
AcDbEntity
  8
0
 62
7
100
AcDbPolyline
 90
2
 70
0
 10
117.099526
 20
109.907224
 30
0.0
 10
120.066511
 20
111.105963
 30
0.0
  0
LWPOLYLINE
  5
3bf
100
AcDbEntity
  8
0
 62
7
100
AcDbPolyline
 90
2
 70
0
 10
111.490015
 20
123.791242
 30
0.0
 10
117.099526
 20
109.907224
 30
0.0
  0
LWPOLYLINE
  5
3c0
100
AcDbEntity
  8
0
 62
7
100
AcDbPolyline
 90
4
 70
0
 10
34.912825
 20
79.689848
 30
0.0
 10
33.927621
 20
82.721988
 30
0.0
 10
36.481856
 20
83.975839
 30
0.0
 10
38.891605
 20
87.619085
 30
0.0
  0
LWPOLYLINE
  5
3c1
100
AcDbEntity
  8
0
 62
7
100
AcDbPolyline
 90
2
 70
0
 10
31.664300
 20
85.837179
 30
0.0
 10
29.085009
 20
87.711146
 30
0.0
  0
LWPOLYLINE
  5
3c2
100
AcDbEntity
  8
0
 62
7
100
AcDbPolyline
 90
2
 70
0
 10
28.546343
 20
95.135357
 30
0.0
 10
25.826067
 20
91.717719
 30
0.0
  0
SPLINE
  5
3c3
100
AcDbEntity
  8
0
 62
7
100
AcDbSpline
 70
8
 71
3
 72
8
 73
4
 74
0
 40
0
 40
0
 40
0
 40
0
 40
1
 40
1
 40
1
 40
1
 10
51.176524
 20
65.431609
 30
0.0
 10
49.685122
 20
66.701052
 30
0.0
 10
47.598512
 20
67.004303
 30
0.0
 10
45.807458
 20
66.211908
 30
0.0
  0
SPLINE
  5
3c4
100
AcDbEntity
  8
0
 62
7
100
AcDbSpline
 70
8
 71
3
 72
8
 73
4
 74
0
 40
0
 40
0
 40
0
 40
0
 40
1
 40
1
 40
1
 40
1
 10
45.807458
 20
66.211908
 30
0.0
 10
44.016404
 20
65.419512
 30
0.0
 10
42.837329
 20
63.671460
 30
0.0
 10
42.773574
 20
61.713988
 30
0.0
  0
SPLINE
  5
3c5
100
AcDbEntity
  8
0
 62
7
100
AcDbSpline
 70
8
 71
3
 72
8
 73
4
 74
0
 40
0
 40
0
 40
0
 40
0
 40
1
 40
1
 40
1
 40
1
 10
42.773574
 20
61.713988
 30
0.0
 10
42.709820
 20
59.756515
 30
0.0
 10
43.772649
 20
57.935445
 30
0.0
 10
45.508345
 20
57.028183
 30
0.0
  0
LWPOLYLINE
  5
3c6
100
AcDbEntity
  8
0
 62
7
100
AcDbPolyline
 90
4
 70
0
 10
38.891605
 20
67.910028
 30
0.0
 10
36.481856
 20
71.553269
 30
0.0
 10
33.927621
 20
72.807120
 30
0.0
 10
34.912825
 20
75.839259
 30
0.0
  0
LWPOLYLINE
  5
3c7
100
AcDbEntity
  8
0
 62
7
100
AcDbPolyline
 90
2
 70
0
 10
29.085009
 20
67.817962
 30
0.0
 10
31.664300
 20
69.691929
 30
0.0
  0
LWPOLYLINE
  5
3c8
100
AcDbEntity
  8
0
 62
7
100
AcDbPolyline
 90
2
 70
0
 10
30.414434
 20
65.302239
 30
0.0
 10
29.085009
 20
67.817962
 30
0.0
  0
LWPOLYLINE
  5
3c9
100
AcDbEntity
  8
0
 62
7
100
AcDbPolyline
 90
2
 70
0
 10
30.222517
 20
60.938377
 30
0.0
 10
30.414434
 20
65.302239
 30
0.0
  0
LWPOLYLINE
  5
3ca
100
AcDbEntity
  8
0
 62
7
100
AcDbPolyline
 90
2
 70
0
 10
28.546343
 20
60.393751
 30
0.0
 10
30.222517
 20
60.938377
 30
0.0
  0
LWPOLYLINE
  5
3cb
100
AcDbEntity
  8
0
 62
7
100
AcDbPolyline
 90
2
 70
0
 10
25.826067
 20
63.811383
 30
0.0
 10
28.546343
 20
60.393751
 30
0.0
  0
LWPOLYLINE
  5
3cc
100
AcDbEntity
  8
0
 62
7
100
AcDbPolyline
 90
2
 70
0
 10
25.422884
 20
66.628068
 30
0.0
 10
25.826067
 20
63.811383
 30
0.0
  0
LWPOLYLINE
  5
3cd
100
AcDbEntity
  8
0
 62
7
100
AcDbPolyline
 90
2
 70
0
 10
22.234704
 20
66.628068
 30
0.0
 10
25.422884
 20
66.628068
 30
0.0
  0
LWPOLYLINE
  5
3ce
100
AcDbEntity
  8
0
 62
7
100
AcDbPolyline
 90
2
 70
0
 10
21.831527
 20
63.811383
 30
0.0
 10
22.234704
 20
66.628068
 30
0.0
  0
LWPOLYLINE
  5
3cf
100
AcDbEntity
  8
0
 62
7
100
AcDbPolyline
 90
2
 70
0
 10
19.111244
 20
60.393751
 30
0.0
 10
21.831527
 20
63.811383
 30
0.0
  0
LWPOLYLINE
  5
3d0
100
AcDbEntity
  8
0
 62
7
100
AcDbPolyline
 90
2
 70
0
 10
17.435075
 20
60.938377
 30
0.0
 10
19.111244
 20
60.393751
 30
0.0
  0
LWPOLYLINE
  5
3d1
100
AcDbEntity
  8
0
 62
7
100
AcDbPolyline
 90
2
 70
0
 10
17.243153
 20
65.302239
 30
0.0
 10
17.435075
 20
60.938377
 30
0.0
  0
LWPOLYLINE
  5
3d2
100
AcDbEntity
  8
0
 62
7
100
AcDbPolyline
 90
2
 70
0
 10
18.572577
 20
67.817962
 30
0.0
 10
17.243153
 20
65.302239
 30
0.0
  0
LWPOLYLINE
  5
3d3
100
AcDbEntity
  8
0
 62
7
100
AcDbPolyline
 90
2
 70
0
 10
15.993286
 20
69.691929
 30
0.0
 10
18.572577
 20
67.817962
 30
0.0
  0
LWPOLYLINE
  5
3d4
100
AcDbEntity
  8
0
 62
7
100
AcDbPolyline
 90
2
 70
0
 10
14.011499
 20
67.650169
 30
0.0
 10
15.993286
 20
69.691929
 30
0.0
  0
LWPOLYLINE
  5
3d5
100
AcDbEntity
  8
0
 62
7
100
AcDbPolyline
 90
2
 70
0
 10
9.801918
 20
66.484185
 30
0.0
 10
14.011499
 20
67.650169
 30
0.0
  0
LWPOLYLINE
  5
3d6
100
AcDbEntity
  8
0
 62
7
100
AcDbPolyline
 90
2
 70
0
 10
8.765982
 20
67.910028
 30
0.0
 10
9.801918
 20
66.484185
 30
0.0
  0
LWPOLYLINE
  5
3d7
100
AcDbEntity
  8
0
 62
7
100
AcDbPolyline
 90
2
 70
0
 10
11.175730
 20
71.553269
 30
0.0
 10
8.765982
 20
67.910028
 30
0.0
  0
LWPOLYLINE
  5
3d8
100
AcDbEntity
  8
0
 62
7
100
AcDbPolyline
 90
2
 70
0
 10
13.729966
 20
72.807120
 30
0.0
 10
11.175730
 20
71.553269
 30
0.0
  0
LWPOLYLINE
  5
3d9
100
AcDbEntity
  8
0
 62
7
100
AcDbPolyline
 90
2
 70
0
 10
12.744768
 20
75.839259
 30
0.0
 10
13.729966
 20
72.807120
 30
0.0
  0
LWPOLYLINE
  5
3da
100
AcDbEntity
  8
0
 62
7
100
AcDbPolyline
 90
2
 70
0
 10
9.941353
 20
75.352307
 30
0.0
 10
12.744768
 20
75.839259
 30
0.0
  0
LWPOLYLINE
  5
3db
100
AcDbEntity
  8
0
 62
7
100
AcDbPolyline
 90
2
 70
0
 10
5.850378
 20
76.883335
 30
0.0
 10
9.941353
 20
75.352307
 30
0.0
  0
LWPOLYLINE
  5
3dc
100
AcDbEntity
  8
0
 62
7
100
AcDbPolyline
 90
2
 70
0
 10
5.850378
 20
78.645773
 30
0.0
 10
5.850378
 20
76.883335
 30
0.0
  0
LWPOLYLINE
  5
3dd
100
AcDbEntity
  8
0
 62
7
100
AcDbPolyline
 90
2
 70
0
 10
9.941353
 20
80.176800
 30
0.0
 10
5.850378
 20
78.645773
 30
0.0
  0
LWPOLYLINE
  5
3de
100
AcDbEntity
  8
0
 62
7
100
AcDbPolyline
 90
2
 70
0
 10
12.744768
 20
79.689848
 30
0.0
 10
9.941353
 20
80.176800
 30
0.0
  0
LWPOLYLINE
  5
3df
100
AcDbEntity
  8
0
 62
7
100
AcDbPolyline
 90
2
 70
0
 10
13.729966
 20
82.721988
 30
0.0
 10
12.744768
 20
79.689848
 30
0.0
  0
LWPOLYLINE
  5
3e0
100
AcDbEntity
  8
0
 62
7
100
AcDbPolyline
 90
2
 70
0
 10
11.175730
 20
83.975839
 30
0.0
 10
13.729966
 20
82.721988
 30
0.0
  0
LWPOLYLINE
  5
3e1
100
AcDbEntity
  8
0
 62
7
100
AcDbPolyline
 90
2
 70
0
 10
8.765982
 20
87.619085
 30
0.0
 10
11.175730
 20
83.975839
 30
0.0
  0
LWPOLYLINE
  5
3e2
100
AcDbEntity
  8
0
 62
7
100
AcDbPolyline
 90
2
 70
0
 10
9.801918
 20
89.044922
 30
0.0
 10
8.765982
 20
87.619085
 30
0.0
  0
LWPOLYLINE
  5
3e3
100
AcDbEntity
  8
0
 62
7
100
AcDbPolyline
 90
2
 70
0
 10
14.011499
 20
87.878938
 30
0.0
 10
9.801918
 20
89.044922
 30
0.0
  0
LWPOLYLINE
  5
3e4
100
AcDbEntity
  8
0
 62
7
100
AcDbPolyline
 90
2
 70
0
 10
15.993286
 20
85.837179
 30
0.0
 10
14.011499
 20
87.878938
 30
0.0
  0
LWPOLYLINE
  5
3e5
100
AcDbEntity
  8
0
 62
7
100
AcDbPolyline
 90
2
 70
0
 10
18.572577
 20
87.711146
 30
0.0
 10
15.993286
 20
85.837179
 30
0.0
  0
LWPOLYLINE
  5
3e6
100
AcDbEntity
  8
0
 62
7
100
AcDbPolyline
 90
2
 70
0
 10
17.243153
 20
90.226869
 30
0.0
 10
18.572577
 20
87.711146
 30
0.0
  0
LWPOLYLINE
  5
3e7
100
AcDbEntity
  8
0
 62
7
100
AcDbPolyline
 90
2
 70
0
 10
17.435075
 20
94.590730
 30
0.0
 10
17.243153
 20
90.226869
 30
0.0
  0
LWPOLYLINE
  5
3e8
100
AcDbEntity
  8
0
 62
7
100
AcDbPolyline
 90
2
 70
0
 10
19.111244
 20
95.135357
 30
0.0
 10
17.435075
 20
94.590730
 30
0.0
  0
LWPOLYLINE
  5
3e9
100
AcDbEntity
  8
0
 62
7
100
AcDbPolyline
 90
2
 70
0
 10
21.831527
 20
91.717719
 30
0.0
 10
19.111244
 20
95.135357
 30
0.0
  0
LWPOLYLINE
  5
3ea
100
AcDbEntity
  8
0
 62
7
100
AcDbPolyline
 90
2
 70
0
 10
22.234704
 20
88.901046
 30
0.0
 10
21.831527
 20
91.717719
 30
0.0
  0
LWPOLYLINE
  5
3eb
100
AcDbEntity
  8
0
 62
7
100
AcDbPolyline
 90
2
 70
0
 10
25.422884
 20
88.901046
 30
0.0
 10
22.234704
 20
88.901046
 30
0.0
  0
LWPOLYLINE
  5
3ec
100
AcDbEntity
  8
0
 62
7
100
AcDbPolyline
 90
2
 70
0
 10
25.826067
 20
91.717719
 30
0.0
 10
25.422884
 20
88.901046
 30
0.0
  0
LWPOLYLINE
  5
3ed
100
AcDbEntity
  8
0
 62
7
100
AcDbPolyline
 90
2
 70
0
 10
40.009177
 20
94.050591
 30
0.0
 10
37.493166
 20
95.684511
 30
0.0
  0
LWPOLYLINE
  5
3ee
100
AcDbEntity
  8
0
 62
7
100
AcDbPolyline
 90
2
 70
0
 10
30.222517
 20
94.590730
 30
0.0
 10
28.546343
 20
95.135357
 30
0.0
  0
LWPOLYLINE
  5
3ef
100
AcDbEntity
  8
0
 62
7
100
AcDbPolyline
 90
2
 70
0
 10
30.414434
 20
90.226869
 30
0.0
 10
30.222517
 20
94.590730
 30
0.0
  0
LWPOLYLINE
  5
3f0
100
AcDbEntity
  8
0
 62
7
100
AcDbPolyline
 90
2
 70
0
 10
29.085009
 20
87.711146
 30
0.0
 10
30.414434
 20
90.226869
 30
0.0
  0
LWPOLYLINE
  5
3f1
100
AcDbEntity
  8
0
 62
7
100
AcDbPolyline
 90
2
 70
0
 10
43.907953
 20
100.054180
 30
0.0
 10
40.009177
 20
94.050591
 30
0.0
  0
LWPOLYLINE
  5
3f2
100
AcDbEntity
  8
0
 62
7
100
AcDbPolyline
 90
2
 70
0
 10
33.646087
 20
87.878938
 30
0.0
 10
31.664300
 20
85.837179
 30
0.0
  0
LWPOLYLINE
  5
3f3
100
AcDbEntity
  8
0
 62
7
100
AcDbPolyline
 90
2
 70
0
 10
37.855669
 20
89.044922
 30
0.0
 10
33.646087
 20
87.878938
 30
0.0
  0
LWPOLYLINE
  5
3f4
100
AcDbEntity
  8
0
 62
7
100
AcDbPolyline
 90
2
 70
0
 10
38.891605
 20
87.619085
 30
0.0
 10
37.855669
 20
89.044922
 30
0.0
  0
LWPOLYLINE
  5
3f5
100
AcDbEntity
  8
0
 62
7
100
AcDbPolyline
 90
2
 70
0
 10
33.715802
 20
96.110542
 30
0.0
 10
38.715967
 20
103.810129
 30
0.0
  0
LWPOLYLINE
  5
3f6
100
AcDbEntity
  8
0
 62
7
100
AcDbPolyline
 90
2
 70
0
 10
36.567279
 20
94.258769
 30
0.0
 10
33.715802
 20
96.110542
 30
0.0
  0
LWPOLYLINE
  5
3f7
100
AcDbEntity
  8
0
 62
7
100
AcDbPolyline
 90
2
 70
0
 10
37.493166
 20
95.684511
 30
0.0
 10
36.567279
 20
94.258769
 30
0.0
  0
LWPOLYLINE
  5
3f8
100
AcDbEntity
  8
0
 62
7
100
AcDbPolyline
 90
2
 70
0
 10
37.716234
 20
80.176800
 30
0.0
 10
34.912825
 20
79.689848
 30
0.0
  0
LWPOLYLINE
  5
3f9
100
AcDbEntity
  8
0
 62
7
100
AcDbPolyline
 90
2
 70
0
 10
41.807209
 20
78.645773
 30
0.0
 10
37.716234
 20
80.176800
 30
0.0
  0
LWPOLYLINE
  5
3fa
100
AcDbEntity
  8
0
 62
7
100
AcDbPolyline
 90
2
 70
0
 10
41.807209
 20
76.883335
 30
0.0
 10
41.807209
 20
78.645773
 30
0.0
  0
LWPOLYLINE
  5
3fb
100
AcDbEntity
  8
0
 62
7
100
AcDbPolyline
 90
2
 70
0
 10
37.716234
 20
75.352307
 30
0.0
 10
41.807209
 20
76.883335
 30
0.0
  0
SPLINE
  5
3fc
100
AcDbEntity
  8
0
 62
7
100
AcDbSpline
 70
8
 71
3
 72
8
 73
4
 74
0
 40
0
 40
0
 40
0
 40
0
 40
1
 40
1
 40
1
 40
1
 10
51.176524
 20
65.431609
 30
0.0
 10
56.540142
 20
77.325180
 30
0.0
 10
53.601745
 20
91.321722
 30
0.0
 10
43.907953
 20
100.054180
 30
0.0
  0
SPLINE
  5
3fd
100
AcDbEntity
  8
0
 62
7
100
AcDbSpline
 70
8
 71
3
 72
8
 73
4
 74
0
 40
0
 40
0
 40
0
 40
0
 40
1
 40
1
 40
1
 40
1
 10
38.715973
 20
103.810129
 30
0.0
 10
25.151557
 20
111.563302
 30
0.0
 10
7.907420
 20
107.607725
 30
0.0
 10
-0.921733
 20
94.717763
 30
0.0
  0
SPLINE
  5
3fe
100
AcDbEntity
  8
0
 62
7
100
AcDbSpline
 70
8
 71
3
 72
8
 73
4
 74
0
 40
0
 40
0
 40
0
 40
0
 40
1
 40
1
 40
1
 40
1
 10
-0.921733
 20
94.717763
 30
0.0
 10
-9.750886
 20
81.827802
 30
0.0
 10
-7.208801
 20
64.319385
 30
0.0
 10
4.921552
 20
54.472580
 30
0.0
  0
SPLINE
  5
3ff
100
AcDbEntity
  8
0
 62
7
100
AcDbSpline
 70
8
 71
3
 72
8
 73
4
 74
0
 40
0
 40
0
 40
0
 40
0
 40
1
 40
1
 40
1
 40
1
 10
4.921552
 20
54.472580
 30
0.0
 10
17.051906
 20
44.625774
 30
0.0
 10
34.708937
 20
45.737574
 30
0.0
 10
45.508345
 20
57.028183
 30
0.0
  0
LWPOLYLINE
  5
400
100
AcDbEntity
  8
0
 62
7
100
AcDbPolyline
 90
2
 70
0
 10
34.912825
 20
75.839259
 30
0.0
 10
37.716234
 20
75.352307
 30
0.0
  0
LWPOLYLINE
  5
401
100
AcDbEntity
  8
0
 62
7
100
AcDbPolyline
 90
2
 70
0
 10
37.855669
 20
66.484185
 30
0.0
 10
38.891605
 20
67.910028
 30
0.0
  0
LWPOLYLINE
  5
402
100
AcDbEntity
  8
0
 62
7
100
AcDbPolyline
 90
2
 70
0
 10
33.646087
 20
67.650169
 30
0.0
 10
37.855669
 20
66.484185
 30
0.0
  0
SPLINE
  5
403
100
AcDbEntity
  8
0
 62
7
100
AcDbSpline
 70
8
 71
3
 72
8
 73
4
 74
0
 40
0
 40
0
 40
0
 40
0
 40
1
 40
1
 40
1
 40
1
 10
26.828797
 20
77.764557
 30
0.0
 10
26.829454
 20
78.836792
 30
0.0
 10
26.257801
 20
79.827859
 30
0.0
 10
25.329328
 20
80.364167
 30
0.0
  0
SPLINE
  5
404
100
AcDbEntity
  8
0
 62
7
100
AcDbSpline
 70
8
 71
3
 72
8
 73
4
 74
0
 40
0
 40
0
 40
0
 40
0
 40
1
 40
1
 40
1
 40
1
 10
25.329328
 20
80.364167
 30
0.0
 10
24.400855
 20
80.900474
 30
0.0
 10
23.256739
 20
80.900474
 30
0.0
 10
22.328266
 20
80.364167
 30
0.0
  0
SPLINE
  5
405
100
AcDbEntity
  8
0
 62
7
100
AcDbSpline
 70
8
 71
3
 72
8
 73
4
 74
0
 40
0
 40
0
 40
0
 40
0
 40
1
 40
1
 40
1
 40
1
 10
22.328266
 20
80.364167
 30
0.0
 10
21.399792
 20
79.827859
 30
0.0
 10
20.828140
 20
78.836792
 30
0.0
 10
20.828797
 20
77.764557
 30
0.0
  0
SPLINE
  5
406
100
AcDbEntity
  8
0
 62
7
100
AcDbSpline
 70
8
 71
3
 72
8
 73
4
 74
0
 40
0
 40
0
 40
0
 40
0
 40
1
 40
1
 40
1
 40
1
 10
20.828797
 20
77.764557
 30
0.0
 10
20.828140
 20
76.692322
 30
0.0
 10
21.399792
 20
75.701254
 30
0.0
 10
22.328266
 20
75.164947
 30
0.0
  0
SPLINE
  5
407
100
AcDbEntity
  8
0
 62
7
100
AcDbSpline
 70
8
 71
3
 72
8
 73
4
 74
0
 40
0
 40
0
 40
0
 40
0
 40
1
 40
1
 40
1
 40
1
 10
22.328266
 20
75.164947
 30
0.0
 10
23.256739
 20
74.628639
 30
0.0
 10
24.400855
 20
74.628639
 30
0.0
 10
25.329328
 20
75.164947
 30
0.0
  0
SPLINE
  5
408
100
AcDbEntity
  8
0
 62
7
100
AcDbSpline
 70
8
 71
3
 72
8
 73
4
 74
0
 40
0
 40
0
 40
0
 40
0
 40
1
 40
1
 40
1
 40
1
 10
25.329328
 20
75.164947
 30
0.0
 10
26.257801
 20
75.701254
 30
0.0
 10
26.829454
 20
76.692322
 30
0.0
 10
26.828797
 20
77.764557
 30
0.0
  0
LWPOLYLINE
  5
409
100
AcDbEntity
  8
0
 62
7
100
AcDbPolyline
 90
2
 70
0
 10
31.664300
 20
69.691929
 30
0.0
 10
33.646087
 20
67.650169
 30
0.0
  0
LWPOLYLINE
  5
40a
100
AcDbEntity
  8
0
 62
7
100
AcDbPolyline
 90
2
 70
1
 10
26.828797
 20
77.764557
 30
0.0
 10
26.828797
 20
77.764557
 30
0.0
  0
LWPOLYLINE
  5
40b
100
AcDbEntity
  8
0
 62
7
100
AcDbPolyline
 90
2
 70
0
 10
18.721083
 20
112.426796
 30
0.0
 10
15.579876
 20
111.816214
 30
0.0
  0
LWPOLYLINE
  5
40c
100
AcDbEntity
  8
0
 62
7
100
AcDbPolyline
 90
2
 70
0
 10
45.508345
 20
57.028183
 30
0.0
 10
45.940557
 20
56.827382
 30
0.0
  0
SPLINE
  5
40d
100
AcDbEntity
  8
0
 62
7
100
AcDbSpline
 70
8
 71
3
 72
8
 73
4
 74
0
 40
0
 40
0
 40
0
 40
0
 40
1
 40
1
 40
1
 40
1
 10
28.776445
 20
44.617895
 30
0.0
 10
30.117393
 20
45.526669
 30
0.0
 10
30.946874
 20
47.018433
 30
0.0
 10
31.011249
 20
48.637033
 30
0.0
  0
LWPOLYLINE
  5
40e
100
AcDbEntity
  8
0
 62
7
100
AcDbPolyline
 90
2
 70
0
 10
28.776445
 20
44.617895
 30
0.0
 10
26.559517
 20
47.889094
 30
0.0
  0
SPLINE
  5
40f
100
AcDbEntity
  8
0
 62
7
100
AcDbSpline
 70
8
 71
3
 72
8
 73
4
 74
0
 40
0
 40
0
 40
0
 40
0
 40
1
 40
1
 40
1
 40
1
 10
35.010220
 20
46.170947
 30
0.0
 10
36.153130
 20
47.318889
 30
0.0
 10
36.682730
 20
48.941519
 30
0.0
 10
36.437079
 20
50.542665
 30
0.0
  0
LWPOLYLINE
  5
410
100
AcDbEntity
  8
0
 62
7
100
AcDbPolyline
 90
2
 70
0
 10
35.010220
 20
46.170947
 30
0.0
 10
32.209853
 20
48.959038
 30
0.0
  0
SPLINE
  5
411
100
AcDbEntity
  8
0
 62
7
100
AcDbSpline
 70
8
 71
3
 72
8
 73
4
 74
0
 40
0
 40
0
 40
0
 40
0
 40
1
 40
1
 40
1
 40
1
 10
40.833130
 20
48.884926
 30
0.0
 10
41.736006
 20
50.229855
 30
0.0
 10
41.946264
 20
51.923726
 30
0.0
 10
41.399612
 20
53.448584
 30
0.0
  0
LWPOLYLINE
  5
412
100
AcDbEntity
  8
0
 62
7
100
AcDbPolyline
 90
2
 70
0
 10
40.833130
 20
48.884926
 30
0.0
 10
37.552224
 20
51.087456
 30
0.0
  0
SPLINE
  5
413
100
AcDbEntity
  8
0
 62
7
100
AcDbSpline
 70
8
 71
3
 72
8
 73
4
 74
0
 40
0
 40
0
 40
0
 40
0
 40
1
 40
1
 40
1
 40
1
 10
46.031206
 20
52.660105
 30
0.0
 10
46.660868
 20
54.152602
 30
0.0
 10
46.544055
 20
55.855471
 30
0.0
 10
45.716489
 20
57.248006
 30
0.0
  0
LWPOLYLINE
  5
414
100
AcDbEntity
  8
0
 62
7
100
AcDbPolyline
 90
2
 70
0
 10
46.031206
 20
52.660111
 30
0.0
 10
42.390314
 20
54.196145
 30
0.0
  0
SPLINE
  5
415
100
AcDbEntity
  8
0
 62
7
100
AcDbSpline
 70
8
 71
3
 72
8
 73
4
 74
0
 40
0
 40
0
 40
0
 40
0
 40
1
 40
1
 40
1
 40
1
 10
50.413440
 20
57.357768
 30
0.0
 10
50.746751
 20
58.942987
 30
0.0
 10
50.307163
 20
60.592280
 30
0.0
 10
49.229095
 20
61.801323
 30
0.0
  0
SPLINE
  5
416
100
AcDbEntity
  8
0
 62
7
100
AcDbSpline
 70
8
 71
3
 72
8
 73
4
 74
0
 40
0
 40
0
 40
0
 40
0
 40
1
 40
1
 40
1
 40
1
 10
49.229095
 20
61.801323
 30
0.0
 10
49.449251
 20
62.151631
 30
0.0
 10
49.662138
 20
62.506457
 30
0.0
 10
49.867617
 20
62.865571
 30
0.0
  0
LWPOLYLINE
  5
417
100
AcDbEntity
  8
0
 62
7
100
AcDbPolyline
 90
2
 70
0
 10
50.413440
 20
57.357768
 30
0.0
 10
46.546352
 20
58.170867
 30
0.0
  0
SPLINE
  5
418
100
AcDbEntity
  8
0
 62
7
100
AcDbSpline
 70
8
 71
3
 72
8
 73
4
 74
0
 40
0
 40
0
 40
0
 40
0
 40
1
 40
1
 40
1
 40
1
 10
53.818801
 20
62.805289
 30
0.0
 10
53.843513
 20
64.424980
 30
0.0
 10
53.097302
 20
65.960092
 30
0.0
 10
51.808346
 20
66.941216
 30
0.0
  0
SPLINE
  5
419
100
AcDbEntity
  8
0
 62
7
100
AcDbSpline
 70
8
 71
3
 72
8
 73
4
 74
0
 40
0
 40
0
 40
0
 40
0
 40
1
 40
1
 40
1
 40
1
 10
56.122164
 20
68.802494
 30
0.0
 10
55.837370
 20
70.397144
 30
0.0
 10
54.811956
 20
71.761669
 30
0.0
 10
53.359473
 20
72.478822
 30
0.0
  0
SPLINE
  5
41a
100
AcDbEntity
  8
0
 62
7
100
AcDbSpline
 70
8
 71
3
 72
8
 73
4
 74
0
 40
0
 40
0
 40
0
 40
0
 40
1
 40
1
 40
1
 40
1
 10
53.359473
 20
72.478822
 30
0.0
 10
53.432372
 20
72.886096
 30
0.0
 10
53.496838
 20
73.294833
 30
0.0
 10
53.552829
 20
73.704773
 30
0.0
  0
SPLINE
  5
41b
100
AcDbEntity
  8
0
 62
7
100
AcDbSpline
 70
8
 71
3
 72
8
 73
4
 74
0
 40
0
 40
0
 40
0
 40
0
 40
1
 40
1
 40
1
 40
1
 10
53.825479
 20
78.210660
 30
0.0
 10
53.596784
 20
93.588256
 30
0.0
 10
41.776430
 20
106.302335
 30
0.0
 10
26.456230
 20
107.649272
 30
0.0
  0
SPLINE
  5
41c
100
AcDbEntity
  8
0
 62
7
100
AcDbSpline
 70
8
 71
3
 72
8
 73
4
 74
0
 40
0
 40
0
 40
0
 40
0
 40
1
 40
1
 40
1
 40
1
 10
26.456230
 20
107.649272
 30
0.0
 10
11.136030
 20
108.996208
 30
0.0
 10
-2.721458
 20
98.539697
 30
0.0
 10
-5.629868
 20
83.437912
 30
0.0
  0
SPLINE
  5
41d
100
AcDbEntity
  8
0
 62
7
100
AcDbSpline
 70
8
 71
3
 72
8
 73
4
 74
0
 40
0
 40
0
 40
0
 40
0
 40
1
 40
1
 40
1
 40
1
 10
-5.629868
 20
83.437912
 30
0.0
 10
-8.538279
 20
68.336127
 30
0.0
 10
0.444488
 20
53.480876
 30
0.0
 10
15.169135
 20
49.041559
 30
0.0
  0
LWPOLYLINE
  5
41e
100
AcDbEntity
  8
0
 62
7
100
AcDbPolyline
 90
2
 70
0
 10
53.818801
 20
62.805289
 30
0.0
 10
49.867617
 20
62.865571
 30
0.0
  0
SPLINE
  5
41f
100
AcDbEntity
  8
0
 62
7
100
AcDbSpline
 70
8
 71
3
 72
8
 73
4
 74
0
 40
0
 40
0
 40
0
 40
0
 40
1
 40
1
 40
1
 40
1
 10
15.999219
 20
45.178084
 30
0.0
 10
17.582959
 20
45.518356
 30
0.0
 10
18.910868
 20
46.590768
 30
0.0
 10
19.576893
 20
48.067396
 30
0.0
  0
SPLINE
  5
420
100
AcDbEntity
  8
0
 62
7
100
AcDbSpline
 70
8
 71
3
 72
8
 73
4
 74
0
 40
0
 40
0
 40
0
 40
0
 40
1
 40
1
 40
1
 40
1
 10
19.576893
 20
48.067396
 30
0.0
 10
19.986462
 20
48.008755
 30
0.0
 10
20.397200
 20
47.958594
 30
0.0
 10
20.808844
 20
47.916943
 30
0.0
  0
LWPOLYLINE
  5
421
100
AcDbEntity
  8
0
 62
7
100
AcDbPolyline
 90
2
 70
0
 10
15.999219
 20
45.178084
 30
0.0
 10
15.169135
 20
49.041559
 30
0.0
  0
SPLINE
  5
422
100
AcDbEntity
  8
0
 62
7
100
AcDbSpline
 70
8
 71
3
 72
8
 73
4
 74
0
 40
0
 40
0
 40
0
 40
0
 40
1
 40
1
 40
1
 40
1
 10
22.360863
 20
44.282835
 30
0.0
 10
23.850576
 20
44.919049
 30
0.0
 10
24.949458
 20
46.225133
 30
0.0
 10
25.321493
 20
47.801712
 30
0.0
  0
SPLINE
  5
423
100
AcDbEntity
  8
0
 62
7
100
AcDbSpline
 70
8
 71
3
 72
8
 73
4
 74
0
 40
0
 40
0
 40
0
 40
0
 40
1
 40
1
 40
1
 40
1
 10
53.306845
 20
37.378365
 30
0.0
 10
74.926414
 20
53.158584
 30
0.0
 10
80.284518
 20
83.165615
 30
0.0
 10
65.462350
 20
105.452930
 30
0.0
  0
SPLINE
  5
424
100
AcDbEntity
  8
0
 62
7
100
AcDbSpline
 70
8
 71
3
 72
8
 73
4
 74
0
 40
0
 40
0
 40
0
 40
0
 40
1
 40
1
 40
1
 40
1
 10
65.462350
 20
105.452930
 30
0.0
 10
50.640183
 20
127.740246
 30
0.0
 10
20.895430
 20
134.402139
 30
0.0
 10
-2.017207
 20
120.566238
 30
0.0
  0
SPLINE
  5
425
100
AcDbEntity
  8
0
 62
7
100
AcDbSpline
 70
8
 71
3
 72
8
 73
4
 74
0
 40
0
 40
0
 40
0
 40
0
 40
1
 40
1
 40
1
 40
1
 10
-2.017207
 20
120.566238
 30
0.0
 10
-24.929844
 20
106.730337
 30
0.0
 10
-32.882845
 20
77.304482
 30
0.0
 10
-20.059548
 20
53.810139
 30
0.0
  0
SPLINE
  5
426
100
AcDbEntity
  8
0
 62
7
100
AcDbSpline
 70
8
 71
3
 72
8
 73
4
 74
0
 40
0
 40
0
 40
0
 40
0
 40
1
 40
1
 40
1
 40
1
 10
-20.059548
 20
53.810139
 30
0.0
 10
-7.236251
 20
30.315796
 30
0.0
 10
21.814692
 20
21.086827
 30
0.0
 10
45.846018
 20
32.873110
 30
0.0
  0
LWPOLYLINE
  5
427
100
AcDbEntity
  8
0
 62
7
100
AcDbPolyline
 90
2
 70
0
 10
22.360863
 20
44.282835
 30
0.0
 10
20.808844
 20
47.916943
 30
0.0
  0
SPLINE
  5
428
100
AcDbEntity
  8
0
 62
7
100
AcDbSpline
 70
8
 71
3
 72
8
 73
4
 74
0
 40
0
 40
0
 40
0
 40
0
 40
1
 40
1
 40
1
 40
1
 10
54.555147
 20
32.147771
 30
0.0
 10
55.005945
 20
32.451417
 30
0.0
 10
55.313745
 20
32.925457
 30
0.0
 10
55.407711
 20
33.460798
 30
0.0
  0
SPLINE
  5
429
100
AcDbEntity
  8
0
 62
7
100
AcDbSpline
 70
8
 71
3
 72
8
 73
4
 74
0
 40
0
 40
0
 40
0
 40
0
 40
1
 40
1
 40
1
 40
1
 10
55.407711
 20
33.460798
 30
0.0
 10
55.501677
 20
33.996138
 30
0.0
 10
55.373716
 20
34.546667
 30
0.0
 10
55.053275
 20
34.985685
 30
0.0
  0
SPLINE
  5
42a
100
AcDbEntity
  8
0
 62
7
100
AcDbSpline
 70
8
 71
3
 72
8
 73
4
 74
0
 40
0
 40
0
 40
0
 40
0
 40
1
 40
1
 40
1
 40
1
 10
49.893909
 20
29.333062
 30
0.0
 10
51.493174
 20
30.193763
 30
0.0
 10
53.048827
 20
31.133150
 30
0.0
 10
54.555147
 20
32.147771
 30
0.0
  0
SPLINE
  5
42b
100
AcDbEntity
  8
0
 62
7
100
AcDbSpline
 70
8
 71
3
 72
8
 73
4
 74
0
 40
0
 40
0
 40
0
 40
0
 40
1
 40
1
 40
1
 40
1
 10
47.150432
 20
30.213516
 30
0.0
 10
47.389771
 20
29.725525
 30
0.0
 10
47.817411
 20
29.355960
 30
0.0
 10
48.334937
 20
29.189872
 30
0.0
  0
SPLINE
  5
42c
100
AcDbEntity
  8
0
 62
7
100
AcDbSpline
 70
8
 71
3
 72
8
 73
4
 74
0
 40
0
 40
0
 40
0
 40
0
 40
1
 40
1
 40
1
 40
1
 10
48.334937
 20
29.189872
 30
0.0
 10
48.852462
 20
29.023785
 30
0.0
 10
49.415296
 20
29.075480
 30
0.0
 10
49.893909
 20
29.333062
 30
0.0
  0
LWPOLYLINE
  5
42d
100
AcDbEntity
  8
0
 62
7
100
AcDbPolyline
 90
2
 70
0
 10
53.306845
 20
37.378365
 30
0.0
 10
55.053275
 20
34.985685
 30
0.0
  0
SPLINE
  5
42e
100
AcDbEntity
  8
0
 62
7
100
AcDbSpline
 70
8
 71
3
 72
8
 73
4
 74
0
 40
0
 40
0
 40
0
 40
0
 40
1
 40
1
 40
1
 40
1
 10
7.339123
 20
113.526870
 30
0.0
 10
6.814909
 20
113.723072
 30
0.0
 10
6.232466
 20
113.690625
 30
0.0
 10
5.733289
 20
113.437412
 30
0.0
  0
LWPOLYLINE
  5
42f
100
AcDbEntity
  8
0
 62
7
100
AcDbPolyline
 90
2
 70
0
 10
47.150432
 20
30.213516
 30
0.0
 10
45.846018
 20
32.873110
 30
0.0
  0
SPLINE
  5
430
100
AcDbEntity
  8
0
 62
7
100
AcDbSpline
 70
8
 71
3
 72
8
 73
4
 74
0
 40
0
 40
0
 40
0
 40
0
 40
1
 40
1
 40
1
 40
1
 10
58.170990
 20
84.518326
 30
0.0
 10
56.256911
 20
94.251205
 30
0.0
 10
50.302884
 20
102.714804
 30
0.0
 10
41.789178
 20
107.804934
 30
0.0
  0
SPLINE
  5
431
100
AcDbEntity
  8
0
 62
7
100
AcDbSpline
 70
8
 71
3
 72
8
 73
4
 74
0
 40
0
 40
0
 40
0
 40
0
 40
1
 40
1
 40
1
 40
1
 10
41.789178
 20
107.804934
 30
0.0
 10
33.275471
 20
112.895064
 30
0.0
 10
23.001769
 20
114.133614
 30
0.0
 10
13.522284
 20
111.212660
 30
0.0
  0
SPLINE
  5
432
100
AcDbEntity
  8
0
 62
7
100
AcDbSpline
 70
8
 71
3
 72
8
 73
4
 74
0
 40
0
 40
0
 40
0
 40
0
 40
1
 40
1
 40
1
 40
1
 10
63.077022
 20
85.483154
 30
0.0
 10
60.967913
 20
96.207745
 30
0.0
 10
54.562061
 20
105.602149
 30
0.0
 10
45.348634
 20
111.482452
 30
0.0
  0
SPLINE
  5
433
100
AcDbEntity
  8
0
 62
7
100
AcDbSpline
 70
8
 71
3
 72
8
 73
4
 74
0
 40
0
 40
0
 40
0
 40
0
 40
1
 40
1
 40
1
 40
1
 10
45.348634
 20
111.482452
 30
0.0
 10
36.135207
 20
117.362755
 30
0.0
 10
24.916802
 20
119.216713
 30
0.0
 10
14.301359
 20
116.613337
 30
0.0
  0
SPLINE
  5
434
100
AcDbEntity
  8
0
 62
7
100
AcDbSpline
 70
8
 71
3
 72
8
 73
4
 74
0
 40
0
 40
0
 40
0
 40
0
 40
1
 40
1
 40
1
 40
1
 10
13.157766
 20
116.670358
 30
0.0
 10
13.525260
 20
116.540306
 30
0.0
 10
13.922750
 20
116.520487
 30
0.0
 10
14.301359
 20
116.613337
 30
0.0
  0
LWPOLYLINE
  5
435
100
AcDbEntity
  8
0
 62
7
100
AcDbPolyline
 90
2
 70
0
 10
13.522284
 20
111.212660
 30
0.0
 10
7.339123
 20
113.526870
 30
0.0
  0
SPLINE
  5
436
100
AcDbEntity
  8
0
 62
7
100
AcDbSpline
 70
8
 71
3
 72
8
 73
4
 74
0
 40
0
 40
0
 40
0
 40
0
 40
1
 40
1
 40
1
 40
1
 10
51.808346
 20
66.941216
 30
0.0
 10
51.957616
 20
67.327098
 30
0.0
 10
52.098887
 20
67.716027
 30
0.0
 10
52.232069
 20
68.107753
 30
0.0
  0
SPLINE
  5
437
100
AcDbEntity
  8
0
 62
7
100
AcDbSpline
 70
8
 71
3
 72
8
 73
4
 74
0
 40
0
 40
0
 40
0
 40
0
 40
1
 40
1
 40
1
 40
1
 10
41.399612
 20
53.448584
 30
0.0
 10
41.734966
 20
53.690912
 30
0.0
 10
42.065270
 20
53.940153
 30
0.0
 10
42.390314
 20
54.196145
 30
0.0
  0
SPLINE
  5
438
100
AcDbEntity
  8
0
 62
7
100
AcDbSpline
 70
8
 71
3
 72
8
 73
4
 74
0
 40
0
 40
0
 40
0
 40
0
 40
1
 40
1
 40
1
 40
1
 10
36.437079
 20
50.542665
 30
0.0
 10
36.812511
 20
50.716553
 30
0.0
 10
37.184305
 20
50.898189
 30
0.0
 10
37.552224
 20
51.087456
 30
0.0
  0
SPLINE
  5
439
100
AcDbEntity
  8
0
 62
7
100
AcDbSpline
 70
8
 71
3
 72
8
 73
4
 74
0
 40
0
 40
0
 40
0
 40
0
 40
1
 40
1
 40
1
 40
1
 10
45.716489
 20
57.248006
 30
0.0
 10
45.999444
 20
57.549871
 30
0.0
 10
46.276125
 20
57.857557
 30
0.0
 10
46.546352
 20
58.170867
 30
0.0
  0
SPLINE
  5
43a
100
AcDbEntity
  8
0
 62
7
100
AcDbSpline
 70
8
 71
3
 72
8
 73
4
 74
0
 40
0
 40
0
 40
0
 40
0
 40
1
 40
1
 40
1
 40
1
 10
31.011249
 20
48.637033
 30
0.0
 10
31.412962
 20
48.736091
 30
0.0
 10
31.812582
 20
48.843449
 30
0.0
 10
32.209853
 20
48.959038
 30
0.0
  0
SPLINE
  5
43b
100
AcDbEntity
  8
0
 62
7
100
AcDbSpline
 70
8
 71
3
 72
8
 73
4
 74
0
 40
0
 40
0
 40
0
 40
0
 40
1
 40
1
 40
1
 40
1
 10
25.321493
 20
47.801712
 30
0.0
 10
25.734728
 20
47.822299
 30
0.0
 10
26.147493
 20
47.851432
 30
0.0
 10
26.559523
 20
47.889094
 30
0.0
  0
LWPOLYLINE
  5
43c
100
AcDbEntity
  8
0
 62
7
100
AcDbPolyline
 90
2
 70
0
 10
6.154941
 20
119.148551
 30
0.0
 10
13.157771
 20
116.670358
 30
0.0
  0
SPLINE
  5
43d
100
AcDbEntity
  8
0
 62
7
100
AcDbSpline
 70
8
 71
3
 72
8
 73
4
 74
0
 40
0
 40
0
 40
0
 40
0
 40
1
 40
1
 40
1
 40
1
 10
57.238883
 20
75.129019
 30
0.0
 10
56.655050
 20
76.640029
 30
0.0
 10
55.388114
 20
77.783827
 30
0.0
 10
53.825479
 20
78.210660
 30
0.0
  0
LWPOLYLINE
  5
43e
100
AcDbEntity
  8
0
 62
7
100
AcDbPolyline
 90
2
 70
0
 10
52.232069
 20
68.107753
 30
0.0
 10
56.122164
 20
68.802494
 30
0.0
  0
LWPOLYLINE
  5
43f
100
AcDbEntity
  8
0
 62
7
100
AcDbPolyline
 90
2
 70
0
 10
53.552829
 20
73.704773
 30
0.0
 10
57.238889
 20
75.129019
 30
0.0
  0
SPLINE
  5
440
100
AcDbEntity
  8
0
 62
7
100
AcDbSpline
 70
8
 71
3
 72
8
 73
4
 74
0
 40
0
 40
0
 40
0
 40
0
 40
1
 40
1
 40
1
 40
1
 10
5.733289
 20
113.437412
 30
0.0
 10
-3.968416
 20
108.516101
 30
0.0
 10
-11.247229
 20
99.855620
 30
0.0
 10
-14.425729
 20
89.451798
 30
0.0
  0
SPLINE
  5
441
100
AcDbEntity
  8
0
 62
7
100
AcDbSpline
 70
8
 71
3
 72
8
 73
4
 74
0
 40
0
 40
0
 40
0
 40
0
 40
1
 40
1
 40
1
 40
1
 10
-14.425729
 20
89.451798
 30
0.0
 10
-17.604230
 20
79.047976
 30
0.0
 10
-16.408216
 20
67.798327
 30
0.0
 10
-11.113311
 20
58.295361
 30
0.0
  0
LWPOLYLINE
  5
442
100
AcDbEntity
  8
0
 62
7
100
AcDbPolyline
 90
2
 70
0
 10
63.077017
 20
85.483148
 30
0.0
 10
58.170990
 20
84.518326
 30
0.0
  0
SPLINE
  5
443
100
AcDbEntity
  8
0
 62
7
100
AcDbSpline
 70
8
 71
3
 72
8
 73
4
 74
0
 40
0
 40
0
 40
0
 40
0
 40
1
 40
1
 40
1
 40
1
 10
6.154941
 20
119.148545
 30
0.0
 10
-5.573645
 20
114.139620
 30
0.0
 10
-14.626023
 20
104.389278
 30
0.0
 10
-18.751622
 20
92.321616
 30
0.0
  0
SPLINE
  5
444
100
AcDbEntity
  8
0
 62
7
100
AcDbSpline
 70
8
 71
3
 72
8
 73
4
 74
0
 40
0
 40
0
 40
0
 40
0
 40
1
 40
1
 40
1
 40
1
 10
-18.751622
 20
92.321616
 30
0.0
 10
-22.877221
 20
80.253954
 30
0.0
 10
-21.688529
 20
67.002473
 30
0.0
 10
-15.481073
 20
55.861713
 30
0.0
  0
SPLINE
  5
445
100
AcDbEntity
  8
0
 62
7
100
AcDbSpline
 70
8
 71
3
 72
8
 73
4
 74
0
 40
0
 40
0
 40
0
 40
0
 40
1
 40
1
 40
1
 40
1
 10
197.400988
 20
-15.699541
 30
0.0
 10
197.400988
 20
-14.627743
 30
0.0
 10
196.829191
 20
-13.637361
 30
0.0
 10
195.900987
 20
-13.101463
 30
0.0
  0
SPLINE
  5
446
100
AcDbEntity
  8
0
 62
7
100
AcDbSpline
 70
8
 71
3
 72
8
 73
4
 74
0
 40
0
 40
0
 40
0
 40
0
 40
1
 40
1
 40
1
 40
1
 10
195.900987
 20
-13.101463
 30
0.0
 10
194.972783
 20
-12.565564
 30
0.0
 10
193.829188
 20
-12.565564
 30
0.0
 10
192.900984
 20
-13.101463
 30
0.0
  0
SPLINE
  5
447
100
AcDbEntity
  8
0
 62
7
100
AcDbSpline
 70
8
 71
3
 72
8
 73
4
 74
0
 40
0
 40
0
 40
0
 40
0
 40
1
 40
1
 40
1
 40
1
 10
192.900984
 20
-13.101463
 30
0.0
 10
191.972780
 20
-13.637361
 30
0.0
 10
191.400983
 20
-14.627743
 30
0.0
 10
191.400983
 20
-15.699541
 30
0.0
  0
SPLINE
  5
448
100
AcDbEntity
  8
0
 62
7
100
AcDbSpline
 70
8
 71
3
 72
8
 73
4
 74
0
 40
0
 40
0
 40
0
 40
0
 40
1
 40
1
 40
1
 40
1
 10
191.400983
 20
-15.699541
 30
0.0
 10
191.400983
 20
-17.356397
 30
0.0
 10
192.744130
 20
-18.699543
 30
0.0
 10
194.400986
 20
-18.699543
 30
0.0
  0
SPLINE
  5
449
100
AcDbEntity
  8
0
 62
7
100
AcDbSpline
 70
8
 71
3
 72
8
 73
4
 74
0
 40
0
 40
0
 40
0
 40
0
 40
1
 40
1
 40
1
 40
1
 10
194.400986
 20
-18.699543
 30
0.0
 10
196.057841
 20
-18.699543
 30
0.0
 10
197.400988
 20
-17.356397
 30
0.0
 10
197.400988
 20
-15.699541
 30
0.0
  0
LWPOLYLINE
  5
44a
100
AcDbEntity
  8
0
 62
7
100
AcDbPolyline
 90
2
 70
0
 10
-11.113306
 20
58.295361
 30
0.0
 10
-15.481073
 20
55.861713
 30
0.0
  0
SPLINE
  5
44b
100
AcDbEntity
  8
0
 62
7
100
AcDbSpline
 70
8
 71
3
 72
8
 73
4
 74
0
 40
0
 40
0
 40
0
 40
0
 40
1
 40
1
 40
1
 40
1
 10
223.543074
 20
-31.916143
 30
0.0
 10
223.543074
 20
-30.094088
 30
0.0
 10
222.571020
 20
-28.410440
 30
0.0
 10
220.993074
 20
-27.499412
 30
0.0
  0
SPLINE
  5
44c
100
AcDbEntity
  8
0
 62
7
100
AcDbSpline
 70
8
 71
3
 72
8
 73
4
 74
0
 40
0
 40
0
 40
0
 40
0
 40
1
 40
1
 40
1
 40
1
 10
220.993074
 20
-27.499412
 30
0.0
 10
219.415128
 20
-26.588385
 30
0.0
 10
217.471019
 20
-26.588385
 30
0.0
 10
215.893073
 20
-27.499412
 30
0.0
  0
SPLINE
  5
44d
100
AcDbEntity
  8
0
 62
7
100
AcDbSpline
 70
8
 71
3
 72
8
 73
4
 74
0
 40
0
 40
0
 40
0
 40
0
 40
1
 40
1
 40
1
 40
1
 10
215.893073
 20
-27.499412
 30
0.0
 10
214.315127
 20
-28.410440
 30
0.0
 10
213.343072
 20
-30.094088
 30
0.0
 10
213.343072
 20
-31.916143
 30
0.0
  0
SPLINE
  5
44e
100
AcDbEntity
  8
0
 62
7
100
AcDbSpline
 70
8
 71
3
 72
8
 73
4
 74
0
 40
0
 40
0
 40
0
 40
0
 40
1
 40
1
 40
1
 40
1
 10
213.343072
 20
-31.916143
 30
0.0
 10
213.343072
 20
-33.738198
 30
0.0
 10
214.315127
 20
-35.421846
 30
0.0
 10
215.893073
 20
-36.332873
 30
0.0
  0
SPLINE
  5
44f
100
AcDbEntity
  8
0
 62
7
100
AcDbSpline
 70
8
 71
3
 72
8
 73
4
 74
0
 40
0
 40
0
 40
0
 40
0
 40
1
 40
1
 40
1
 40
1
 10
215.893073
 20
-36.332873
 30
0.0
 10
217.471019
 20
-37.243901
 30
0.0
 10
219.415128
 20
-37.243901
 30
0.0
 10
220.993074
 20
-36.332873
 30
0.0
  0
SPLINE
  5
450
100
AcDbEntity
  8
0
 62
7
100
AcDbSpline
 70
8
 71
3
 72
8
 73
4
 74
0
 40
0
 40
0
 40
0
 40
0
 40
1
 40
1
 40
1
 40
1
 10
220.993074
 20
-36.332873
 30
0.0
 10
222.571020
 20
-35.421846
 30
0.0
 10
223.543074
 20
-33.738198
 30
0.0
 10
223.543074
 20
-31.916143
 30
0.0
  0
LWPOLYLINE
  5
451
100
AcDbEntity
  8
0
 62
7
100
AcDbPolyline
 90
2
 70
1
 10
197.400988
 20
-15.699541
 30
0.0
 10
197.400988
 20
-15.699541
 30
0.0
  0
SPLINE
  5
452
100
AcDbEntity
  8
0
 62
7
100
AcDbSpline
 70
8
 71
3
 72
8
 73
4
 74
0
 40
0
 40
0
 40
0
 40
0
 40
1
 40
1
 40
1
 40
1
 10
236.923569
 20
10.603118
 30
0.0
 10
235.037678
 20
13.651973
 30
0.0
 10
232.829357
 20
16.489160
 30
0.0
 10
230.336700
 20
19.065738
 30
0.0
  0
LWPOLYLINE
  5
453
100
AcDbEntity
  8
0
 62
7
100
AcDbPolyline
 90
2
 70
1
 10
223.543074
 20
-31.916143
 30
0.0
 10
223.543074
 20
-31.916143
 30
0.0
  0
LWPOLYLINE
  5
454
100
AcDbEntity
  8
0
 62
7
100
AcDbPolyline
 90
2
 70
0
 10
210.052677
 20
-1.938978
 30
0.0
 10
230.336700
 20
19.065738
 30
0.0
  0
SPLINE
  5
455
100
AcDbEntity
  8
0
 62
7
100
AcDbSpline
 70
8
 71
3
 72
8
 73
4
 74
0
 40
0
 40
0
 40
0
 40
0
 40
1
 40
1
 40
1
 40
1
 10
227.890945
 20
21.427577
 30
0.0
 10
209.116709
 20
38.362591
 30
0.0
 10
180.654747
 20
38.617190
 30
0.0
 10
161.580565
 20
22.020738
 30
0.0
  0
SPLINE
  5
456
100
AcDbEntity
  8
0
 62
7
100
AcDbSpline
 70
8
 71
3
 72
8
 73
4
 74
0
 40
0
 40
0
 40
0
 40
0
 40
1
 40
1
 40
1
 40
1
 10
161.580565
 20
22.020738
 30
0.0
 10
142.506382
 20
5.424287
 30
0.0
 10
138.823509
 20
-22.799543
 30
0.0
 10
153.000246
 20
-43.734843
 30
0.0
  0
SPLINE
  5
457
100
AcDbEntity
  8
0
 62
7
100
AcDbSpline
 70
8
 71
3
 72
8
 73
4
 74
0
 40
0
 40
0
 40
0
 40
0
 40
1
 40
1
 40
1
 40
1
 10
153.000246
 20
-43.734843
 30
0.0
 10
167.176982
 20
-64.670143
 30
0.0
 10
194.751253
 20
-71.727604
 30
0.0
 10
217.242490
 20
-60.177241
 30
0.0
  0
SPLINE
  5
458
100
AcDbEntity
  8
0
 62
7
100
AcDbSpline
 70
8
 71
3
 72
8
 73
4
 74
0
 40
0
 40
0
 40
0
 40
0
 40
1
 40
1
 40
1
 40
1
 10
217.242490
 20
-60.177241
 30
0.0
 10
239.733727
 20
-48.626878
 30
0.0
 10
250.062897
 20
-22.104126
 30
0.0
 10
241.307281
 20
1.615187
 30
0.0
  0
SPLINE
  5
459
100
AcDbEntity
  8
0
 62
7
100
AcDbSpline
 70
8
 71
3
 72
8
 73
4
 74
0
 40
0
 40
0
 40
0
 40
0
 40
1
 40
1
 40
1
 40
1
 10
241.307281
 20
1.615187
 30
0.0
 10
243.785056
 20
2.828002
 30
0.0
 10
244.812392
 20
5.818445
 30
0.0
 10
243.603067
 20
8.297925
 30
0.0
  0
SPLINE
  5
45a
100
AcDbEntity
  8
0
 62
7
100
AcDbSpline
 70
8
 71
3
 72
8
 73
4
 74
0
 40
0
 40
0
 40
0
 40
0
 40
1
 40
1
 40
1
 40
1
 10
243.603067
 20
8.297925
 30
0.0
 10
242.393742
 20
10.777406
 30
0.0
 10
239.404749
 20
11.808951
 30
0.0
 10
236.923569
 20
10.603118
 30
0.0
  0
SPLINE
  5
45b
100
AcDbEntity
  8
0
 62
7
100
AcDbSpline
 70
8
 71
3
 72
8
 73
4
 74
0
 40
0
 40
0
 40
0
 40
0
 40
1
 40
1
 40
1
 40
1
 10
86.869530
 20
-15.699541
 30
0.0
 10
86.871142
 20
-14.626672
 30
0.0
 10
86.299698
 20
-13.634609
 30
0.0
 10
85.370834
 20
-13.097709
 30
0.0
  0
SPLINE
  5
45c
100
AcDbEntity
  8
0
 62
7
100
AcDbSpline
 70
8
 71
3
 72
8
 73
4
 74
0
 40
0
 40
0
 40
0
 40
0
 40
1
 40
1
 40
1
 40
1
 10
85.370834
 20
-13.097709
 30
0.0
 10
84.441970
 20
-12.560808
 30
0.0
 10
83.297096
 20
-12.560808
 30
0.0
 10
82.368232
 20
-13.097709
 30
0.0
  0
SPLINE
  5
45d
100
AcDbEntity
  8
0
 62
7
100
AcDbSpline
 70
8
 71
3
 72
8
 73
4
 74
0
 40
0
 40
0
 40
0
 40
0
 40
1
 40
1
 40
1
 40
1
 10
82.368232
 20
-13.097709
 30
0.0
 10
81.439367
 20
-13.634609
 30
0.0
 10
80.867924
 20
-14.626672
 30
0.0
 10
80.869536
 20
-15.699541
 30
0.0
  0
SPLINE
  5
45e
100
AcDbEntity
  8
0
 62
7
100
AcDbSpline
 70
8
 71
3
 72
8
 73
4
 74
0
 40
0
 40
0
 40
0
 40
0
 40
1
 40
1
 40
1
 40
1
 10
80.869536
 20
-15.699541
 30
0.0
 10
80.867924
 20
-16.772410
 30
0.0
 10
81.439367
 20
-17.764473
 30
0.0
 10
82.368232
 20
-18.301374
 30
0.0
  0
SPLINE
  5
45f
100
AcDbEntity
  8
0
 62
7
100
AcDbSpline
 70
8
 71
3
 72
8
 73
4
 74
0
 40
0
 40
0
 40
0
 40
0
 40
1
 40
1
 40
1
 40
1
 10
82.368232
 20
-18.301374
 30
0.0
 10
83.297096
 20
-18.838274
 30
0.0
 10
84.441970
 20
-18.838274
 30
0.0
 10
85.370834
 20
-18.301374
 30
0.0
  0
SPLINE
  5
460
100
AcDbEntity
  8
0
 62
7
100
AcDbSpline
 70
8
 71
3
 72
8
 73
4
 74
0
 40
0
 40
0
 40
0
 40
0
 40
1
 40
1
 40
1
 40
1
 10
85.370834
 20
-18.301374
 30
0.0
 10
86.299698
 20
-17.764473
 30
0.0
 10
86.871142
 20
-16.772410
 30
0.0
 10
86.869530
 20
-15.699541
 30
0.0
  0
LWPOLYLINE
  5
461
100
AcDbEntity
  8
0
 62
7
100
AcDbPolyline
 90
3
 70
0
 10
210.052677
 20
-1.938978
 30
0.0
 10
207.606923
 20
0.422855
 30
0.0
 10
227.890945
 20
21.427577
 30
0.0
  0
LWPOLYLINE
  5
462
100
AcDbEntity
  8
0
 62
7
100
AcDbPolyline
 90
2
 70
1
 10
86.869530
 20
-15.699541
 30
0.0
 10
86.869530
 20
-15.699541
 30
0.0
  0
LWPOLYLINE
  5
463
100
AcDbEntity
  8
0
 62
7
100
AcDbPolyline
 90
2
 70
0
 10
107.911623
 20
-31.916143
 30
0.0
 10
105.059740
 20
-36.144227
 30
0.0
  0
SPLINE
  5
464
100
AcDbEntity
  8
0
 62
7
100
AcDbSpline
 70
8
 71
3
 72
8
 73
4
 74
0
 40
0
 40
0
 40
0
 40
0
 40
1
 40
1
 40
1
 40
1
 10
105.059740
 20
-36.144227
 30
0.0
 10
106.769844
 20
-37.297707
 30
0.0
 10
109.006399
 20
-37.307466
 30
0.0
 10
110.726504
 20
-36.168953
 30
0.0
  0
SPLINE
  5
465
100
AcDbEntity
  8
0
 62
7
100
AcDbSpline
 70
8
 71
3
 72
8
 73
4
 74
0
 40
0
 40
0
 40
0
 40
0
 40
1
 40
1
 40
1
 40
1
 10
110.726504
 20
-36.168953
 30
0.0
 10
112.446609
 20
-35.030440
 30
0.0
 10
113.311517
 20
-32.967866
 30
0.0
 10
112.917922
 20
-30.943007
 30
0.0
  0
SPLINE
  5
466
100
AcDbEntity
  8
0
 62
7
100
AcDbSpline
 70
8
 71
3
 72
8
 73
4
 74
0
 40
0
 40
0
 40
0
 40
0
 40
1
 40
1
 40
1
 40
1
 10
112.917922
 20
-30.943007
 30
0.0
 10
112.524328
 20
-28.918147
 30
0.0
 10
110.949743
 20
-27.329764
 30
0.0
 10
108.928395
 20
-26.918519
 30
0.0
  0
SPLINE
  5
467
100
AcDbEntity
  8
0
 62
7
100
AcDbSpline
 70
8
 71
3
 72
8
 73
4
 74
0
 40
0
 40
0
 40
0
 40
0
 40
1
 40
1
 40
1
 40
1
 10
108.928395
 20
-26.918519
 30
0.0
 10
106.907047
 20
-26.507273
 30
0.0
 10
104.837005
 20
-27.354153
 30
0.0
 10
103.683528
 20
-29.064259
 30
0.0
  0
SPLINE
  5
468
100
AcDbEntity
  8
0
 62
7
100
AcDbSpline
 70
8
 71
3
 72
8
 73
4
 74
0
 40
0
 40
0
 40
0
 40
0
 40
1
 40
1
 40
1
 40
1
 10
63.665303
 20
30.036546
 30
0.0
 10
61.713608
 20
29.174369
 30
0.0
 10
59.819102
 20
28.188150
 30
0.0
 10
57.993404
 20
27.083937
 30
0.0
  0
LWPOLYLINE
  5
469
100
AcDbEntity
  8
0
 62
7
100
AcDbPolyline
 90
2
 70
0
 10
103.683528
 20
-29.064259
 30
0.0
 10
107.911623
 20
-31.916143
 30
0.0
  0
LWPOLYLINE
  5
46a
100
AcDbEntity
  8
0
 62
7
100
AcDbPolyline
 90
2
 70
0
 10
66.149045
 20
14.525358
 30
0.0
 10
57.993404
 20
27.083937
 30
0.0
  0
LWPOLYLINE
  5
46b
100
AcDbEntity
  8
0
 62
7
100
AcDbPolyline
 90
2
 70
0
 10
63.465298
 20
12.782523
 30
0.0
 10
66.149045
 20
14.525358
 30
0.0
  0
SPLINE
  5
46c
100
AcDbEntity
  8
0
 62
7
100
AcDbSpline
 70
8
 71
3
 72
8
 73
4
 74
0
 40
0
 40
0
 40
0
 40
0
 40
1
 40
1
 40
1
 40
1
 10
55.309657
 20
25.341096
 30
0.0
 10
53.558331
 20
24.122360
 30
0.0
 10
51.886811
 20
22.792772
 30
0.0
 10
50.305349
 20
21.360487
 30
0.0
  0
LWPOLYLINE
  5
46d
100
AcDbEntity
  8
0
 62
7
100
AcDbPolyline
 90
2
 70
0
 10
55.309657
 20
25.341096
 30
0.0
 10
63.465298
 20
12.782523
 30
0.0
  0
LWPOLYLINE
  5
46e
100
AcDbEntity
  8
0
 62
7
100
AcDbPolyline
 90
2
 70
0
 10
60.707439
 20
10.588810
 30
0.0
 10
50.305349
 20
21.360487
 30
0.0
  0
LWPOLYLINE
  5
46f
100
AcDbEntity
  8
0
 62
7
100
AcDbPolyline
 90
2
 70
0
 10
58.405550
 20
8.365915
 30
0.0
 10
60.707439
 20
10.588810
 30
0.0
  0
SPLINE
  5
470
100
AcDbEntity
  8
0
 62
7
100
AcDbSpline
 70
8
 71
3
 72
8
 73
4
 74
0
 40
0
 40
0
 40
0
 40
0
 40
1
 40
1
 40
1
 40
1
 10
48.003460
 20
19.137581
 30
0.0
 10
46.516858
 20
17.607071
 30
0.0
 10
45.129746
 20
15.982975
 30
0.0
 10
43.850633
 20
14.275253
 30
0.0
  0
LWPOLYLINE
  5
471
100
AcDbEntity
  8
0
 62
7
100
AcDbPolyline
 90
2
 70
0
 10
48.003460
 20
19.137581
 30
0.0
 10
58.405550
 20
8.365915
 30
0.0
  0
LWPOLYLINE
  5
472
100
AcDbEntity
  8
0
 62
7
100
AcDbPolyline
 90
2
 70
0
 10
56.116937
 20
5.686271
 30
0.0
 10
43.850633
 20
14.275253
 30
0.0
  0
LWPOLYLINE
  5
473
100
AcDbEntity
  8
0
 62
7
100
AcDbPolyline
 90
2
 70
0
 10
54.281493
 20
3.064991
 30
0.0
 10
56.116937
 20
5.686271
 30
0.0
  0
SPLINE
  5
474
100
AcDbEntity
  8
0
 62
7
100
AcDbSpline
 70
8
 71
3
 72
8
 73
4
 74
0
 40
0
 40
0
 40
0
 40
0
 40
1
 40
1
 40
1
 40
1
 10
42.015190
 20
11.653945
 30
0.0
 10
40.847935
 20
9.867897
 30
0.0
 10
39.796200
 20
8.008965
 30
0.0
 10
38.866437
 20
6.088551
 30
0.0
  0
LWPOLYLINE
  5
475
100
AcDbEntity
  8
0
 62
7
100
AcDbPolyline
 90
2
 70
0
 10
42.015190
 20
11.653945
 30
0.0
 10
54.281493
 20
3.064991
 30
0.0
  0
LWPOLYLINE
  5
476
100
AcDbEntity
  8
0
 62
7
100
AcDbPolyline
 90
2
 70
0
 10
52.546222
 20
-0.002087
 30
0.0
 10
38.866437
 20
6.088551
 30
0.0
  0
LWPOLYLINE
  5
477
100
AcDbEntity
  8
0
 62
7
100
AcDbPolyline
 90
2
 70
0
 10
51.244669
 20
-2.925430
 30
0.0
 10
52.546222
 20
-0.002087
 30
0.0
  0
SPLINE
  5
478
100
AcDbEntity
  8
0
 62
7
100
AcDbSpline
 70
8
 71
3
 72
8
 73
4
 74
0
 40
0
 40
0
 40
0
 40
0
 40
1
 40
1
 40
1
 40
1
 10
37.564878
 20
3.165208
 30
0.0
 10
36.759862
 20
1.189247
 30
0.0
 10
36.082152
 20
-0.836216
 30
0.0
 10
35.535904
 20
-2.898760
 30
0.0
  0
LWPOLYLINE
  5
479
100
AcDbEntity
  8
0
 62
7
100
AcDbPolyline
 90
2
 70
0
 10
37.564878
 20
3.165208
 30
0.0
 10
51.244669
 20
-2.925430
 30
0.0
  0
LWPOLYLINE
  5
47a
100
AcDbEntity
  8
0
 62
7
100
AcDbPolyline
 90
2
 70
0
 10
50.126505
 20
-6.267251
 30
0.0
 10
35.535904
 20
-2.898760
 30
0.0
  0
LWPOLYLINE
  5
47b
100
AcDbEntity
  8
0
 62
7
100
AcDbPolyline
 90
2
 70
0
 10
49.406663
 20
-9.385242
 30
0.0
 10
50.126505
 20
-6.267251
 30
0.0
  0
SPLINE
  5
47c
100
AcDbEntity
  8
0
 62
7
100
AcDbSpline
 70
8
 71
3
 72
8
 73
4
 74
0
 40
0
 40
0
 40
0
 40
0
 40
1
 40
1
 40
1
 40
1
 10
34.816062
 20
-6.016751
 30
0.0
 10
34.402869
 20
-8.110001
 30
0.0
 10
34.124086
 20
-10.227554
 30
0.0
 10
33.981424
 20
-12.356421
 30
0.0
  0
LWPOLYLINE
  5
47d
100
AcDbEntity
  8
0
 62
7
100
AcDbPolyline
 90
2
 70
0
 10
34.816062
 20
-6.016751
 30
0.0
 10
49.406663
 20
-9.385242
 30
0.0
  0
LWPOLYLINE
  5
47e
100
AcDbEntity
  8
0
 62
7
100
AcDbPolyline
 90
2
 70
0
 10
48.946697
 20
-12.879040
 30
0.0
 10
33.981424
 20
-12.356421
 30
0.0
  0
LWPOLYLINE
  5
47f
100
AcDbEntity
  8
0
 62
7
100
AcDbPolyline
 90
2
 70
0
 10
48.835016
 20
-16.077070
 30
0.0
 10
48.946697
 20
-12.879040
 30
0.0
  0
SPLINE
  5
480
100
AcDbEntity
  8
0
 62
7
100
AcDbSpline
 70
8
 71
3
 72
8
 73
4
 74
0
 40
0
 40
0
 40
0
 40
0
 40
1
 40
1
 40
1
 40
1
 10
33.869749
 20
-15.554479
 30
0.0
 10
33.804338
 20
-38.100117
 30
0.0
 10
48.835632
 20
-57.900672
 30
0.0
 10
70.569049
 20
-63.898057
 30
0.0
  0
SPLINE
  5
481
100
AcDbEntity
  8
0
 62
7
100
AcDbSpline
 70
8
 71
3
 72
8
 73
4
 74
0
 40
0
 40
0
 40
0
 40
0
 40
1
 40
1
 40
1
 40
1
 10
70.569049
 20
-63.898057
 30
0.0
 10
92.302467
 20
-69.895442
 30
0.0
 10
115.361231
 20
-60.605923
 30
0.0
 10
126.867631
 20
-41.217451
 30
0.0
  0
SPLINE
  5
482
100
AcDbEntity
  8
0
 62
7
100
AcDbSpline
 70
8
 71
3
 72
8
 73
4
 74
0
 40
0
 40
0
 40
0
 40
0
 40
1
 40
1
 40
1
 40
1
 10
126.867631
 20
-41.217451
 30
0.0
 10
138.374031
 20
-21.828980
 30
0.0
 10
135.481421
 20
2.861799
 30
0.0
 10
119.805247
 20
19.065738
 30
0.0
  0
LWPOLYLINE
  5
483
100
AcDbEntity
  8
0
 62
7
100
AcDbPolyline
 90
2
 70
0
 10
33.869749
 20
-15.554479
 30
0.0
 10
48.835016
 20
-16.077070
 30
0.0
  0
LWPOLYLINE
  5
484
100
AcDbEntity
  8
0
 62
7
100
AcDbPolyline
 90
2
 70
0
 10
104.175430
 20
2.880587
 30
0.0
 10
119.805247
 20
19.065738
 30
0.0
  0
LWPOLYLINE
  5
485
100
AcDbEntity
  8
0
 62
7
100
AcDbPolyline
 90
2
 70
0
 10
106.333454
 20
0.796630
 30
0.0
 10
104.175430
 20
2.880587
 30
0.0
  0
LWPOLYLINE
  5
486
100
AcDbEntity
  8
0
 62
7
100
AcDbPolyline
 90
2
 70
0
 10
105.708258
 20
0.149212
 30
0.0
 10
106.333454
 20
0.796630
 30
0.0
  0
LWPOLYLINE
  5
487
100
AcDbEntity
  8
0
 62
7
100
AcDbPolyline
 90
2
 70
0
 10
107.866282
 20
-1.934773
 30
0.0
 10
105.708258
 20
0.149212
 30
0.0
  0
LWPOLYLINE
  5
488
100
AcDbEntity
  8
0
 62
7
100
AcDbPolyline
 90
2
 70
0
 10
105.643375
 20
-4.236662
 30
0.0
 10
107.866282
 20
-1.934773
 30
0.0
  0
LWPOLYLINE
  5
489
100
AcDbEntity
  8
0
 62
7
100
AcDbPolyline
 90
2
 70
0
 10
103.485352
 20
-2.152677
 30
0.0
 10
105.643375
 20
-4.236662
 30
0.0
  0
LWPOLYLINE
  5
48a
100
AcDbEntity
  8
0
 62
7
100
AcDbPolyline
 90
2
 70
0
 10
102.860162
 20
-2.800095
 30
0.0
 10
103.485352
 20
-2.152677
 30
0.0
  0
LWPOLYLINE
  5
48b
100
AcDbEntity
  8
0
 62
7
100
AcDbPolyline
 90
2
 70
0
 10
100.702138
 20
-0.716109
 30
0.0
 10
102.860162
 20
-2.800095
 30
0.0
  0
LWPOLYLINE
  5
48c
100
AcDbEntity
  8
0
 62
7
100
AcDbPolyline
 90
2
 70
0
 10
99.521219
 20
-1.938978
 30
0.0
 10
100.702138
 20
-0.716109
 30
0.0
  0
LWPOLYLINE
  5
48d
100
AcDbEntity
  8
0
 62
7
100
AcDbPolyline
 90
3
 70
0
 10
99.521219
 20
-1.938978
 30
0.0
 10
97.075464
 20
0.422855
 30
0.0
 10
98.881579
 20
2.293142
 30
0.0
  0
LWPOLYLINE
  5
48e
100
AcDbEntity
  8
0
 62
7
100
AcDbPolyline
 90
2
 70
0
 10
96.723561
 20
4.377127
 30
0.0
 10
98.881579
 20
2.293142
 30
0.0
  0
LWPOLYLINE
  5
48f
100
AcDbEntity
  8
0
 62
7
100
AcDbPolyline
 90
2
 70
0
 10
98.946468
 20
6.678988
 30
0.0
 10
96.723561
 20
4.377127
 30
0.0
  0
LWPOLYLINE
  5
490
100
AcDbEntity
  8
0
 62
7
100
AcDbPolyline
 90
2
 70
0
 10
101.104486
 20
4.595031
 30
0.0
 10
98.946468
 20
6.678988
 30
0.0
  0
SPLINE
  5
491
100
AcDbEntity
  8
0
 62
7
100
AcDbSpline
 70
8
 71
3
 72
8
 73
4
 74
0
 40
0
 40
0
 40
0
 40
0
 40
1
 40
1
 40
1
 40
1
 10
117.359492
 20
21.427577
 30
0.0
 10
108.582297
 20
29.344915
 30
0.0
 10
97.283944
 20
33.896602
 30
0.0
 10
85.469532
 20
34.274857
 30
0.0
  0
LWPOLYLINE
  5
492
100
AcDbEntity
  8
0
 62
7
100
AcDbPolyline
 90
2
 70
0
 10
101.104486
 20
4.595031
 30
0.0
 10
117.359492
 20
21.427577
 30
0.0
  0
LWPOLYLINE
  5
493
100
AcDbEntity
  8
0
 62
7
100
AcDbPolyline
 90
2
 70
0
 10
85.469532
 20
19.300462
 30
0.0
 10
85.469532
 20
34.274857
 30
0.0
  0
LWPOLYLINE
  5
494
100
AcDbEntity
  8
0
 62
7
100
AcDbPolyline
 90
2
 70
0
 10
82.269539
 20
19.300462
 30
0.0
 10
85.469532
 20
19.300462
 30
0.0
  0
SPLINE
  5
495
100
AcDbEntity
  8
0
 62
7
100
AcDbSpline
 70
8
 71
3
 72
8
 73
4
 74
0
 40
0
 40
0
 40
0
 40
0
 40
1
 40
1
 40
1
 40
1
 10
82.269539
 20
34.274857
 30
0.0
 10
80.136981
 20
34.206581
 30
0.0
 10
78.010980
 20
34.001872
 30
0.0
 10
75.904575
 20
33.661984
 30
0.0
  0
LWPOLYLINE
  5
496
100
AcDbEntity
  8
0
 62
7
100
AcDbPolyline
 90
2
 70
0
 10
82.269539
 20
34.274857
 30
0.0
 10
82.269539
 20
19.300462
 30
0.0
  0
LWPOLYLINE
  5
497
100
AcDbEntity
  8
0
 62
7
100
AcDbPolyline
 90
2
 70
0
 10
78.761827
 20
18.962710
 30
0.0
 10
75.904575
 20
33.661984
 30
0.0
  0
LWPOLYLINE
  5
498
100
AcDbEntity
  8
0
 62
7
100
AcDbPolyline
 90
2
 70
0
 10
75.620620
 20
18.352122
 30
0.0
 10
78.761827
 20
18.962710
 30
0.0
  0
SPLINE
  5
499
100
AcDbEntity
  8
0
 62
7
100
AcDbSpline
 70
8
 71
3
 72
8
 73
4
 74
0
 40
0
 40
0
 40
0
 40
0
 40
1
 40
1
 40
1
 40
1
 10
72.763369
 20
33.051390
 30
0.0
 10
70.683021
 20
32.577457
 30
0.0
 10
68.635143
 20
31.970849
 30
0.0
 10
66.632294
 20
31.235284
 30
0.0
  0
LWPOLYLINE
  5
49a
100
AcDbEntity
  8
0
 62
7
100
AcDbPolyline
 90
2
 70
0
 10
72.763369
 20
33.051390
 30
0.0
 10
75.620620
 20
18.352122
 30
0.0
  0
LWPOLYLINE
  5
49b
100
AcDbEntity
  8
0
 62
7
100
AcDbPolyline
 90
2
 70
0
 10
72.241799
 20
17.351266
 30
0.0
 10
66.632294
 20
31.235284
 30
0.0
  0
LWPOLYLINE
  5
49c
100
AcDbEntity
  8
0
 62
7
100
AcDbPolyline
 90
2
 70
0
 10
69.274814
 20
16.152527
 30
0.0
 10
72.241799
 20
17.351266
 30
0.0
  0
LWPOLYLINE
  5
49d
100
AcDbEntity
  8
0
 62
7
100
AcDbPolyline
 90
2
 70
0
 10
63.665303
 20
30.036546
 30
0.0
 10
69.274814
 20
16.152527
 30
0.0
  0
LWPOLYLINE
  5
49e
100
AcDbEntity
  8
0
 62
7
100
AcDbPolyline
 90
4
 70
0
 10
-12.911885
 20
-14.064854
 30
0.0
 10
-13.897089
 20
-11.032714
 30
0.0
 10
-11.342854
 20
-9.778858
 30
0.0
 10
-8.933105
 20
-6.135623
 30
0.0
  0
LWPOLYLINE
  5
49f
100
AcDbEntity
  8
0
 62
7
100
AcDbPolyline
 90
2
 70
0
 10
-16.160410
 20
-7.917517
 30
0.0
 10
-18.739707
 20
-6.043562
 30
0.0
  0
LWPOLYLINE
  5
4a0
100
AcDbEntity
  8
0
 62
7
100
AcDbPolyline
 90
2
 70
0
 10
-19.278373
 20
1.380661
 30
0.0
 10
-21.998651
 20
-2.036966
 30
0.0
  0
SPLINE
  5
4a1
100
AcDbEntity
  8
0
 62
7
100
AcDbSpline
 70
8
 71
3
 72
8
 73
4
 74
0
 40
0
 40
0
 40
0
 40
0
 40
1
 40
1
 40
1
 40
1
 10
3.351814
 20
-28.323087
 30
0.0
 10
1.860413
 20
-27.053635
 30
0.0
 10
-0.226202
 20
-26.750376
 30
0.0
 10
-2.017262
 20
-27.542771
 30
0.0
  0
SPLINE
  5
4a2
100
AcDbEntity
  8
0
 62
7
100
AcDbSpline
 70
8
 71
3
 72
8
 73
4
 74
0
 40
0
 40
0
 40
0
 40
0
 40
1
 40
1
 40
1
 40
1
 10
-2.017262
 20
-27.542771
 30
0.0
 10
-3.808321
 20
-28.335165
 30
0.0
 10
-4.987400
 20
-30.083222
 30
0.0
 10
-5.051153
 20
-32.040699
 30
0.0
  0
SPLINE
  5
4a3
100
AcDbEntity
  8
0
 62
7
100
AcDbSpline
 70
8
 71
3
 72
8
 73
4
 74
0
 40
0
 40
0
 40
0
 40
0
 40
1
 40
1
 40
1
 40
1
 10
-5.051153
 20
-32.040699
 30
0.0
 10
-5.114906
 20
-33.998177
 30
0.0
 10
-4.052070
 20
-35.819250
 30
0.0
 10
-2.316366
 20
-36.726508
 30
0.0
  0
LWPOLYLINE
  5
4a4
100
AcDbEntity
  8
0
 62
7
100
AcDbPolyline
 90
4
 70
0
 10
-8.933105
 20
-25.844668
 30
0.0
 10
-11.342854
 20
-22.201433
 30
0.0
 10
-13.897089
 20
-20.947576
 30
0.0
 10
-12.911885
 20
-17.915437
 30
0.0
  0
LWPOLYLINE
  5
4a5
100
AcDbEntity
  8
0
 62
7
100
AcDbPolyline
 90
2
 70
0
 10
-18.739707
 20
-25.936729
 30
0.0
 10
-16.160410
 20
-24.062773
 30
0.0
  0
LWPOLYLINE
  5
4a6
100
AcDbEntity
  8
0
 62
7
100
AcDbPolyline
 90
2
 70
0
 10
-17.410276
 20
-28.452458
 30
0.0
 10
-18.739707
 20
-25.936729
 30
0.0
  0
LWPOLYLINE
  5
4a7
100
AcDbEntity
  8
0
 62
7
100
AcDbPolyline
 90
2
 70
0
 10
-17.602193
 20
-32.816319
 30
0.0
 10
-17.410276
 20
-28.452458
 30
0.0
  0
LWPOLYLINE
  5
4a8
100
AcDbEntity
  8
0
 62
7
100
AcDbPolyline
 90
2
 70
0
 10
-19.278373
 20
-33.360951
 30
0.0
 10
-17.602193
 20
-32.816319
 30
0.0
  0
LWPOLYLINE
  5
4a9
100
AcDbEntity
  8
0
 62
7
100
AcDbPolyline
 90
2
 70
0
 10
-21.998651
 20
-29.943325
 30
0.0
 10
-19.278373
 20
-33.360951
 30
0.0
  0
LWPOLYLINE
  5
4aa
100
AcDbEntity
  8
0
 62
7
100
AcDbPolyline
 90
2
 70
0
 10
-22.401833
 20
-27.126634
 30
0.0
 10
-21.998651
 20
-29.943325
 30
0.0
  0
LWPOLYLINE
  5
4ab
100
AcDbEntity
  8
0
 62
7
100
AcDbPolyline
 90
2
 70
0
 10
-25.590013
 20
-27.126634
 30
0.0
 10
-22.401833
 20
-27.126634
 30
0.0
  0
LWPOLYLINE
  5
4ac
100
AcDbEntity
  8
0
 62
7
100
AcDbPolyline
 90
2
 70
0
 10
-25.993190
 20
-29.943325
 30
0.0
 10
-25.590013
 20
-27.126634
 30
0.0
  0
LWPOLYLINE
  5
4ad
100
AcDbEntity
  8
0
 62
7
100
AcDbPolyline
 90
2
 70
0
 10
-28.713475
 20
-33.360951
 30
0.0
 10
-25.993190
 20
-29.943325
 30
0.0
  0
LWPOLYLINE
  5
4ae
100
AcDbEntity
  8
0
 62
7
100
AcDbPolyline
 90
2
 70
0
 10
-30.389644
 20
-32.816319
 30
0.0
 10
-28.713475
 20
-33.360951
 30
0.0
  0
LWPOLYLINE
  5
4af
100
AcDbEntity
  8
0
 62
7
100
AcDbPolyline
 90
2
 70
0
 10
-30.581566
 20
-28.452458
 30
0.0
 10
-30.389644
 20
-32.816319
 30
0.0
  0
LWPOLYLINE
  5
4b0
100
AcDbEntity
  8
0
 62
7
100
AcDbPolyline
 90
2
 70
0
 10
-29.252141
 20
-25.936729
 30
0.0
 10
-30.581566
 20
-28.452458
 30
0.0
  0
LWPOLYLINE
  5
4b1
100
AcDbEntity
  8
0
 62
7
100
AcDbPolyline
 90
2
 70
0
 10
-31.831432
 20
-24.062773
 30
0.0
 10
-29.252141
 20
-25.936729
 30
0.0
  0
LWPOLYLINE
  5
4b2
100
AcDbEntity
  8
0
 62
7
100
AcDbPolyline
 90
2
 70
0
 10
-33.813219
 20
-26.104538
 30
0.0
 10
-31.831432
 20
-24.062773
 30
0.0
  0
LWPOLYLINE
  5
4b3
100
AcDbEntity
  8
0
 62
7
100
AcDbPolyline
 90
2
 70
0
 10
-38.022801
 20
-27.270511
 30
0.0
 10
-33.813219
 20
-26.104538
 30
0.0
  0
LWPOLYLINE
  5
4b4
100
AcDbEntity
  8
0
 62
7
100
AcDbPolyline
 90
2
 70
0
 10
-39.058737
 20
-25.844668
 30
0.0
 10
-38.022801
 20
-27.270511
 30
0.0
  0
LWPOLYLINE
  5
4b5
100
AcDbEntity
  8
0
 62
7
100
AcDbPolyline
 90
2
 70
0
 10
-36.648988
 20
-22.201433
 30
0.0
 10
-39.058737
 20
-25.844668
 30
0.0
  0
LWPOLYLINE
  5
4b6
100
AcDbEntity
  8
0
 62
7
100
AcDbPolyline
 90
2
 70
0
 10
-34.094753
 20
-20.947576
 30
0.0
 10
-36.648988
 20
-22.201433
 30
0.0
  0
LWPOLYLINE
  5
4b7
100
AcDbEntity
  8
0
 62
7
100
AcDbPolyline
 90
2
 70
0
 10
-35.079951
 20
-17.915437
 30
0.0
 10
-34.094753
 20
-20.947576
 30
0.0
  0
LWPOLYLINE
  5
4b8
100
AcDbEntity
  8
0
 62
7
100
AcDbPolyline
 90
2
 70
0
 10
-37.883366
 20
-18.402383
 30
0.0
 10
-35.079951
 20
-17.915437
 30
0.0
  0
LWPOLYLINE
  5
4b9
100
AcDbEntity
  8
0
 62
7
100
AcDbPolyline
 90
2
 70
0
 10
-41.974341
 20
-16.871356
 30
0.0
 10
-37.883366
 20
-18.402383
 30
0.0
  0
LWPOLYLINE
  5
4ba
100
AcDbEntity
  8
0
 62
7
100
AcDbPolyline
 90
2
 70
0
 10
-41.974341
 20
-15.108935
 30
0.0
 10
-41.974341
 20
-16.871356
 30
0.0
  0
LWPOLYLINE
  5
4bb
100
AcDbEntity
  8
0
 62
7
100
AcDbPolyline
 90
2
 70
0
 10
-37.883366
 20
-13.577907
 30
0.0
 10
-41.974341
 20
-15.108935
 30
0.0
  0
LWPOLYLINE
  5
4bc
100
AcDbEntity
  8
0
 62
7
100
AcDbPolyline
 90
2
 70
0
 10
-35.079951
 20
-14.064854
 30
0.0
 10
-37.883366
 20
-13.577907
 30
0.0
  0
LWPOLYLINE
  5
4bd
100
AcDbEntity
  8
0
 62
7
100
AcDbPolyline
 90
2
 70
0
 10
-34.094753
 20
-11.032714
 30
0.0
 10
-35.079951
 20
-14.064854
 30
0.0
  0
LWPOLYLINE
  5
4be
100
AcDbEntity
  8
0
 62
7
100
AcDbPolyline
 90
2
 70
0
 10
-36.648988
 20
-9.778858
 30
0.0
 10
-34.094753
 20
-11.032714
 30
0.0
  0
LWPOLYLINE
  5
4bf
100
AcDbEntity
  8
0
 62
7
100
AcDbPolyline
 90
2
 70
0
 10
-39.058737
 20
-6.135623
 30
0.0
 10
-36.648988
 20
-9.778858
 30
0.0
  0
LWPOLYLINE
  5
4c0
100
AcDbEntity
  8
0
 62
7
100
AcDbPolyline
 90
2
 70
0
 10
-38.022801
 20
-4.709780
 30
0.0
 10
-39.058737
 20
-6.135623
 30
0.0
  0
LWPOLYLINE
  5
4c1
100
AcDbEntity
  8
0
 62
7
100
AcDbPolyline
 90
2
 70
0
 10
-33.813219
 20
-5.875752
 30
0.0
 10
-38.022801
 20
-4.709780
 30
0.0
  0
LWPOLYLINE
  5
4c2
100
AcDbEntity
  8
0
 62
7
100
AcDbPolyline
 90
2
 70
0
 10
-31.831432
 20
-7.917517
 30
0.0
 10
-33.813219
 20
-5.875752
 30
0.0
  0
LWPOLYLINE
  5
4c3
100
AcDbEntity
  8
0
 62
7
100
AcDbPolyline
 90
2
 70
0
 10
-29.252141
 20
-6.043562
 30
0.0
 10
-31.831432
 20
-7.917517
 30
0.0
  0
LWPOLYLINE
  5
4c4
100
AcDbEntity
  8
0
 62
7
100
AcDbPolyline
 90
2
 70
0
 10
-30.581566
 20
-3.527833
 30
0.0
 10
-29.252141
 20
-6.043562
 30
0.0
  0
LWPOLYLINE
  5
4c5
100
AcDbEntity
  8
0
 62
7
100
AcDbPolyline
 90
2
 70
0
 10
-30.389644
 20
0.836028
 30
0.0
 10
-30.581566
 20
-3.527833
 30
0.0
  0
LWPOLYLINE
  5
4c6
100
AcDbEntity
  8
0
 62
7
100
AcDbPolyline
 90
2
 70
0
 10
-28.713475
 20
1.380661
 30
0.0
 10
-30.389644
 20
0.836028
 30
0.0
  0
LWPOLYLINE
  5
4c7
100
AcDbEntity
  8
0
 62
7
100
AcDbPolyline
 90
2
 70
0
 10
-25.993190
 20
-2.036966
 30
0.0
 10
-28.713475
 20
1.380661
 30
0.0
  0
LWPOLYLINE
  5
4c8
100
AcDbEntity
  8
0
 62
7
100
AcDbPolyline
 90
2
 70
0
 10
-25.590013
 20
-4.853656
 30
0.0
 10
-25.993190
 20
-2.036966
 30
0.0
  0
LWPOLYLINE
  5
4c9
100
AcDbEntity
  8
0
 62
7
100
AcDbPolyline
 90
2
 70
0
 10
-22.401833
 20
-4.853656
 30
0.0
 10
-25.590013
 20
-4.853656
 30
0.0
  0
LWPOLYLINE
  5
4ca
100
AcDbEntity
  8
0
 62
7
100
AcDbPolyline
 90
2
 70
0
 10
-21.998651
 20
-2.036966
 30
0.0
 10
-22.401833
 20
-4.853656
 30
0.0
  0
LWPOLYLINE
  5
4cb
100
AcDbEntity
  8
0
 62
7
100
AcDbPolyline
 90
2
 70
0
 10
-5.005289
 20
-3.090699
 30
0.0
 10
-7.163307
 20
-1.006714
 30
0.0
  0
LWPOLYLINE
  5
4cc
100
AcDbEntity
  8
0
 62
7
100
AcDbPolyline
 90
2
 70
0
 10
-17.602193
 20
0.836028
 30
0.0
 10
-19.278373
 20
1.380661
 30
0.0
  0
LWPOLYLINE
  5
4cd
100
AcDbEntity
  8
0
 62
7
100
AcDbPolyline
 90
2
 70
0
 10
-17.410276
 20
-3.527833
 30
0.0
 10
-17.602193
 20
0.836028
 30
0.0
  0
LWPOLYLINE
  5
4ce
100
AcDbEntity
  8
0
 62
7
100
AcDbPolyline
 90
2
 70
0
 10
-18.739707
 20
-6.043562
 30
0.0
 10
-17.410276
 20
-3.527833
 30
0.0
  0
LWPOLYLINE
  5
4cf
100
AcDbEntity
  8
0
 62
7
100
AcDbPolyline
 90
2
 70
0
 10
-0.032607
 20
2.058671
 30
0.0
 10
-5.005289
 20
-3.090699
 30
0.0
  0
LWPOLYLINE
  5
4d0
100
AcDbEntity
  8
0
 62
7
100
AcDbPolyline
 90
2
 70
0
 10
-14.178623
 20
-5.875752
 30
0.0
 10
-16.160410
 20
-7.917517
 30
0.0
  0
LWPOLYLINE
  5
4d1
100
AcDbEntity
  8
0
 62
7
100
AcDbPolyline
 90
2
 70
0
 10
-9.969041
 20
-4.709780
 30
0.0
 10
-14.178623
 20
-5.875752
 30
0.0
  0
LWPOLYLINE
  5
4d2
100
AcDbEntity
  8
0
 62
7
100
AcDbPolyline
 90
2
 70
0
 10
-8.933105
 20
-6.135623
 30
0.0
 10
-9.969041
 20
-4.709780
 30
0.0
  0
LWPOLYLINE
  5
4d3
100
AcDbEntity
  8
0
 62
7
100
AcDbPolyline
 90
2
 70
0
 10
-10.789981
 20
0.132251
 30
0.0
 10
-4.412532
 20
6.736307
 30
0.0
  0
LWPOLYLINE
  5
4d4
100
AcDbEntity
  8
0
 62
7
100
AcDbPolyline
 90
2
 70
0
 10
-8.344226
 20
-2.229582
 30
0.0
 10
-10.789981
 20
0.132251
 30
0.0
  0
LWPOLYLINE
  5
4d5
100
AcDbEntity
  8
0
 62
7
100
AcDbPolyline
 90
2
 70
0
 10
-7.163307
 20
-1.006714
 30
0.0
 10
-8.344226
 20
-2.229582
 30
0.0
  0
LWPOLYLINE
  5
4d6
100
AcDbEntity
  8
0
 62
7
100
AcDbPolyline
 90
2
 70
0
 10
-10.108476
 20
-13.577907
 30
0.0
 10
-12.911885
 20
-14.064854
 30
0.0
  0
LWPOLYLINE
  5
4d7
100
AcDbEntity
  8
0
 62
7
100
AcDbPolyline
 90
2
 70
0
 10
-6.017501
 20
-15.108935
 30
0.0
 10
-10.108476
 20
-13.577907
 30
0.0
  0
LWPOLYLINE
  5
4d8
100
AcDbEntity
  8
0
 62
7
100
AcDbPolyline
 90
2
 70
0
 10
-6.017501
 20
-16.871356
 30
0.0
 10
-6.017501
 20
-15.108935
 30
0.0
  0
LWPOLYLINE
  5
4d9
100
AcDbEntity
  8
0
 62
7
100
AcDbPolyline
 90
2
 70
0
 10
-10.108476
 20
-18.402383
 30
0.0
 10
-6.017501
 20
-16.871356
 30
0.0
  0
SPLINE
  5
4da
100
AcDbEntity
  8
0
 62
7
100
AcDbSpline
 70
8
 71
3
 72
8
 73
4
 74
0
 40
0
 40
0
 40
0
 40
0
 40
1
 40
1
 40
1
 40
1
 10
3.351814
 20
-28.323087
 30
0.0
 10
7.855018
 20
-18.337440
 30
0.0
 10
6.557668
 20
-6.691201
 30
0.0
 10
-0.032607
 20
2.058671
 30
0.0
  0
SPLINE
  5
4db
100
AcDbEntity
  8
0
 62
7
100
AcDbSpline
 70
8
 71
3
 72
8
 73
4
 74
0
 40
0
 40
0
 40
0
 40
0
 40
1
 40
1
 40
1
 40
1
 10
-4.412532
 20
6.736307
 30
0.0
 10
-16.810678
 20
17.419793
 30
0.0
 10
-35.483621
 20
16.195009
 30
0.0
 10
-46.380059
 20
3.983598
 30
0.0
  0
SPLINE
  5
4dc
100
AcDbEntity
  8
0
 62
7
100
AcDbSpline
 70
8
 71
3
 72
8
 73
4
 74
0
 40
0
 40
0
 40
0
 40
0
 40
1
 40
1
 40
1
 40
1
 10
-46.380059
 20
3.983598
 30
0.0
 10
-57.276496
 20
-8.227813
 30
0.0
 10
-56.375033
 20
-26.919154
 30
0.0
 10
-44.354014
 20
-38.025280
 30
0.0
  0
SPLINE
  5
4dd
100
AcDbEntity
  8
0
 62
7
100
AcDbSpline
 70
8
 71
3
 72
8
 73
4
 74
0
 40
0
 40
0
 40
0
 40
0
 40
1
 40
1
 40
1
 40
1
 10
-44.354014
 20
-38.025280
 30
0.0
 10
-32.332996
 20
-49.131406
 30
0.0
 10
-13.628854
 20
-48.553533
 30
0.0
 10
-2.316366
 20
-36.726508
 30
0.0
  0
LWPOLYLINE
  5
4de
100
AcDbEntity
  8
0
 62
7
100
AcDbPolyline
 90
2
 70
0
 10
-12.911885
 20
-17.915437
 30
0.0
 10
-10.108476
 20
-18.402383
 30
0.0
  0
LWPOLYLINE
  5
4df
100
AcDbEntity
  8
0
 62
7
100
AcDbPolyline
 90
2
 70
0
 10
-9.969041
 20
-27.270511
 30
0.0
 10
-8.933105
 20
-25.844668
 30
0.0
  0
LWPOLYLINE
  5
4e0
100
AcDbEntity
  8
0
 62
7
100
AcDbPolyline
 90
2
 70
0
 10
-14.178623
 20
-26.104538
 30
0.0
 10
-9.969041
 20
-27.270511
 30
0.0
  0
LWPOLYLINE
  5
4e1
100
AcDbEntity
  8
0
 62
7
100
AcDbPolyline
 90
2
 70
0
 10
-16.160410
 20
-24.062773
 30
0.0
 10
-14.178623
 20
-26.104538
 30
0.0
  0
SPLINE
  5
4e2
100
AcDbEntity
  8
0
 62
7
100
AcDbSpline
 70
8
 71
3
 72
8
 73
4
 74
0
 40
0
 40
0
 40
0
 40
0
 40
1
 40
1
 40
1
 40
1
 10
-20.995921
 20
-15.990145
 30
0.0
 10
-20.995263
 20
-14.917910
 30
0.0
 10
-21.566916
 20
-13.926843
 30
0.0
 10
-22.495389
 20
-13.390535
 30
0.0
  0
SPLINE
  5
4e3
100
AcDbEntity
  8
0
 62
7
100
AcDbSpline
 70
8
 71
3
 72
8
 73
4
 74
0
 40
0
 40
0
 40
0
 40
0
 40
1
 40
1
 40
1
 40
1
 10
-22.495389
 20
-13.390535
 30
0.0
 10
-23.423862
 20
-12.854228
 30
0.0
 10
-24.567979
 20
-12.854228
 30
0.0
 10
-25.496452
 20
-13.390535
 30
0.0
  0
SPLINE
  5
4e4
100
AcDbEntity
  8
0
 62
7
100
AcDbSpline
 70
8
 71
3
 72
8
 73
4
 74
0
 40
0
 40
0
 40
0
 40
0
 40
1
 40
1
 40
1
 40
1
 10
-25.496452
 20
-13.390535
 30
0.0
 10
-26.424925
 20
-13.926843
 30
0.0
 10
-26.996578
 20
-14.917910
 30
0.0
 10
-26.995920
 20
-15.990145
 30
0.0
  0
SPLINE
  5
4e5
100
AcDbEntity
  8
0
 62
7
100
AcDbSpline
 70
8
 71
3
 72
8
 73
4
 74
0
 40
0
 40
0
 40
0
 40
0
 40
1
 40
1
 40
1
 40
1
 10
-26.995920
 20
-15.990145
 30
0.0
 10
-26.996578
 20
-17.062380
 30
0.0
 10
-26.424925
 20
-18.053448
 30
0.0
 10
-25.496452
 20
-18.589755
 30
0.0
  0
SPLINE
  5
4e6
100
AcDbEntity
  8
0
 62
7
100
AcDbSpline
 70
8
 71
3
 72
8
 73
4
 74
0
 40
0
 40
0
 40
0
 40
0
 40
1
 40
1
 40
1
 40
1
 10
-25.496452
 20
-18.589755
 30
0.0
 10
-24.567979
 20
-19.126063
 30
0.0
 10
-23.423862
 20
-19.126063
 30
0.0
 10
-22.495389
 20
-18.589755
 30
0.0
  0
SPLINE
  5
4e7
100
AcDbEntity
  8
0
 62
7
100
AcDbSpline
 70
8
 71
3
 72
8
 73
4
 74
0
 40
0
 40
0
 40
0
 40
0
 40
1
 40
1
 40
1
 40
1
 10
-22.495389
 20
-18.589755
 30
0.0
 10
-21.566916
 20
-18.053448
 30
0.0
 10
-20.995263
 20
-17.062380
 30
0.0
 10
-20.995921
 20
-15.990145
 30
0.0
  0
LWPOLYLINE
  5
4e8
100
AcDbEntity
  8
0
 62
7
100
AcDbPolyline
 90
2
 70
0
 10
-2.316366
 20
-36.726508
 30
0.0
 10
-1.884154
 20
-36.927309
 30
0.0
  0
LWPOLYLINE
  5
4e9
100
AcDbEntity
  8
0
 62
7
100
AcDbPolyline
 90
2
 70
1
 10
-20.995921
 20
-15.990145
 30
0.0
 10
-20.995921
 20
-15.990145
 30
0.0
  0
SPLINE
  5
4ea
100
AcDbEntity
  8
0
 62
7
100
AcDbSpline
 70
8
 71
3
 72
8
 73
4
 74
0
 40
0
 40
0
 40
0
 40
0
 40
1
 40
1
 40
1
 40
1
 10
-19.048271
 20
-49.136807
 30
0.0
 10
-17.707316
 20
-48.228031
 30
0.0
 10
-16.877832
 20
-46.736259
 30
0.0
 10
-16.813461
 20
-45.117652
 30
0.0
  0
LWPOLYLINE
  5
4eb
100
AcDbEntity
  8
0
 62
7
100
AcDbPolyline
 90
2
 70
0
 10
-19.048271
 20
-49.136807
 30
0.0
 10
-21.265200
 20
-45.865597
 30
0.0
  0
SPLINE
  5
4ec
100
AcDbEntity
  8
0
 62
7
100
AcDbSpline
 70
8
 71
3
 72
8
 73
4
 74
0
 40
0
 40
0
 40
0
 40
0
 40
1
 40
1
 40
1
 40
1
 10
-12.814490
 20
-47.583738
 30
0.0
 10
-11.671584
 20
-46.435798
 30
0.0
 10
-11.141984
 20
-44.813174
 30
0.0
 10
-11.387631
 20
-43.212031
 30
0.0
  0
LWPOLYLINE
  5
4ed
100
AcDbEntity
  8
0
 62
7
100
AcDbPolyline
 90
2
 70
0
 10
-12.814491
 20
-47.583738
 30
0.0
 10
-15.614857
 20
-44.795664
 30
0.0
  0
SPLINE
  5
4ee
100
AcDbEntity
  8
0
 62
7
100
AcDbSpline
 70
8
 71
3
 72
8
 73
4
 74
0
 40
0
 40
0
 40
0
 40
0
 40
1
 40
1
 40
1
 40
1
 10
-6.991580
 20
-44.869776
 30
0.0
 10
-6.088699
 20
-43.524843
 30
0.0
 10
-5.878441
 20
-41.830964
 30
0.0
 10
-6.425098
 20
-40.306102
 30
0.0
  0
LWPOLYLINE
  5
4ef
100
AcDbEntity
  8
0
 62
7
100
AcDbPolyline
 90
2
 70
0
 10
-6.991580
 20
-44.869776
 30
0.0
 10
-10.272487
 20
-42.667229
 30
0.0
  0
SPLINE
  5
4f0
100
AcDbEntity
  8
0
 62
7
100
AcDbSpline
 70
8
 71
3
 72
8
 73
4
 74
0
 40
0
 40
0
 40
0
 40
0
 40
1
 40
1
 40
1
 40
1
 10
-1.793504
 20
-41.094602
 30
0.0
 10
-1.163837
 20
-39.602101
 30
0.0
 10
-1.280649
 20
-37.899224
 30
0.0
 10
-2.108221
 20
-36.506685
 30
0.0
  0
LWPOLYLINE
  5
4f1
100
AcDbEntity
  8
0
 62
7
100
AcDbPolyline
 90
2
 70
0
 10
-1.793504
 20
-41.094574
 30
0.0
 10
-5.434396
 20
-39.558551
 30
0.0
  0
SPLINE
  5
4f2
100
AcDbEntity
  8
0
 62
7
100
AcDbSpline
 70
8
 71
3
 72
8
 73
4
 74
0
 40
0
 40
0
 40
0
 40
0
 40
1
 40
1
 40
1
 40
1
 10
2.588730
 20
-36.396929
 30
0.0
 10
2.922042
 20
-34.811708
 30
0.0
 10
2.482454
 20
-33.162412
 30
0.0
 10
1.404384
 20
-31.953368
 30
0.0
  0
SPLINE
  5
4f3
100
AcDbEntity
  8
0
 62
7
100
AcDbSpline
 70
8
 71
3
 72
8
 73
4
 74
0
 40
0
 40
0
 40
0
 40
0
 40
1
 40
1
 40
1
 40
1
 10
1.404384
 20
-31.953368
 30
0.0
 10
1.624541
 20
-31.603065
 30
0.0
 10
1.837427
 20
-31.248245
 30
0.0
 10
2.042906
 20
-30.889136
 30
0.0
  0
LWPOLYLINE
  5
4f4
100
AcDbEntity
  8
0
 62
7
100
AcDbPolyline
 90
2
 70
0
 10
2.588730
 20
-36.396929
 30
0.0
 10
-1.278358
 20
-35.583818
 30
0.0
  0
SPLINE
  5
4f5
100
AcDbEntity
  8
0
 62
7
100
AcDbSpline
 70
8
 71
3
 72
8
 73
4
 74
0
 40
0
 40
0
 40
0
 40
0
 40
1
 40
1
 40
1
 40
1
 10
5.994091
 20
-30.949419
 30
0.0
 10
6.018806
 20
-29.329723
 30
0.0
 10
5.272595
 20
-27.794607
 30
0.0
 10
3.983636
 20
-26.813480
 30
0.0
  0
SPLINE
  5
4f6
100
AcDbEntity
  8
0
 62
7
100
AcDbSpline
 70
8
 71
3
 72
8
 73
4
 74
0
 40
0
 40
0
 40
0
 40
0
 40
1
 40
1
 40
1
 40
1
 10
8.297453
 20
-24.952197
 30
0.0
 10
8.012655
 20
-23.357553
 30
0.0
 10
6.987241
 20
-21.993036
 30
0.0
 10
5.534763
 20
-21.275885
 30
0.0
  0
SPLINE
  5
4f7
100
AcDbEntity
  8
0
 62
7
100
AcDbSpline
 70
8
 71
3
 72
8
 73
4
 74
0
 40
0
 40
0
 40
0
 40
0
 40
1
 40
1
 40
1
 40
1
 10
5.534763
 20
-21.275885
 30
0.0
 10
5.607662
 20
-20.868605
 30
0.0
 10
5.672128
 20
-20.459859
 30
0.0
 10
5.728119
 20
-20.049912
 30
0.0
  0
SPLINE
  5
4f8
100
AcDbEntity
  8
0
 62
7
100
AcDbSpline
 70
8
 71
3
 72
8
 73
4
 74
0
 40
0
 40
0
 40
0
 40
0
 40
1
 40
1
 40
1
 40
1
 10
6.000768
 20
-15.544037
 30
0.0
 10
5.772069
 20
-0.166443
 30
0.0
 10
-6.048285
 20
12.547633
 30
0.0
 10
-21.368483
 20
13.894567
 30
0.0
  0
SPLINE
  5
4f9
100
AcDbEntity
  8
0
 62
7
100
AcDbSpline
 70
8
 71
3
 72
8
 73
4
 74
0
 40
0
 40
0
 40
0
 40
0
 40
1
 40
1
 40
1
 40
1
 10
-21.368483
 20
13.894567
 30
0.0
 10
-36.688680
 20
15.241502
 30
0.0
 10
-50.546166
 20
4.784993
 30
0.0
 10
-53.454578
 20
-10.316789
 30
0.0
  0
SPLINE
  5
4fa
100
AcDbEntity
  8
0
 62
7
100
AcDbSpline
 70
8
 71
3
 72
8
 73
4
 74
0
 40
0
 40
0
 40
0
 40
0
 40
1
 40
1
 40
1
 40
1
 10
-53.454578
 20
-10.316789
 30
0.0
 10
-56.362989
 20
-25.418572
 30
0.0
 10
-47.380227
 20
-40.273822
 30
0.0
 10
-32.655583
 20
-44.713143
 30
0.0
  0
LWPOLYLINE
  5
4fb
100
AcDbEntity
  8
0
 62
7
100
AcDbPolyline
 90
2
 70
0
 10
5.994091
 20
-30.949419
 30
0.0
 10
2.042906
 20
-30.889136
 30
0.0
  0
SPLINE
  5
4fc
100
AcDbEntity
  8
0
 62
7
100
AcDbSpline
 70
8
 71
3
 72
8
 73
4
 74
0
 40
0
 40
0
 40
0
 40
0
 40
1
 40
1
 40
1
 40
1
 10
-31.825500
 20
-48.576624
 30
0.0
 10
-30.241755
 20
-48.236347
 30
0.0
 10
-28.913845
 20
-47.163925
 30
0.0
 10
-28.247825
 20
-45.687289
 30
0.0
  0
SPLINE
  5
4fd
100
AcDbEntity
  8
0
 62
7
100
AcDbSpline
 70
8
 71
3
 72
8
 73
4
 74
0
 40
0
 40
0
 40
0
 40
0
 40
1
 40
1
 40
1
 40
1
 10
-28.247825
 20
-45.687289
 30
0.0
 10
-27.838256
 20
-45.745930
 30
0.0
 10
-27.427517
 20
-45.796092
 30
0.0
 10
-27.015873
 20
-45.837742
 30
0.0
  0
LWPOLYLINE
  5
4fe
100
AcDbEntity
  8
0
 62
7
100
AcDbPolyline
 90
2
 70
0
 10
-31.825500
 20
-48.576624
 30
0.0
 10
-32.655583
 20
-44.713143
 30
0.0
  0
SPLINE
  5
4ff
100
AcDbEntity
  8
0
 62
7
100
AcDbSpline
 70
8
 71
3
 72
8
 73
4
 74
0
 40
0
 40
0
 40
0
 40
0
 40
1
 40
1
 40
1
 40
1
 10
-25.463854
 20
-49.471861
 30
0.0
 10
-23.974139
 20
-48.835645
 30
0.0
 10
-22.875256
 20
-47.529556
 30
0.0
 10
-22.503225
 20
-45.952973
 30
0.0
  0
SPLINE
  5
500
100
AcDbEntity
  8
0
 62
7
100
AcDbSpline
 70
8
 71
3
 72
8
 73
4
 74
0
 40
0
 40
0
 40
0
 40
0
 40
1
 40
1
 40
1
 40
1
 10
5.482134
 20
-56.376343
 30
0.0
 10
27.101703
 20
-40.596124
 30
0.0
 10
32.459808
 20
-10.589093
 30
0.0
 10
17.637640
 20
11.698223
 30
0.0
  0
SPLINE
  5
501
100
AcDbEntity
  8
0
 62
7
100
AcDbSpline
 70
8
 71
3
 72
8
 73
4
 74
0
 40
0
 40
0
 40
0
 40
0
 40
1
 40
1
 40
1
 40
1
 10
17.637640
 20
11.698223
 30
0.0
 10
2.815473
 20
33.985538
 30
0.0
 10
-26.929280
 20
40.647432
 30
0.0
 10
-49.841917
 20
26.811531
 30
0.0
  0
SPLINE
  5
502
100
AcDbEntity
  8
0
 62
7
100
AcDbSpline
 70
8
 71
3
 72
8
 73
4
 74
0
 40
0
 40
0
 40
0
 40
0
 40
1
 40
1
 40
1
 40
1
 10
-49.841917
 20
26.811531
 30
0.0
 10
-72.754554
 20
12.975630
 30
0.0
 10
-80.707555
 20
-16.450225
 30
0.0
 10
-67.884258
 20
-39.944568
 30
0.0
  0
SPLINE
  5
503
100
AcDbEntity
  8
0
 62
7
100
AcDbSpline
 70
8
 71
3
 72
8
 73
4
 74
0
 40
0
 40
0
 40
0
 40
0
 40
1
 40
1
 40
1
 40
1
 10
-67.884258
 20
-39.944568
 30
0.0
 10
-55.060961
 20
-63.438911
 30
0.0
 10
-26.010019
 20
-72.667880
 30
0.0
 10
-1.978693
 20
-60.881597
 30
0.0
  0
LWPOLYLINE
  5
504
100
AcDbEntity
  8
0
 62
7
100
AcDbPolyline
 90
2
 70
0
 10
-25.463854
 20
-49.471861
 30
0.0
 10
-27.015873
 20
-45.837742
 30
0.0
  0
SPLINE
  5
505
100
AcDbEntity
  8
0
 62
7
100
AcDbSpline
 70
8
 71
3
 72
8
 73
4
 74
0
 40
0
 40
0
 40
0
 40
0
 40
1
 40
1
 40
1
 40
1
 10
6.730437
 20
-61.606937
 30
0.0
 10
7.181235
 20
-61.303291
 30
0.0
 10
7.489035
 20
-60.829250
 30
0.0
 10
7.583001
 20
-60.293910
 30
0.0
  0
SPLINE
  5
506
100
AcDbEntity
  8
0
 62
7
100
AcDbSpline
 70
8
 71
3
 72
8
 73
4
 74
0
 40
0
 40
0
 40
0
 40
0
 40
1
 40
1
 40
1
 40
1
 10
7.583001
 20
-60.293910
 30
0.0
 10
7.676967
 20
-59.758569
 30
0.0
 10
7.549005
 20
-59.208041
 30
0.0
 10
7.228565
 20
-58.769023
 30
0.0
  0
SPLINE
  5
507
100
AcDbEntity
  8
0
 62
7
100
AcDbSpline
 70
8
 71
3
 72
8
 73
4
 74
0
 40
0
 40
0
 40
0
 40
0
 40
1
 40
1
 40
1
 40
1
 10
2.069198
 20
-64.421624
 30
0.0
 10
3.668464
 20
-63.560930
 30
0.0
 10
5.224116
 20
-62.621550
 30
0.0
 10
6.730437
 20
-61.606937
 30
0.0
  0
SPLINE
  5
508
100
AcDbEntity
  8
0
 62
7
100
AcDbSpline
 70
8
 71
3
 72
8
 73
4
 74
0
 40
0
 40
0
 40
0
 40
0
 40
1
 40
1
 40
1
 40
1
 10
-0.674278
 20
-63.541175
 30
0.0
 10
-0.434939
 20
-64.029165
 30
0.0
 10
-0.007298
 20
-64.398728
 30
0.0
 10
0.510228
 20
-64.564815
 30
0.0
  0
SPLINE
  5
509
100
AcDbEntity
  8
0
 62
7
100
AcDbSpline
 70
8
 71
3
 72
8
 73
4
 74
0
 40
0
 40
0
 40
0
 40
0
 40
1
 40
1
 40
1
 40
1
 10
0.510228
 20
-64.564815
 30
0.0
 10
1.027753
 20
-64.730902
 30
0.0
 10
1.590586
 20
-64.679205
 30
0.0
 10
2.069198
 20
-64.421624
 30
0.0
  0
LWPOLYLINE
  5
50a
100
AcDbEntity
  8
0
 62
7
100
AcDbPolyline
 90
2
 70
0
 10
5.482134
 20
-56.376343
 30
0.0
 10
7.228565
 20
-58.769023
 30
0.0
  0
SPLINE
  5
50b
100
AcDbEntity
  8
0
 62
7
100
AcDbSpline
 70
8
 71
3
 72
8
 73
4
 74
0
 40
0
 40
0
 40
0
 40
0
 40
1
 40
1
 40
1
 40
1
 10
-40.485596
 20
19.772174
 30
0.0
 10
-41.009809
 20
19.968375
 30
0.0
 10
-41.592253
 20
19.935928
 30
0.0
 10
-42.091429
 20
19.682715
 30
0.0
  0
LWPOLYLINE
  5
50c
100
AcDbEntity
  8
0
 62
7
100
AcDbPolyline
 90
2
 70
0
 10
-0.674278
 20
-63.541175
 30
0.0
 10
-1.978693
 20
-60.881597
 30
0.0
  0
SPLINE
  5
50d
100
AcDbEntity
  8
0
 62
7
100
AcDbSpline
 70
8
 71
3
 72
8
 73
4
 74
0
 40
0
 40
0
 40
0
 40
0
 40
1
 40
1
 40
1
 40
1
 10
10.346279
 20
-9.236370
 30
0.0
 10
8.432201
 20
0.496510
 30
0.0
 10
2.478172
 20
8.960111
 30
0.0
 10
-6.035536
 20
14.050241
 30
0.0
  0
SPLINE
  5
50e
100
AcDbEntity
  8
0
 62
7
100
AcDbSpline
 70
8
 71
3
 72
8
 73
4
 74
0
 40
0
 40
0
 40
0
 40
0
 40
1
 40
1
 40
1
 40
1
 10
-6.035536
 20
14.050241
 30
0.0
 10
-14.549244
 20
19.140372
 30
0.0
 10
-24.822948
 20
20.378920
 30
0.0
 10
-34.302435
 20
17.457963
 30
0.0
  0
SPLINE
  5
50f
100
AcDbEntity
  8
0
 62
7
100
AcDbSpline
 70
8
 71
3
 72
8
 73
4
 74
0
 40
0
 40
0
 40
0
 40
0
 40
1
 40
1
 40
1
 40
1
 10
15.252312
 20
-8.271537
 30
0.0
 10
13.143201
 20
2.453055
 30
0.0
 10
6.737348
 20
11.847460
 30
0.0
 10
-2.476081
 20
17.727762
 30
0.0
  0
SPLINE
  5
510
100
AcDbEntity
  8
0
 62
7
100
AcDbSpline
 70
8
 71
3
 72
8
 73
4
 74
0
 40
0
 40
0
 40
0
 40
0
 40
1
 40
1
 40
1
 40
1
 10
-2.476081
 20
17.727762
 30
0.0
 10
-11.689510
 20
23.608064
 30
0.0
 10
-22.907917
 20
25.462020
 30
0.0
 10
-33.523360
 20
22.858641
 30
0.0
  0
SPLINE
  5
511
100
AcDbEntity
  8
0
 62
7
100
AcDbSpline
 70
8
 71
3
 72
8
 73
4
 74
0
 40
0
 40
0
 40
0
 40
0
 40
1
 40
1
 40
1
 40
1
 10
-34.666953
 20
22.915661
 30
0.0
 10
-34.299459
 20
22.785610
 30
0.0
 10
-33.901969
 20
22.765791
 30
0.0
 10
-33.523360
 20
22.858641
 30
0.0
  0
LWPOLYLINE
  5
512
100
AcDbEntity
  8
0
 62
7
100
AcDbPolyline
 90
2
 70
0
 10
-34.302435
 20
17.457963
 30
0.0
 10
-40.485596
 20
19.772174
 30
0.0
  0
SPLINE
  5
513
100
AcDbEntity
  8
0
 62
7
100
AcDbSpline
 70
8
 71
3
 72
8
 73
4
 74
0
 40
0
 40
0
 40
0
 40
0
 40
1
 40
1
 40
1
 40
1
 10
3.983636
 20
-26.813480
 30
0.0
 10
4.132906
 20
-26.427598
 30
0.0
 10
4.274177
 20
-26.038669
 30
0.0
 10
4.407359
 20
-25.646943
 30
0.0
  0
SPLINE
  5
514
100
AcDbEntity
  8
0
 62
7
100
AcDbSpline
 70
8
 71
3
 72
8
 73
4
 74
0
 40
0
 40
0
 40
0
 40
0
 40
1
 40
1
 40
1
 40
1
 10
-6.425098
 20
-40.306102
 30
0.0
 10
-6.089744
 20
-40.063776
 30
0.0
 10
-5.759440
 20
-39.814540
 30
0.0
 10
-5.434396
 20
-39.558551
 30
0.0
  0
SPLINE
  5
515
100
AcDbEntity
  8
0
 62
7
100
AcDbSpline
 70
8
 71
3
 72
8
 73
4
 74
0
 40
0
 40
0
 40
0
 40
0
 40
1
 40
1
 40
1
 40
1
 10
-11.387631
 20
-43.212031
 30
0.0
 10
-11.012199
 20
-43.038140
 30
0.0
 10
-10.640405
 20
-42.856500
 30
0.0
 10
-10.272487
 20
-42.667229
 30
0.0
  0
SPLINE
  5
516
100
AcDbEntity
  8
0
 62
7
100
AcDbSpline
 70
8
 71
3
 72
8
 73
4
 74
0
 40
0
 40
0
 40
0
 40
0
 40
1
 40
1
 40
1
 40
1
 10
-2.108221
 20
-36.506685
 30
0.0
 10
-1.825266
 20
-36.204818
 30
0.0
 10
-1.548586
 20
-35.897130
 30
0.0
 10
-1.278358
 20
-35.583818
 30
0.0
  0
SPLINE
  5
517
100
AcDbEntity
  8
0
 62
7
100
AcDbSpline
 70
8
 71
3
 72
8
 73
4
 74
0
 40
0
 40
0
 40
0
 40
0
 40
1
 40
1
 40
1
 40
1
 10
-16.813461
 20
-45.117652
 30
0.0
 10
-16.411749
 20
-45.018599
 30
0.0
 10
-16.012129
 20
-44.911247
 30
0.0
 10
-15.614857
 20
-44.795664
 30
0.0
  0
SPLINE
  5
518
100
AcDbEntity
  8
0
 62
7
100
AcDbSpline
 70
8
 71
3
 72
8
 73
4
 74
0
 40
0
 40
0
 40
0
 40
0
 40
1
 40
1
 40
1
 40
1
 10
-22.503225
 20
-45.952973
 30
0.0
 10
-22.089990
 20
-45.932388
 30
0.0
 10
-21.677225
 20
-45.903257
 30
0.0
 10
-21.265195
 20
-45.865597
 30
0.0
  0
LWPOLYLINE
  5
519
100
AcDbEntity
  8
0
 62
7
100
AcDbPolyline
 90
2
 70
0
 10
-41.669778
 20
25.393855
 30
0.0
 10
-34.666947
 20
22.915661
 30
0.0
  0
SPLINE
  5
51a
100
AcDbEntity
  8
0
 62
7
100
AcDbSpline
 70
8
 71
3
 72
8
 73
4
 74
0
 40
0
 40
0
 40
0
 40
0
 40
1
 40
1
 40
1
 40
1
 10
9.414173
 20
-18.625678
 30
0.0
 10
8.830340
 20
-17.114667
 30
0.0
 10
7.563403
 20
-15.970869
 30
0.0
 10
6.000768
 20
-15.544037
 30
0.0
  0
LWPOLYLINE
  5
51b
100
AcDbEntity
  8
0
 62
7
100
AcDbPolyline
 90
2
 70
0
 10
4.407359
 20
-25.646943
 30
0.0
 10
8.297453
 20
-24.952197
 30
0.0
  0
LWPOLYLINE
  5
51c
100
AcDbEntity
  8
0
 62
7
100
AcDbPolyline
 90
2
 70
0
 10
5.728119
 20
-20.049912
 30
0.0
 10
9.414178
 20
-18.625678
 30
0.0
  0
SPLINE
  5
51d
100
AcDbEntity
  8
0
 62
7
100
AcDbSpline
 70
8
 71
3
 72
8
 73
4
 74
0
 40
0
 40
0
 40
0
 40
0
 40
1
 40
1
 40
1
 40
1
 10
-42.091429
 20
19.682715
 30
0.0
 10
-51.793132
 20
14.761404
 30
0.0
 10
-59.071944
 20
6.100924
 30
0.0
 10
-62.250444
 20
-4.302897
 30
0.0
  0
SPLINE
  5
51e
100
AcDbEntity
  8
0
 62
7
100
AcDbSpline
 70
8
 71
3
 72
8
 73
4
 74
0
 40
0
 40
0
 40
0
 40
0
 40
1
 40
1
 40
1
 40
1
 10
-62.250444
 20
-4.302897
 30
0.0
 10
-65.428944
 20
-14.706717
 30
0.0
 10
-64.232930
 20
-25.956365
 30
0.0
 10
-58.938027
 20
-35.459330
 30
0.0
  0
LWPOLYLINE
  5
51f
100
AcDbEntity
  8
0
 62
7
100
AcDbPolyline
 90
2
 70
0
 10
15.252306
 20
-8.271537
 30
0.0
 10
10.346279
 20
-9.236370
 30
0.0
  0
SPLINE
  5
520
100
AcDbEntity
  8
0
 62
7
100
AcDbSpline
 70
8
 71
3
 72
8
 73
4
 74
0
 40
0
 40
0
 40
0
 40
0
 40
1
 40
1
 40
1
 40
1
 10
-41.669778
 20
25.393849
 30
0.0
 10
-53.398365
 20
20.384924
 30
0.0
 10
-62.450743
 20
10.634581
 30
0.0
 10
-66.576342
 20
-1.433083
 30
0.0
  0
SPLINE
  5
521
100
AcDbEntity
  8
0
 62
7
100
AcDbSpline
 70
8
 71
3
 72
8
 73
4
 74
0
 40
0
 40
0
 40
0
 40
0
 40
1
 40
1
 40
1
 40
1
 10
-66.576342
 20
-1.433083
 30
0.0
 10
-70.701941
 20
-13.500747
 30
0.0
 10
-69.513247
 20
-26.752228
 30
0.0
 10
-63.305789
 20
-37.892989
 30
0.0
  0
LWPOLYLINE
  5
522
100
AcDbEntity
  8
0
 62
7
100
AcDbPolyline
 90
2
 70
0
 10
-58.938022
 20
-35.459330
 30
0.0
 10
-63.305789
 20
-37.892989
 30
0.0
  0
LWPOLYLINE
  5
523
100
AcDbEntity
  8
0
 62
7
100
AcDbPolyline
 90
5
 70
0
 10
285.307730
 20
363.580749
 30
0.0
 10
246.295017
 20
363.580749
 30
0.0
 10
252.587387
 20
356.029899
 30
0.0
 10
251.958150
 20
369.873122
 30
0.0
 10
246.344615
 20
363.579366
 30
0.0
  0
LWPOLYLINE
  5
524
100
AcDbEntity
  8
0
 62
7
100
AcDbPolyline
 90
5
 70
0
 10
291.272158
 20
173.611107
 30
0.0
 10
252.259434
 20
173.611107
 30
0.0
 10
258.551804
 20
166.060257
 30
0.0
 10
257.922567
 20
179.903477
 30
0.0
 10
252.309032
 20
173.609724
 30
0.0
  0
LWPOLYLINE
  5
525
100
AcDbEntity
  8
0
 62
7
100
AcDbPolyline
 90
5
 70
0
 10
295.676800
 20
-26.486357
 30
0.0
 10
256.664093
 20
-26.486357
 30
0.0
 10
262.956463
 20
-34.037184
 30
0.0
 10
262.327226
 20
-20.193986
 30
0.0
 10
256.713691
 20
-26.487740
 30
0.0
  0
LWPOLYLINE
  5
526
100
AcDbEntity
  8
0
 62
7
100
AcDbPolyline
 90
5
 70
0
 10
-95.052865
 20
62.865346
 30
0.0
 10
-56.040153
 20
62.865346
 30
0.0
 10
-62.332523
 20
55.314496
 30
0.0
 10
-61.703286
 20
69.157722
 30
0.0
 10
-56.089750
 20
62.863963
 30
0.0
  0
LWPOLYLINE
  5
527
100
AcDbEntity
  8
0
 62
7
100
AcDbPolyline
 90
5
 70
0
 10
-84.355830
 20
247.231867
 30
0.0
 10
-45.343120
 20
247.231867
 30
0.0
 10
-51.635488
 20
239.681017
 30
0.0
 10
-51.006251
 20
253.524242
 30
0.0
 10
-45.392718
 20
247.230484
 30
0.0
  0
ENDSEC
  0
SECTION
  2
OBJECTS
  0
DICTIONARY
  5
C
330
0
100
AcDbDictionary
  3
ACAD_GROUP
350
D
  3
ACAD_MLINESTYLE
350
17
  0
DICTIONARY
  5
D
330
C
100
AcDbDictionary
  0
DICTIONARY
  5
1A
330
C
100
AcDbDictionary
  0
DICTIONARY
  5
17
330
C
100
AcDbDictionary
  3
STANDARD
350
18
  0
DICTIONARY
  5
19
330
C
100
AcDbDictionary
  0
ENDSEC
  0
EOF
