  0
SECTION
  2
HEADER
  9
$ACADVER
  1
AC1014
  9
$ACADMAINTVER
 70
     0
  9
$DWGCODEPAGE
  3
ANSI_1253
  9
$INSBASE
 10
0.0
 20
0.0
 30
0.0
  9
$EXTMIN
 10
7.479524
 20
11.401274
 30
0.0
  9
$EXTMAX
 10
11.021068
 20
14.098131
 30
0.0
  9
$LIMMIN
 10
0.0
 20
0.0
  9
$LIMMAX
 10
0.0
 20
0.0
  9
$ORTHOMODE
 70
     0
  9
$REGENMODE
 70
     1
  9
$FILLMODE
 70
     1
  9
$QTEXTMODE
 70
     0
  9
$MIRRTEXT
 70
     1
  9
$DRAGMODE
 70
     2
  9
$LTSCALE
 40
1.0
  9
$OSMODE
 70
     0
  9
$ATTMODE
 70
     1
  9
$TEXTSIZE
 40
0.2
  9
$TRACEWID
 40
0.05
  9
$TEXTSTYLE
  7
STANDARD
  9
$CLAYER
  8
0
  9
$CELTYPE
  6
CONTINUOUS
  9
$CECOLOR
 62
   256
  9
$CELTSCALE
 40
1.0
  9
$DELOBJ
 70
     1
  9
$DISPSILH
 70
     0
  9
$DIMSCALE
 40
1.0
  9
$DIMASZ
 40
0.18
  9
$DIMEXO
 40
0.0625
  9
$DIMDLI
 40
0.38
  9
$DIMRND
 40
0.0
  9
$DIMDLE
 40
0.0
  9
$DIMEXE
 40
0.18
  9
$DIMTP
 40
0.0
  9
$DIMTM
 40
0.0
  9
$DIMTXT
 40
0.18
  9
$DIMCEN
 40
0.09
  9
$DIMTSZ
 40
0.0
  9
$DIMTOL
 70
     0
  9
$DIMLIM
 70
     0
  9
$DIMTIH
 70
     1
  9
$DIMTOH
 70
     1
  9
$DIMSE1
 70
     0
  9
$DIMSE2
 70
     0
  9
$DIMTAD
 70
     0
  9
$DIMZIN
 70
     0
  9
$DIMBLK
  1

  9
$DIMASO
 70
     1
  9
$DIMSHO
 70
     1
  9
$DIMPOST
  1

  9
$DIMAPOST
  1

  9
$DIMALT
 70
     0
  9
$DIMALTD
 70
     2
  9
$DIMALTF
 40
25.4
  9
$DIMLFAC
 40
1.0
  9
$DIMTOFL
 70
     0
  9
$DIMTVP
 40
0.0
  9
$DIMTIX
 70
     0
  9
$DIMSOXD
 70
     0
  9
$DIMSAH
 70
     0
  9
$DIMBLK1
  1

  9
$DIMBLK2
  1

  9
$DIMSTYLE
  2
STANDARD
  9
$DIMCLRD
 70
     0
  9
$DIMCLRE
 70
     0
  9
$DIMCLRT
 70
     0
  9
$DIMTFAC
 40
1.0
  9
$DIMGAP
 40
0.09
  9
$DIMJUST
 70
     0
  9
$DIMSD1
 70
     0
  9
$DIMSD2
 70
     0
  9
$DIMTOLJ
 70
     1
  9
$DIMTZIN
 70
     0
  9
$DIMALTZ
 70
     0
  9
$DIMALTTZ
 70
     0
  9
$DIMFIT
 70
     3
  9
$DIMUPT
 70
     0
  9
$DIMUNIT
 70
     2
  9
$DIMDEC
 70
     4
  9
$DIMTDEC
 70
     4
  9
$DIMALTU
 70
     2
  9
$DIMALTTD
 70
     2
  9
$DIMTXSTY
  7
STANDARD
  9
$DIMAUNIT
 70
     0
  9
$LUNITS
 70
     2
  9
$LUPREC
 70
     4
  9
$SKETCHINC
 40
0.1
  9
$FILLETRAD
 40
0.0
  9
$AUNITS
 70
     0
  9
$AUPREC
 70
     0
  9
$MENU
  1
acad
  9
$ELEVATION
 40
0.0
  9
$PELEVATION
 40
0.0
  9
$THICKNESS
 40
0.0
  9
$LIMCHECK
 70
     0
  9
$BLIPMODE
 70
     1
  9
$CHAMFERA
 40
0.0
  9
$CHAMFERB
 40
0.0
  9
$CHAMFERC
 40
0.0
  9
$CHAMFERD
 40
0.0
  9
$SKPOLY
 70
     0
  9
$TDCREATE
 40
0.000000000
  9
$TDUPDATE
 40
0.000000000
  9
$TDINDWG
 40
0.0000000000
  9
$TDUSRTIMER
 40
0.0000000000
  9
$USRTIMER
 70
     1
  9
$ANGBASE
 50
0.0
  9
$ANGDIR
 70
     0
  9
$PDMODE
 70
     2
  9
$PDSIZE
 40
-5.0
  9
$PLINEWID
 40
0.0
  9
$COORDS
 70
     0
  9
$SPLFRAME
 70
     0
  9
$SPLINETYPE
 70
     6
  9
$SPLINESEGS
 70
     8
  9
$ATTDIA
 70
     0
  9
$ATTREQ
 70
     1
  9
$HANDLING
 70
     1
  9
$HANDSEED
  5
AC
  9
$SURFTAB1
 70
     6
  9
$SURFTAB2
 70
     6
  9
$SURFTYPE
 70
     6
  9
$SURFU
 70
     6
  9
$SURFV
 70
     6
  9
$UCSNAME
  2

  9
$UCSORG
 10
0.0
 20
0.0
 30
0.0
  9
$UCSXDIR
 10
1.0
 20
0.0
 30
0.0
  9
$UCSYDIR
 10
0.0
 20
1.0
 30
0.0
  9
$PUCSNAME
  2

  9
$PUCSORG
 10
0.0
 20
0.0
 30
0.0
  9
$PUCSXDIR
 10
1.0
 20
0.0
 30
0.0
  9
$PUCSYDIR
 10
0.0
 20
1.0
 30
0.0
  9
$USERI1
 70
     0
  9
$USERI2
 70
     0
  9
$USERI3
 70
     0
  9
$USERI4
 70
     0
  9
$USERI5
 70
     0
  9
$USERR1
 40
0.0
  9
$USERR2
 40
0.0
  9
$USERR3
 40
0.0
  9
$USERR4
 40
0.0
  9
$USERR5
 40
0.0
  9
$WORLDVIEW
 70
     1
  9
$SHADEDGE
 70
     3
  9
$SHADEDIF
 70
    70
  9
$TILEMODE
 70
     1
  9
$MAXACTVP
 70
    16
  9
$PINSBASE
 10
0.0
 20
0.0
 30
0.0
  9
$PLIMCHECK
 70
     0
  9
$PEXTMIN
 10
1.000000E+20
 20
1.000000E+20
 30
1.000000E+20
  9
$PEXTMAX
 10
-1.000000E+20
 20
-1.000000E+20
 30
-1.000000E+20
  9
$PLIMMIN
 10
0.0
 20
0.0
  9
$PLIMMAX
 10
12.0
 20
9.0
  9
$UNITMODE
 70
     0
  9
$VISRETAIN
 70
     0
  9
$PLINEGEN
 70
     1
  9
$PSLTSCALE
 70
     0
  9
$TREEDEPTH
 70
  3020
  9
$PICKSTYLE
 70
     1
  9
$CMLSTYLE
  2
STANDARD
  9
$CMLJUST
 70
     0
  9
$CMLSCALE
 40
1.0
  9
$PROXYGRAPHICS
 70
     0
  9
$MEASUREMENT
 70
     0
  0
ENDSEC
  0
SECTION
  2
CLASSES
  0
CLASS
  1
LWPOLYLINE
  2
AcDbPolyline
  3
"AutoCAD"
 90
        0
280
     0
281
     1
  0
CLASS
  1
IMAGE
  2
AcDbRasterImage
  3
ISM
 90
      127
280
     0
281
     1
  0
CLASS
  1
OLE2FRAME
  2
AcDbOle2Frame
  3
""
 90
        0
280
     0
281
     1
  0
CLASS
  1
HATCH
  2
AcDbHatch
  3
"ACAD_SEDONA"
 90
        0
280
     0
281
     1
  0
CLASS
  1
DICTIONARYVAR
  2
AcDbDictionaryVar
  3
"AutoCAD"
 90
        0
280
     0
281
     0
  0
CLASS
  1
RASTERVARIABLES
  2
AcDbRasterVariables
  3
ISM
 90
        0
280
     0
281
     0
  0
CLASS
  1
IMAGEDEF
  2
AcDbRasterImageDef
  3
ISM
 90
        0
280
     0
281
     0
  0
CLASS
  1
IMAGEDEF_REACTOR
  2
AcDbRasterImageDefReactor
  3
ISM
 90
        1
280
     0
281
     0
  0
CLASS
  1
IDBUFFER
  2
AcDbIdBuffer
  3
"Acad"
 90
        0
280
     0
281
     0
  0
CLASS
  1
SPATIAL_FILTER
  2
AcDbSpatialFilter
  3
"Acad"
 90
        0
280
     0
281
     0
  0
CLASS
  1
XRECORD
  2
AcDbXrecord
  3
"<Built In>"
 90
        0
280
     0
281
     0
  0
CLASS
  1
SORTENTSTABLE
  2
AcDbSortentsTable
  3
"AutoCAD"
 90
        0
280
     0
281
     0
  0
CLASS
  1
LAYER_INDEX
  2
AcDbLayerIndex
  3
"Acad"
 90
        0
280
     0
281
     0
  0
CLASS
  1
SPATIAL_INDEX
  2
AcDbSpatialIndex
  3
"Acad"
 90
        0
280
     0
281
     0
  0
CLASS
  1
OBJECT_PTR
  2
CAseDLPNTableRecord
  3
"ASE-LPNTableRecord"
 90
        1
280
     0
281
     0
  0
CLASS
  1
LAYOUT
  2
AcDbLayout
  3
"AutoCAD 2000"
 90
        1
280
     0
281
     0
  0
CLASS
  1
PLOTSETTINGS
  2
AcDbPlotSettings
  3
"AutoCAD 2000"
 90
        1
280
     0
281
     0
  0
CLASS
  1
ACDBDICTIONARYWDFLT
  2
AcDbDictionaryWithDefault
  3
"AutoCAD 2000"
 90
        1
280
     0
281
     0
  0
CLASS
  1
ACDBPLACEHOLDER
  2
AcDbPlaceHolder
  3
"AutoCAD 2000"
 90
        1
280
     0
281
     0
  0
CLASS
  1
VBA_PROJECT
  2
AcDbVbaProject
  3
"acadvba"
 90
        1
280
     0
281
     0
  0
CLASS
  1
WIPEOUT
  2
AcDbWipeout
  3
WipeOut|AutoCAD Express Tool|expresstools@autodesk.com
 90
      127
280
     0
281
     1
  0
CLASS
  1
WIPEOUTVARIABLES
  2
AcDbWipeoutVariables
  3
WipeOut|AutoCAD Express Tool|expresstools@autodesk.com
 90
        0
280
     0
281
     0
  0
CLASS
  1
RTEXT
  2
RText
  3
RText|AutoCAD Express Tool|expresstools@autodesk.com
 90
        0
280
     0
281
     1
  0
CLASS
  1
ARCALIGNEDTEXT
  2
AcDbArcAlignedText
  3
ATEXT|AutoCAD Express Tool|expresstools@autodesk.com
 90
        0
280
     0
281
     1
  0
ENDSEC
  0
SECTION
  2
TABLES
  0
TABLE
  2
VPORT
  5
7
100
AcDbSymbolTable
 70
     2
  0
VPORT
  5
15
100
AcDbSymbolTableRecord
100
AcDbViewportTableRecord
  2
*ACTIVE
 70
     0
 10
0.0
 20
0.0
 11
1.0
 21
1.0
 12
6.591288
 22
4.579184
 13
0.0
 23
0.0
 14
1.0
 24
1.0
 15
0.0
 25
0.0
 16
0.0
 26
0.0
 36
1.0
 17
0.0
 27
0.0
 37
0.0
 40
9.158369
 41
0.688564
 42
50.0
 43
0.0
 44
0.0
 50
0.0
 51
0.0
 71
     0
 72
   100
 73
     1
 74
     1
 75
     0
 76
     0
 77
     0
 78
     0
  0
VPORT
  5
AB
100
AcDbSymbolTableRecord
100
AcDbViewportTableRecord
  2
MYVPORT
 70
     0
 10
0.0
 20
0.0
 11
1.0
 21
1.0
 12
6.21
 22
9.02
 13
0.0
 23
0.0
 14
1.0
 24
1.0
 15
0.0
 25
0.0
 16
0.0
 26
0.0
 36
1.0
 17
0.0
 27
0.0
 37
0.0
 40
18.04
 41
0.688564
 42
50.0
 43
0.0
 44
0.0
 50
0.0
 51
0.0
 71
     0
 72
   100
 73
     1
 74
     1
 75
     0
 76
     0
 77
     0
 78
     0
  0
ENDTAB
  0
TABLE
  2
LTYPE
  5
4
100
AcDbSymbolTable
 70
     3
  0
LTYPE
  5
11
100
AcDbSymbolTableRecord
100
AcDbLinetypeTableRecord
  2
BYBLOCK
 70
    64
  3

 72
    65
 73
     0
 40
0.0
  0
LTYPE
  5
12
100
AcDbSymbolTableRecord
100
AcDbLinetypeTableRecord
  2
BYLAYER
 70
    64
  3

 72
    65
 73
     0
 40
0.0
  0
LTYPE
  5
13
100
AcDbSymbolTableRecord
100
AcDbLinetypeTableRecord
  2
CONTINUOUS
 70
    64
  3
Solid line
 72
    65
 73
     0
 40
0.0
  0
ENDTAB
  0
TABLE
  2
LAYER
  5
2
100
AcDbSymbolTable
 70
     1
  0
LAYER
  5
14
100
AcDbSymbolTableRecord
100
AcDbLayerTableRecord
  2
0
 70
     0
 62
     7
  6
CONTINUOUS
  0
ENDTAB
  0
TABLE
  2
STYLE
  5
3
100
AcDbSymbolTable
 70
     2
  0
STYLE
  5
17
100
AcDbSymbolTableRecord
100
AcDbTextStyleTableRecord
  2
STANDARD
 70
     0
 40
0.0
 41
1.0
 50
0.0
 71
     0
 42
0.0
  3
txt
  4

  0
STYLE
  5
24
100
AcDbSymbolTableRecord
100
AcDbTextStyleTableRecord
  2
VCADD_ARIAL
 70
     0
 40
0.0
 41
1.0
 50
0.0
 71
     0
 42
0.0
  3
Arial
  4

  0
ENDTAB
  0
TABLE
  2
VIEW
  5
5
100
AcDbSymbolTable
 70
     0
  0
ENDTAB
  0
TABLE
  2
UCS
  5
6
100
AcDbSymbolTable
 70
     1
  0
UCS
  5
AA
100
AcDbSymbolTableRecord
100
AcDbUCSTableRecord
  2
MYUCS
 70
     0
 10
0.0
 20
0.0
 30
0.0
 11
0.0
 21
1.0
 31
0.0
 12
0.0
 22
0.0
 32
1.0
  0
ENDTAB
  0
TABLE
  2
APPID
  5
8
100
AcDbSymbolTable
 70
     1
  0
APPID
  5
16
100
AcDbSymbolTableRecord
100
AcDbRegAppTableRecord
  2
ACAD
 70
     0
  0
ENDTAB
  0
TABLE
  2
DIMSTYLE
  5
9
100
AcDbSymbolTable
 70
     2
  0
DIMSTYLE
105
18
100
AcDbSymbolTableRecord
100
AcDbDimStyleTableRecord
  2
STANDARD
 70
     0
  3

  4

  5

  6

  7

 40
1.0
 41
0.18
 42
0.0625
 43
0.38
 44
0.18
 45
0.0
 46
0.0
 47
0.0
 48
0.0
 71
     0
 72
     0
 73
     1
 74
     1
 75
     0
 76
     0
 77
     0
 78
     0
140
0.18
141
0.09
142
0.0
143
25.4
144
1.0
145
0.0
146
1.0
147
0.09
170
     0
171
     2
172
     0
173
     0
174
     0
175
     0
176
     0
177
     0
178
     0
270
     2
271
     4
272
     4
273
     2
274
     2
275
     0
280
     0
281
     0
282
     0
283
     1
284
     0
285
     0
286
     0
287
     0
288
     0
340
17
  0
DIMSTYLE
105
25
100
AcDbSymbolTableRecord
100
AcDbDimStyleTableRecord
  2
VCADD_DIMSTYLE
 70
     0
  3

  4

  5

  6

  7

 40
1.0
 41
116.1288
 42
1.5875
 43
0.0
 44
4.572
 45
0.0
 46
0.0
 47
0.0
 48
0.0
 71
     0
 72
     0
 73
     1
 74
     1
 75
     0
 76
     0
 77
     0
 78
     3
140
116.1288
141
0.0
142
0.0
143
25.4
144
1.0
145
0.0
146
1.0
147
2.54
170
     0
171
     4
172
     0
173
     0
174
     1
175
     0
176
    12
177
    12
178
    12
270
     2
271
     4
272
     4
273
     2
274
     2
275
     0
280
     0
281
     0
282
     0
283
     1
284
     0
285
     0
286
     0
287
     0
288
     0
340
24
  0
ENDTAB
  0
TABLE
  2
BLOCK_RECORD
  5
1
100
AcDbSymbolTable
 70
     1
  0
BLOCK_RECORD
  5
A
100
AcDbSymbolTableRecord
100
AcDbBlockTableRecord
  2
*MODEL_SPACE
  0
BLOCK_RECORD
  5
B
100
AcDbSymbolTableRecord
100
AcDbBlockTableRecord
  2
*PAPER_SPACE
  0
BLOCK_RECORD
  5
1D
100
AcDbSymbolTableRecord
100
AcDbBlockTableRecord
  2
_CLOSED
  0
ENDTAB
  0
ENDSEC
  0
SECTION
  2
BLOCKS
  0
BLOCK
  5
D
100
AcDbEntity
  8
0
100
AcDbBlockBegin
  2
*MODEL_SPACE
 70
     0
 10
0.0
 20
0.0
 30
0.0
  3
*MODEL_SPACE
  1

  0
ENDBLK
  5
E
100
AcDbEntity
  8
0
100
AcDbBlockEnd
  0
BLOCK
  5
F
100
AcDbEntity
 67
     1
  8
0
100
AcDbBlockBegin
  2
*PAPER_SPACE
 70
     0
 10
0.0
 20
0.0
 30
0.0
  3
*PAPER_SPACE
  1

  0
ENDBLK
  5
10
100
AcDbEntity
 67
     1
  8
0
100
AcDbBlockEnd
  0
BLOCK
  5
1E
100
AcDbEntity
  8
0
100
AcDbBlockBegin
  2
_CLOSED
 70
     0
 10
0.0
 20
0.0
 30
0.0
  3
_CLOSED
  1

  0
LINE
  5
1F
100
AcDbEntity
  8
0
  6
BYBLOCK
 62
     0
100
AcDbLine
 10
-1.0
 20
0.166667
 30
0.0
 11
0.0
 21
0.0
 31
0.0
  0
LINE
  5
20
100
AcDbEntity
  8
0
  6
BYBLOCK
 62
     0
100
AcDbLine
 10
0.0
 20
0.0
 30
0.0
 11
-1.0
 21
-0.166667
 31
0.0
  0
LINE
  5
21
100
AcDbEntity
  8
0
  6
BYBLOCK
 62
     0
100
AcDbLine
 10
-1.0
 20
0.166667
 30
0.0
 11
-1.0
 21
-0.166667
 31
0.0
  0
LINE
  5
22
100
AcDbEntity
  8
0
  6
BYBLOCK
 62
     0
100
AcDbLine
 10
0.0
 20
0.0
 30
0.0
 11
-1.0
 21
0.0
 31
0.0
  0
ENDBLK
  5
23
100
AcDbEntity
  8
0
100
AcDbBlockEnd
  0
ENDSEC
  0
SECTION
  2
ENTITIES
  0
VIEWPORT
  5
26
100
AcDbEntity
 67
     1
  8
0
  6
CONTINUOUS
 62
     0
100
AcDbViewport
 10
114.3
 20
82.782715
 30
0.0
 40
326.571432
 41
236.522057
 68
     1
 69
     1
1001
ACAD
1000
MVIEW
1002
{
1070
    16
1010
0.0
1020
0.0
1030
0.0
1010
0.0
1020
0.0
1030
1.0
1040
0.0
1040
1084.5
1040
762.9316
1040
546.5183
1040
50.0
1040
-55.0
1040
-55.0
1070
     0
1070
   500
1070
     0
1070
     0
1070
     0
1070
     0
1070
     0
1070
     0
1040
0.0
1040
1169.457242
1040
377.488
1040
0.5
1040
0.5
1040
12.0
1040
12.0
1070
     0
1002
{
1002
}
1002
}
  0
ARC
  5
27
100
AcDbEntity
  8
0
  6
CONTINUOUS
 62
     0
100
AcDbCircle
 10
201.117401
 20
300.729852
 30
0.0
 40
11.0
100
AcDbArc
 50
180.0
 51
270.0
  0
LINE
  5
28
100
AcDbEntity
  8
0
  6
CONTINUOUS
 62
     0
100
AcDbLine
 10
190.117401
 20
300.729852
 30
0.0
 11
190.117401
 21
339.729852
 31
0.0
  0
ARC
  5
29
100
AcDbEntity
  8
0
  6
CONTINUOUS
 62
     0
100
AcDbCircle
 10
254.117401
 20
328.729852
 30
0.0
 40
11.0
100
AcDbArc
 50
0.0
 51
90.0
  0
LINE
  5
2A
100
AcDbEntity
  8
0
  6
CONTINUOUS
 62
     0
100
AcDbLine
 10
190.117401
 20
339.729852
 30
0.0
 11
254.117401
 21
339.729852
 31
0.0
  0
LINE
  5
2B
100
AcDbEntity
  8
0
  6
CONTINUOUS
 62
     0
100
AcDbLine
 10
201.117401
 20
289.729852
 30
0.0
 11
265.117401
 21
289.729852
 31
0.0
  0
LINE
  5
2C
100
AcDbEntity
  8
0
  6
CONTINUOUS
 62
     0
100
AcDbLine
 10
265.117401
 20
328.729852
 30
0.0
 11
265.117401
 21
289.729852
 31
0.0
  0
LINE
  5
2D
100
AcDbEntity
  8
0
  6
CONTINUOUS
 62
     0
100
AcDbLine
 10
215.117401
 20
314.729852
 30
0.0
 11
215.117401
 21
339.729852
 31
0.0
  0
LINE
  5
2E
100
AcDbEntity
  8
0
  6
CONTINUOUS
 62
     0
100
AcDbLine
 10
240.117401
 20
314.729852
 30
0.0
 11
240.117401
 21
289.729852
 31
0.0
  0
LINE
  5
2F
100
AcDbEntity
  8
0
  6
CONTINUOUS
 62
     0
100
AcDbLine
 10
215.117401
 20
314.729852
 30
0.0
 11
240.117401
 21
314.729852
 31
0.0
  0
ARC
  5
30
100
AcDbEntity
  8
0
  6
CONTINUOUS
 62
     0
100
AcDbCircle
 10
215.117401
 20
314.729852
 30
0.0
 40
6.5
100
AcDbArc
 50
90.0
 51
360.0
  0
ARC
  5
31
100
AcDbEntity
  8
0
  6
CONTINUOUS
 62
     0
100
AcDbCircle
 10
240.117401
 20
314.729852
 30
0.0
 40
6.5
100
AcDbArc
 50
270.0
 51
540.0
  0
POLYLINE
  5
32
100
AcDbEntity
  8
0
  6
CONTINUOUS
 62
     0
100
AcDb2dPolyline
 66
     1
 10
0.0
 20
0.0
 30
0.0
 70
   129
  0
VERTEX
  5
33
100
AcDbEntity
  8
0
  6
CONTINUOUS
 62
     0
100
AcDbVertex
100
AcDb2dVertex
 10
196.117401
 20
326.729852
 30
0.0
  0
VERTEX
  5
34
100
AcDbEntity
  8
0
  6
CONTINUOUS
 62
     0
100
AcDbVertex
100
AcDb2dVertex
 10
199.067401
 20
326.729852
 30
0.0
  0
VERTEX
  5
35
100
AcDbEntity
  8
0
  6
CONTINUOUS
 62
     0
100
AcDbVertex
100
AcDb2dVertex
 10
199.067401
 20
326.729852
 30
0.0
  0
VERTEX
  5
36
100
AcDbEntity
  8
0
  6
CONTINUOUS
 62
     0
100
AcDbVertex
100
AcDb2dVertex
 10
199.067401
 20
331.729852
 30
0.0
  0
VERTEX
  5
37
100
AcDbEntity
  8
0
  6
CONTINUOUS
 62
     0
100
AcDbVertex
100
AcDb2dVertex
 10
199.067401
 20
331.729852
 30
0.0
  0
VERTEX
  5
38
100
AcDbEntity
  8
0
  6
CONTINUOUS
 62
     0
100
AcDbVertex
100
AcDb2dVertex
 10
196.117401
 20
331.729852
 30
0.0
  0
VERTEX
  5
39
100
AcDbEntity
  8
0
  6
CONTINUOUS
 62
     0
100
AcDbVertex
100
AcDb2dVertex
 10
196.117401
 20
331.729852
 30
0.0
  0
VERTEX
  5
3A
100
AcDbEntity
  8
0
  6
CONTINUOUS
 62
     0
100
AcDbVertex
100
AcDb2dVertex
 10
196.117401
 20
326.729852
 30
0.0
  0
SEQEND
  5
3B
100
AcDbEntity
  8
0
  6
CONTINUOUS
 62
     0
  0
POLYLINE
  5
3C
100
AcDbEntity
  8
0
  6
CONTINUOUS
 62
     0
100
AcDb2dPolyline
 66
     1
 10
0.0
 20
0.0
 30
0.0
 70
   129
  0
VERTEX
  5
3D
100
AcDbEntity
  8
0
  6
CONTINUOUS
 62
     0
100
AcDbVertex
100
AcDb2dVertex
 10
196.117401
 20
303.729852
 30
0.0
  0
VERTEX
  5
3E
100
AcDbEntity
  8
0
  6
CONTINUOUS
 62
     0
100
AcDbVertex
100
AcDb2dVertex
 10
199.067401
 20
303.729852
 30
0.0
  0
VERTEX
  5
3F
100
AcDbEntity
  8
0
  6
CONTINUOUS
 62
     0
100
AcDbVertex
100
AcDb2dVertex
 10
199.067401
 20
303.729852
 30
0.0
  0
VERTEX
  5
40
100
AcDbEntity
  8
0
  6
CONTINUOUS
 62
     0
100
AcDbVertex
100
AcDb2dVertex
 10
199.067401
 20
308.729852
 30
0.0
  0
VERTEX
  5
41
100
AcDbEntity
  8
0
  6
CONTINUOUS
 62
     0
100
AcDbVertex
100
AcDb2dVertex
 10
199.067401
 20
308.729852
 30
0.0
  0
VERTEX
  5
42
100
AcDbEntity
  8
0
  6
CONTINUOUS
 62
     0
100
AcDbVertex
100
AcDb2dVertex
 10
196.117401
 20
308.729852
 30
0.0
  0
VERTEX
  5
43
100
AcDbEntity
  8
0
  6
CONTINUOUS
 62
     0
100
AcDbVertex
100
AcDb2dVertex
 10
196.117401
 20
308.729852
 30
0.0
  0
VERTEX
  5
44
100
AcDbEntity
  8
0
  6
CONTINUOUS
 62
     0
100
AcDbVertex
100
AcDb2dVertex
 10
196.117401
 20
303.729852
 30
0.0
  0
SEQEND
  5
45
100
AcDbEntity
  8
0
  6
CONTINUOUS
 62
     0
  0
POLYLINE
  5
46
100
AcDbEntity
  8
0
  6
CONTINUOUS
 62
     0
100
AcDb2dPolyline
 66
     1
 10
0.0
 20
0.0
 30
0.0
 70
   129
  0
VERTEX
  5
47
100
AcDbEntity
  8
0
  6
CONTINUOUS
 62
     0
100
AcDbVertex
100
AcDb2dVertex
 10
204.117401
 20
295.729852
 30
0.0
  0
VERTEX
  5
48
100
AcDbEntity
  8
0
  6
CONTINUOUS
 62
     0
100
AcDbVertex
100
AcDb2dVertex
 10
209.117401
 20
295.729852
 30
0.0
  0
VERTEX
  5
49
100
AcDbEntity
  8
0
  6
CONTINUOUS
 62
     0
100
AcDbVertex
100
AcDb2dVertex
 10
209.117401
 20
295.729852
 30
0.0
  0
VERTEX
  5
4A
100
AcDbEntity
  8
0
  6
CONTINUOUS
 62
     0
100
AcDbVertex
100
AcDb2dVertex
 10
209.117401
 20
298.679852
 30
0.0
  0
VERTEX
  5
4B
100
AcDbEntity
  8
0
  6
CONTINUOUS
 62
     0
100
AcDbVertex
100
AcDb2dVertex
 10
209.117401
 20
298.679852
 30
0.0
  0
VERTEX
  5
4C
100
AcDbEntity
  8
0
  6
CONTINUOUS
 62
     0
100
AcDbVertex
100
AcDb2dVertex
 10
204.117401
 20
298.679852
 30
0.0
  0
VERTEX
  5
4D
100
AcDbEntity
  8
0
  6
CONTINUOUS
 62
     0
100
AcDbVertex
100
AcDb2dVertex
 10
204.117401
 20
298.679852
 30
0.0
  0
VERTEX
  5
4E
100
AcDbEntity
  8
0
  6
CONTINUOUS
 62
     0
100
AcDbVertex
100
AcDb2dVertex
 10
204.117401
 20
295.729852
 30
0.0
  0
SEQEND
  5
4F
100
AcDbEntity
  8
0
  6
CONTINUOUS
 62
     0
  0
POLYLINE
  5
50
100
AcDbEntity
  8
0
  6
CONTINUOUS
 62
     0
100
AcDb2dPolyline
 66
     1
 10
0.0
 20
0.0
 30
0.0
 70
   129
  0
VERTEX
  5
51
100
AcDbEntity
  8
0
  6
CONTINUOUS
 62
     0
100
AcDbVertex
100
AcDb2dVertex
 10
227.117401
 20
295.729852
 30
0.0
  0
VERTEX
  5
52
100
AcDbEntity
  8
0
  6
CONTINUOUS
 62
     0
100
AcDbVertex
100
AcDb2dVertex
 10
232.117401
 20
295.729852
 30
0.0
  0
VERTEX
  5
53
100
AcDbEntity
  8
0
  6
CONTINUOUS
 62
     0
100
AcDbVertex
100
AcDb2dVertex
 10
232.117401
 20
295.729852
 30
0.0
  0
VERTEX
  5
54
100
AcDbEntity
  8
0
  6
CONTINUOUS
 62
     0
100
AcDbVertex
100
AcDb2dVertex
 10
232.117401
 20
298.679852
 30
0.0
  0
VERTEX
  5
55
100
AcDbEntity
  8
0
  6
CONTINUOUS
 62
     0
100
AcDbVertex
100
AcDb2dVertex
 10
232.117401
 20
298.679852
 30
0.0
  0
VERTEX
  5
56
100
AcDbEntity
  8
0
  6
CONTINUOUS
 62
     0
100
AcDbVertex
100
AcDb2dVertex
 10
227.117401
 20
298.679852
 30
0.0
  0
VERTEX
  5
57
100
AcDbEntity
  8
0
  6
CONTINUOUS
 62
     0
100
AcDbVertex
100
AcDb2dVertex
 10
227.117401
 20
298.679852
 30
0.0
  0
VERTEX
  5
58
100
AcDbEntity
  8
0
  6
CONTINUOUS
 62
     0
100
AcDbVertex
100
AcDb2dVertex
 10
227.117401
 20
295.729852
 30
0.0
  0
SEQEND
  5
59
100
AcDbEntity
  8
0
  6
CONTINUOUS
 62
     0
  0
POLYLINE
  5
5A
100
AcDbEntity
  8
0
  6
CONTINUOUS
 62
     0
100
AcDb2dPolyline
 66
     1
 10
0.0
 20
0.0
 30
0.0
 70
   129
  0
VERTEX
  5
5B
100
AcDbEntity
  8
0
  6
CONTINUOUS
 62
     0
100
AcDbVertex
100
AcDb2dVertex
 10
223.117401
 20
330.779852
 30
0.0
  0
VERTEX
  5
5C
100
AcDbEntity
  8
0
  6
CONTINUOUS
 62
     0
100
AcDbVertex
100
AcDb2dVertex
 10
228.117401
 20
330.779852
 30
0.0
  0
VERTEX
  5
5D
100
AcDbEntity
  8
0
  6
CONTINUOUS
 62
     0
100
AcDbVertex
100
AcDb2dVertex
 10
228.117401
 20
330.779852
 30
0.0
  0
VERTEX
  5
5E
100
AcDbEntity
  8
0
  6
CONTINUOUS
 62
     0
100
AcDbVertex
100
AcDb2dVertex
 10
228.117401
 20
333.729852
 30
0.0
  0
VERTEX
  5
5F
100
AcDbEntity
  8
0
  6
CONTINUOUS
 62
     0
100
AcDbVertex
100
AcDb2dVertex
 10
228.117401
 20
333.729852
 30
0.0
  0
VERTEX
  5
60
100
AcDbEntity
  8
0
  6
CONTINUOUS
 62
     0
100
AcDbVertex
100
AcDb2dVertex
 10
223.117401
 20
333.729852
 30
0.0
  0
VERTEX
  5
61
100
AcDbEntity
  8
0
  6
CONTINUOUS
 62
     0
100
AcDbVertex
100
AcDb2dVertex
 10
223.117401
 20
333.729852
 30
0.0
  0
VERTEX
  5
62
100
AcDbEntity
  8
0
  6
CONTINUOUS
 62
     0
100
AcDbVertex
100
AcDb2dVertex
 10
223.117401
 20
330.779852
 30
0.0
  0
SEQEND
  5
63
100
AcDbEntity
  8
0
  6
CONTINUOUS
 62
     0
  0
POLYLINE
  5
64
100
AcDbEntity
  8
0
  6
CONTINUOUS
 62
     0
100
AcDb2dPolyline
 66
     1
 10
0.0
 20
0.0
 30
0.0
 70
   129
  0
VERTEX
  5
65
100
AcDbEntity
  8
0
  6
CONTINUOUS
 62
     0
100
AcDbVertex
100
AcDb2dVertex
 10
246.117401
 20
330.779852
 30
0.0
  0
VERTEX
  5
66
100
AcDbEntity
  8
0
  6
CONTINUOUS
 62
     0
100
AcDbVertex
100
AcDb2dVertex
 10
251.117401
 20
330.779852
 30
0.0
  0
VERTEX
  5
67
100
AcDbEntity
  8
0
  6
CONTINUOUS
 62
     0
100
AcDbVertex
100
AcDb2dVertex
 10
251.117401
 20
330.779852
 30
0.0
  0
VERTEX
  5
68
100
AcDbEntity
  8
0
  6
CONTINUOUS
 62
     0
100
AcDbVertex
100
AcDb2dVertex
 10
251.117401
 20
333.729852
 30
0.0
  0
VERTEX
  5
69
100
AcDbEntity
  8
0
  6
CONTINUOUS
 62
     0
100
AcDbVertex
100
AcDb2dVertex
 10
251.117401
 20
333.729852
 30
0.0
  0
VERTEX
  5
6A
100
AcDbEntity
  8
0
  6
CONTINUOUS
 62
     0
100
AcDbVertex
100
AcDb2dVertex
 10
246.117401
 20
333.729852
 30
0.0
  0
VERTEX
  5
6B
100
AcDbEntity
  8
0
  6
CONTINUOUS
 62
     0
100
AcDbVertex
100
AcDb2dVertex
 10
246.117401
 20
333.729852
 30
0.0
  0
VERTEX
  5
6C
100
AcDbEntity
  8
0
  6
CONTINUOUS
 62
     0
100
AcDbVertex
100
AcDb2dVertex
 10
246.117401
 20
330.779852
 30
0.0
  0
SEQEND
  5
6D
100
AcDbEntity
  8
0
  6
CONTINUOUS
 62
     0
  0
POLYLINE
  5
6E
100
AcDbEntity
  8
0
  6
CONTINUOUS
 62
     0
100
AcDb2dPolyline
 66
     1
 10
0.0
 20
0.0
 30
0.0
 70
   129
  0
VERTEX
  5
6F
100
AcDbEntity
  8
0
  6
CONTINUOUS
 62
     0
100
AcDbVertex
100
AcDb2dVertex
 10
256.167401
 20
320.729852
 30
0.0
  0
VERTEX
  5
70
100
AcDbEntity
  8
0
  6
CONTINUOUS
 62
     0
100
AcDbVertex
100
AcDb2dVertex
 10
259.117401
 20
320.729852
 30
0.0
  0
VERTEX
  5
71
100
AcDbEntity
  8
0
  6
CONTINUOUS
 62
     0
100
AcDbVertex
100
AcDb2dVertex
 10
259.117401
 20
320.729852
 30
0.0
  0
VERTEX
  5
72
100
AcDbEntity
  8
0
  6
CONTINUOUS
 62
     0
100
AcDbVertex
100
AcDb2dVertex
 10
259.117401
 20
325.729852
 30
0.0
  0
VERTEX
  5
73
100
AcDbEntity
  8
0
  6
CONTINUOUS
 62
     0
100
AcDbVertex
100
AcDb2dVertex
 10
259.117401
 20
325.729852
 30
0.0
  0
VERTEX
  5
74
100
AcDbEntity
  8
0
  6
CONTINUOUS
 62
     0
100
AcDbVertex
100
AcDb2dVertex
 10
256.167401
 20
325.729852
 30
0.0
  0
VERTEX
  5
75
100
AcDbEntity
  8
0
  6
CONTINUOUS
 62
     0
100
AcDbVertex
100
AcDb2dVertex
 10
256.167401
 20
325.729852
 30
0.0
  0
VERTEX
  5
76
100
AcDbEntity
  8
0
  6
CONTINUOUS
 62
     0
100
AcDbVertex
100
AcDb2dVertex
 10
256.167401
 20
320.729852
 30
0.0
  0
SEQEND
  5
77
100
AcDbEntity
  8
0
  6
CONTINUOUS
 62
     0
  0
POLYLINE
  5
78
100
AcDbEntity
  8
0
  6
CONTINUOUS
 62
     0
100
AcDb2dPolyline
 66
     1
 10
0.0
 20
0.0
 30
0.0
 70
   129
  0
VERTEX
  5
79
100
AcDbEntity
  8
0
  6
CONTINUOUS
 62
     0
100
AcDbVertex
100
AcDb2dVertex
 10
256.167401
 20
297.729852
 30
0.0
  0
VERTEX
  5
7A
100
AcDbEntity
  8
0
  6
CONTINUOUS
 62
     0
100
AcDbVertex
100
AcDb2dVertex
 10
259.117401
 20
297.729852
 30
0.0
  0
VERTEX
  5
7B
100
AcDbEntity
  8
0
  6
CONTINUOUS
 62
     0
100
AcDbVertex
100
AcDb2dVertex
 10
259.117401
 20
297.729852
 30
0.0
  0
VERTEX
  5
7C
100
AcDbEntity
  8
0
  6
CONTINUOUS
 62
     0
100
AcDbVertex
100
AcDb2dVertex
 10
259.117401
 20
302.729852
 30
0.0
  0
VERTEX
  5
7D
100
AcDbEntity
  8
0
  6
CONTINUOUS
 62
     0
100
AcDbVertex
100
AcDb2dVertex
 10
259.117401
 20
302.729852
 30
0.0
  0
VERTEX
  5
7E
100
AcDbEntity
  8
0
  6
CONTINUOUS
 62
     0
100
AcDbVertex
100
AcDb2dVertex
 10
256.167401
 20
302.729852
 30
0.0
  0
VERTEX
  5
7F
100
AcDbEntity
  8
0
  6
CONTINUOUS
 62
     0
100
AcDbVertex
100
AcDb2dVertex
 10
256.167401
 20
302.729852
 30
0.0
  0
VERTEX
  5
80
100
AcDbEntity
  8
0
  6
CONTINUOUS
 62
     0
100
AcDbVertex
100
AcDb2dVertex
 10
256.167401
 20
297.729852
 30
0.0
  0
SEQEND
  5
81
100
AcDbEntity
  8
0
  6
CONTINUOUS
 62
     0
  0
LINE
  5
82
100
AcDbEntity
  8
0
  6
CONTINUOUS
 62
     0
100
AcDbLine
 10
271.935114
 20
355.092531
 30
0.0
 11
271.935114
 21
358.092531
 31
0.0
  0
LINE
  5
83
100
AcDbEntity
  8
0
  6
CONTINUOUS
 62
     0
100
AcDbLine
 10
266.935114
 20
355.092531
 30
0.0
 11
266.935114
 21
358.092531
 31
0.0
  0
LINE
  5
84
100
AcDbEntity
  8
0
  6
CONTINUOUS
 62
     0
100
AcDbLine
 10
279.935114
 20
355.092531
 30
0.0
 11
271.935114
 21
355.092531
 31
0.0
  0
LINE
  5
85
100
AcDbEntity
  8
0
  6
CONTINUOUS
 62
     0
100
AcDbLine
 10
271.935114
 20
358.092531
 30
0.0
 11
266.935114
 21
358.092531
 31
0.0
  0
LINE
  5
86
100
AcDbEntity
  8
0
  6
CONTINUOUS
 62
     0
100
AcDbLine
 10
248.935114
 20
358.092531
 30
0.0
 11
243.935114
 21
358.092531
 31
0.0
  0
LINE
  5
87
100
AcDbEntity
  8
0
  6
CONTINUOUS
 62
     0
100
AcDbLine
 10
266.935114
 20
355.092531
 30
0.0
 11
248.935114
 21
355.092531
 31
0.0
  0
LINE
  5
88
100
AcDbEntity
  8
0
  6
CONTINUOUS
 62
     0
100
AcDbLine
 10
243.935114
 20
355.092531
 30
0.0
 11
238.935114
 21
355.092531
 31
0.0
  0
LINE
  5
89
100
AcDbEntity
  8
0
  6
CONTINUOUS
 62
     0
100
AcDbLine
 10
248.935114
 20
355.092531
 30
0.0
 11
248.935114
 21
358.092531
 31
0.0
  0
LINE
  5
8A
100
AcDbEntity
  8
0
  6
CONTINUOUS
 62
     0
100
AcDbLine
 10
243.935114
 20
355.092531
 30
0.0
 11
243.935114
 21
358.092531
 31
0.0
  0
LINE
  5
8B
100
AcDbEntity
  8
0
  6
CONTINUOUS
 62
     0
100
AcDbLine
 10
271.935114
 20
346.092531
 30
0.0
 11
271.935114
 21
343.092531
 31
0.0
  0
LINE
  5
8C
100
AcDbEntity
  8
0
  6
CONTINUOUS
 62
     0
100
AcDbLine
 10
279.935114
 20
346.092531
 30
0.0
 11
271.935114
 21
346.092531
 31
0.0
  0
LINE
  5
8D
100
AcDbEntity
  8
0
  6
CONTINUOUS
 62
     0
100
AcDbLine
 10
266.935114
 20
346.092531
 30
0.0
 11
248.935114
 21
346.092531
 31
0.0
  0
LINE
  5
8E
100
AcDbEntity
  8
0
  6
CONTINUOUS
 62
     0
100
AcDbLine
 10
243.935114
 20
346.092531
 30
0.0
 11
238.935114
 21
346.092531
 31
0.0
  0
LINE
  5
8F
100
AcDbEntity
  8
0
  6
CONTINUOUS
 62
     0
100
AcDbLine
 10
248.935114
 20
346.092531
 30
0.0
 11
248.935114
 21
343.092531
 31
0.0
  0
LINE
  5
90
100
AcDbEntity
  8
0
  6
CONTINUOUS
 62
     0
100
AcDbLine
 10
279.935114
 20
355.092531
 30
0.0
 11
279.935114
 21
346.092531
 31
0.0
  0
LINE
  5
91
100
AcDbEntity
  8
0
  6
CONTINUOUS
 62
     0
100
AcDbLine
 10
266.935114
 20
346.092531
 30
0.0
 11
266.935114
 21
343.092531
 31
0.0
  0
LINE
  5
92
100
AcDbEntity
  8
0
  6
CONTINUOUS
 62
     0
100
AcDbLine
 10
271.935114
 20
343.092531
 30
0.0
 11
266.935114
 21
343.092531
 31
0.0
  0
LINE
  5
93
100
AcDbEntity
  8
0
  6
CONTINUOUS
 62
     0
100
AcDbLine
 10
248.935114
 20
343.092531
 30
0.0
 11
243.935114
 21
343.092531
 31
0.0
  0
LINE
  5
94
100
AcDbEntity
  8
0
  6
CONTINUOUS
 62
     0
100
AcDbLine
 10
243.935114
 20
346.092531
 30
0.0
 11
243.935114
 21
343.092531
 31
0.0
  0
LINE
  5
95
100
AcDbEntity
  8
0
  6
CONTINUOUS
 62
     0
100
AcDbLine
 10
198.17974
 20
358.092531
 30
0.0
 11
198.17974
 21
355.092531
 31
0.0
  0
LINE
  5
96
100
AcDbEntity
  8
0
  6
CONTINUOUS
 62
     0
100
AcDbLine
 10
203.17974
 20
358.092531
 30
0.0
 11
203.17974
 21
355.092531
 31
0.0
  0
LINE
  5
97
100
AcDbEntity
  8
0
  6
CONTINUOUS
 62
     0
100
AcDbLine
 10
190.17974
 20
355.092531
 30
0.0
 11
198.17974
 21
355.092531
 31
0.0
  0
LINE
  5
98
100
AcDbEntity
  8
0
  6
CONTINUOUS
 62
     0
100
AcDbLine
 10
203.17974
 20
355.092531
 30
0.0
 11
221.17974
 21
355.092531
 31
0.0
  0
LINE
  5
99
100
AcDbEntity
  8
0
  6
CONTINUOUS
 62
     0
100
AcDbLine
 10
221.17974
 20
358.092531
 30
0.0
 11
221.17974
 21
355.092531
 31
0.0
  0
LINE
  5
9A
100
AcDbEntity
  8
0
  6
CONTINUOUS
 62
     0
100
AcDbLine
 10
226.17974
 20
358.092531
 30
0.0
 11
226.17974
 21
355.092531
 31
0.0
  0
LINE
  5
9B
100
AcDbEntity
  8
0
  6
CONTINUOUS
 62
     0
100
AcDbLine
 10
198.17974
 20
358.092531
 30
0.0
 11
203.17974
 21
358.092531
 31
0.0
  0
LINE
  5
9C
100
AcDbEntity
  8
0
  6
CONTINUOUS
 62
     0
100
AcDbLine
 10
221.17974
 20
358.092531
 30
0.0
 11
226.17974
 21
358.092531
 31
0.0
  0
LINE
  5
9D
100
AcDbEntity
  8
0
  6
CONTINUOUS
 62
     0
100
AcDbLine
 10
226.17974
 20
355.092531
 30
0.0
 11
234.17974
 21
355.092531
 31
0.0
  0
LINE
  5
9E
100
AcDbEntity
  8
0
  6
CONTINUOUS
 62
     0
100
AcDbLine
 10
203.17974
 20
343.092531
 30
0.0
 11
203.17974
 21
346.092531
 31
0.0
  0
LINE
  5
9F
100
AcDbEntity
  8
0
  6
CONTINUOUS
 62
     0
100
AcDbLine
 10
190.17974
 20
346.092531
 30
0.0
 11
198.17974
 21
346.092531
 31
0.0
  0
LINE
  5
A0
100
AcDbEntity
  8
0
  6
CONTINUOUS
 62
     0
100
AcDbLine
 10
203.17974
 20
346.092531
 30
0.0
 11
221.17974
 21
346.092531
 31
0.0
  0
LINE
  5
A1
100
AcDbEntity
  8
0
  6
CONTINUOUS
 62
     0
100
AcDbLine
 10
226.17974
 20
343.092531
 30
0.0
 11
226.17974
 21
346.092531
 31
0.0
  0
LINE
  5
A2
100
AcDbEntity
  8
0
  6
CONTINUOUS
 62
     0
100
AcDbLine
 10
226.17974
 20
346.092531
 30
0.0
 11
234.17974
 21
346.092531
 31
0.0
  0
LINE
  5
A3
100
AcDbEntity
  8
0
  6
CONTINUOUS
 62
     0
100
AcDbLine
 10
190.17974
 20
355.092531
 30
0.0
 11
190.17974
 21
346.092531
 31
0.0
  0
LINE
  5
A4
100
AcDbEntity
  8
0
  6
CONTINUOUS
 62
     0
100
AcDbLine
 10
198.17974
 20
343.092531
 30
0.0
 11
198.17974
 21
346.092531
 31
0.0
  0
LINE
  5
A5
100
AcDbEntity
  8
0
  6
CONTINUOUS
 62
     0
100
AcDbLine
 10
221.17974
 20
343.092531
 30
0.0
 11
221.17974
 21
346.092531
 31
0.0
  0
LINE
  5
A6
100
AcDbEntity
  8
0
  6
CONTINUOUS
 62
     0
100
AcDbLine
 10
198.17974
 20
343.092531
 30
0.0
 11
203.17974
 21
343.092531
 31
0.0
  0
LINE
  5
A7
100
AcDbEntity
  8
0
  6
CONTINUOUS
 62
     0
100
AcDbLine
 10
221.17974
 20
343.092531
 30
0.0
 11
226.17974
 21
343.092531
 31
0.0
  0
LINE
  5
A8
100
AcDbEntity
  8
0
  6
CONTINUOUS
 62
     0
100
AcDbLine
 10
234.17974
 20
355.092531
 30
0.0
 11
234.17974
 21
346.092531
 31
0.0
  0
LINE
  5
A9
100
AcDbEntity
  8
0
  6
CONTINUOUS
 62
     0
100
AcDbLine
 10
238.935114
 20
355.092531
 30
0.0
 11
238.935114
 21
346.092531
 31
0.0
  0
ENDSEC
  0
SECTION
  2
OBJECTS
  0
DICTIONARY
  5
19
100
AcDbDictionary
  3
ACAD_GROUP
350
1A
  3
ACAD_MLINESTYLE
350
1B
  0
DICTIONARY
  5
1A
102
{ACAD_REACTORS
330
19
102
}
100
AcDbDictionary
  0
DICTIONARY
  5
1B
102
{ACAD_REACTORS
330
19
102
}
100
AcDbDictionary
  3
STANDARD
350
1C
  0
MLINESTYLE
  5
1C
102
{ACAD_REACTORS
330
1B
102
}
100
AcDbMlineStyle
  2
STANDARD
 70
     0
  3

 62
     0
 51
90.0
 52
90.0
 71
     2
 49
0.5
 62
   256
  6
BYLAYER
 49
-0.5
 62
   256
  6
BYLAYER
  0
ENDSEC
  0
EOF
