  0
SECTION
  2
HEADER
  9
$ACADVER
  1
AC1024
  9
$ACADMAINTVER
 70
     6
  9
$DWGCODEPAGE
  3
ANSI_1252
  9
$INSBASE
 10
0.0
 20
0.0
 30
0.0
  9
$EXTMIN
 10
1.000000000000000E+20
 20
1.000000000000000E+20
 30
1.000000000000000E+20
  9
$EXTMAX
 10
-1.000000000000000E+20
 20
-1.000000000000000E+20
 30
-1.000000000000000E+20
  9
$LIMMIN
 10
0.0
 20
0.0
  9
$LIMMAX
 10
12.0
 20
9.0
  9
$ORTHOMODE
 70
     0
  9
$REGENMODE
 70
     1
  9
$FILLMODE
 70
     1
  9
$QTEXTMODE
 70
     0
  9
$MIRRTEXT
 70
     1
  9
$LTSCALE
 40
1.0
  9
$ATTMODE
 70
     1
  9
$TEXTSIZE
 40
0.2
  9
$TRACEWID
 40
0.05
  9
$TEXTSTYLE
  7
Standard
  9
$CLAYER
  8
0
  9
$CELTYPE
  6
ByLayer
  9
$CECOLOR
 62
   256
  9
$CELTSCALE
 40
1.0
  9
$DISPSILH
 70
     0
  9
$DIMSCALE
 40
1.0
  9
$DIMASZ
 40
0.18
  9
$DIMEXO
 40
0.0625
  9
$DIMDLI
 40
0.38
  9
$DIMRND
 40
0.0
  9
$DIMDLE
 40
0.0
  9
$DIMEXE
 40
0.18
  9
$DIMTP
 40
0.0
  9
$DIMTM
 40
0.0
  9
$DIMTXT
 40
0.18
  9
$DIMCEN
 40
0.09
  9
$DIMTSZ
 40
0.0
  9
$DIMTOL
 70
     0
  9
$DIMLIM
 70
     0
  9
$DIMTIH
 70
     1
  9
$DIMTOH
 70
     1
  9
$DIMSE1
 70
     0
  9
$DIMSE2
 70
     0
  9
$DIMTAD
 70
     0
  9
$DIMZIN
 70
     0
  9
$DIMBLK
  1

  9
$DIMASO
 70
     1
  9
$DIMSHO
 70
     1
  9
$DIMPOST
  1

  9
$DIMAPOST
  1

  9
$DIMALT
 70
     0
  9
$DIMALTD
 70
     2
  9
$DIMALTF
 40
25.4
  9
$DIMLFAC
 40
1.0
  9
$DIMTOFL
 70
     0
  9
$DIMTVP
 40
0.0
  9
$DIMTIX
 70
     0
  9
$DIMSOXD
 70
     0
  9
$DIMSAH
 70
     0
  9
$DIMBLK1
  1

  9
$DIMBLK2
  1

  9
$DIMSTYLE
  2
Standard
  9
$DIMCLRD
 70
     0
  9
$DIMCLRE
 70
     0
  9
$DIMCLRT
 70
     0
  9
$DIMTFAC
 40
1.0
  9
$DIMGAP
 40
0.09
  9
$DIMJUST
 70
     0
  9
$DIMSD1
 70
     0
  9
$DIMSD2
 70
     0
  9
$DIMTOLJ
 70
     1
  9
$DIMTZIN
 70
     0
  9
$DIMALTZ
 70
     0
  9
$DIMALTTZ
 70
     0
  9
$DIMUPT
 70
     0
  9
$DIMDEC
 70
     4
  9
$DIMTDEC
 70
     4
  9
$DIMALTU
 70
     2
  9
$DIMALTTD
 70
     2
  9
$DIMTXSTY
  7
Standard
  9
$DIMAUNIT
 70
     0
  9
$DIMADEC
 70
     0
  9
$DIMALTRND
 40
0.0
  9
$DIMAZIN
 70
     0
  9
$DIMDSEP
 70
    46
  9
$DIMATFIT
 70
     3
  9
$DIMFRAC
 70
     0
  9
$DIMLDRBLK
  1

  9
$DIMLUNIT
 70
     2
  9
$DIMLWD
 70
    -2
  9
$DIMLWE
 70
    -2
  9
$DIMTMOVE
 70
     0
  9
$DIMFXL
 40
1.0
  9
$DIMFXLON
 70
     0
  9
$DIMJOGANG
 40
0.7853981633974483
  9
$DIMTFILL
 70
     0
  9
$DIMTFILLCLR
 70
     0
  9
$DIMARCSYM
 70
     0
  9
$DIMLTYPE
  6

  9
$DIMLTEX1
  6

  9
$DIMLTEX2
  6

  9
$DIMTXTDIRECTION
 70
     0
  9
$LUNITS
 70
     2
  9
$LUPREC
 70
     4
  9
$SKETCHINC
 40
0.1
  9
$FILLETRAD
 40
0.5
  9
$AUNITS
 70
     0
  9
$AUPREC
 70
     0
  9
$MENU
  1
.
  9
$ELEVATION
 40
0.0
  9
$PELEVATION
 40
0.0
  9
$THICKNESS
 40
0.0
  9
$LIMCHECK
 70
     0
  9
$CHAMFERA
 40
0.5
  9
$CHAMFERB
 40
0.5
  9
$CHAMFERC
 40
1.0
  9
$CHAMFERD
 40
0.0
  9
$SKPOLY
 70
     0
  9
$TDCREATE
 40
2458106.788314676
  9
$TDUCREATE
 40
2458106.746648009
  9
$TDUPDATE
 40
2458106.788314676
  9
$TDUUPDATE
 40
2458106.746648009
  9
$TDINDWG
 40
0.0000000116
  9
$TDUSRTIMER
 40
0.0000000116
  9
$USRTIMER
 70
     1
  9
$ANGBASE
 50
0.0
  9
$ANGDIR
 70
     0
  9
$PDMODE
 70
     0
  9
$PDSIZE
 40
0.0
  9
$PLINEWID
 40
0.0
  9
$SPLFRAME
 70
     0
  9
$SPLINETYPE
 70
     6
  9
$SPLINESEGS
 70
     8
  9
$HANDSEED
  5
D2
  9
$SURFTAB1
 70
     6
  9
$SURFTAB2
 70
     6
  9
$SURFTYPE
 70
     6
  9
$SURFU
 70
     6
  9
$SURFV
 70
     6
  9
$UCSBASE
  2

  9
$UCSNAME
  2

  9
$UCSORG
 10
0.0
 20
0.0
 30
0.0
  9
$UCSXDIR
 10
1.0
 20
0.0
 30
0.0
  9
$UCSYDIR
 10
0.0
 20
1.0
 30
0.0
  9
$UCSORTHOREF
  2

  9
$UCSORTHOVIEW
 70
     0
  9
$UCSORGTOP
 10
0.0
 20
0.0
 30
0.0
  9
$UCSORGBOTTOM
 10
0.0
 20
0.0
 30
0.0
  9
$UCSORGLEFT
 10
0.0
 20
0.0
 30
0.0
  9
$UCSORGRIGHT
 10
0.0
 20
0.0
 30
0.0
  9
$UCSORGFRONT
 10
0.0
 20
0.0
 30
0.0
  9
$UCSORGBACK
 10
0.0
 20
0.0
 30
0.0
  9
$PUCSBASE
  2

  9
$PUCSNAME
  2

  9
$PUCSORG
 10
0.0
 20
0.0
 30
0.0
  9
$PUCSXDIR
 10
1.0
 20
0.0
 30
0.0
  9
$PUCSYDIR
 10
0.0
 20
1.0
 30
0.0
  9
$PUCSORTHOREF
  2

  9
$PUCSORTHOVIEW
 70
     0
  9
$PUCSORGTOP
 10
0.0
 20
0.0
 30
0.0
  9
$PUCSORGBOTTOM
 10
0.0
 20
0.0
 30
0.0
  9
$PUCSORGLEFT
 10
0.0
 20
0.0
 30
0.0
  9
$PUCSORGRIGHT
 10
0.0
 20
0.0
 30
0.0
  9
$PUCSORGFRONT
 10
0.0
 20
0.0
 30
0.0
  9
$PUCSORGBACK
 10
0.0
 20
0.0
 30
0.0
  9
$USERI1
 70
     0
  9
$USERI2
 70
     0
  9
$USERI3
 70
     0
  9
$USERI4
 70
     0
  9
$USERI5
 70
     0
  9
$USERR1
 40
0.0
  9
$USERR2
 40
0.0
  9
$USERR3
 40
0.0
  9
$USERR4
 40
0.0
  9
$USERR5
 40
0.0
  9
$WORLDVIEW
 70
     1
  9
$SHADEDGE
 70
     3
  9
$SHADEDIF
 70
    70
  9
$TILEMODE
 70
     1
  9
$MAXACTVP
 70
    64
  9
$PINSBASE
 10
0.0
 20
0.0
 30
0.0
  9
$PLIMCHECK
 70
     0
  9
$PEXTMIN
 10
1.000000000000000E+20
 20
1.000000000000000E+20
 30
1.000000000000000E+20
  9
$PEXTMAX
 10
-1.000000000000000E+20
 20
-1.000000000000000E+20
 30
-1.000000000000000E+20
  9
$PLIMMIN
 10
0.0
 20
0.0
  9
$PLIMMAX
 10
12.0
 20
9.0
  9
$UNITMODE
 70
     0
  9
$VISRETAIN
 70
     1
  9
$PLINEGEN
 70
     0
  9
$PSLTSCALE
 70
     1
  9
$TREEDEPTH
 70
  3020
  9
$CMLSTYLE
  2
Standard
  9
$CMLJUST
 70
     0
  9
$CMLSCALE
 40
1.0
  9
$PROXYGRAPHICS
 70
     1
  9
$MEASUREMENT
 70
     0
  9
$CELWEIGHT
370
    -1
  9
$ENDCAPS
280
     0
  9
$JOINSTYLE
280
     0
  9
$LWDISPLAY
290
     1
  9
$INSUNITS
 70
     1
  9
$HYPERLINKBASE
  1

  9
$STYLESHEET
  1

  9
$XEDIT
290
     1
  9
$CEPSNTYPE
380
     0
  9
$PSTYLEMODE
290
     1
  9
$FINGERPRINTGUID
  2
{8AD7F613-206B-413E-93A7-39D05744A8DF}
  9
$VERSIONGUID
  2
{FAEB1C32-E019-11D5-929B-00C0DF256EC4}
  9
$EXTNAMES
290
     1
  9
$PSVPSCALE
 40
0.0
  9
$OLESTARTUP
290
     0
  9
$SORTENTS
280
   127
  9
$INDEXCTL
280
     0
  9
$HIDETEXT
280
     1
  9
$XCLIPFRAME
280
     2
  9
$HALOGAP
280
     0
  9
$OBSCOLOR
 70
   257
  9
$OBSLTYPE
280
     0
  9
$INTERSECTIONDISPLAY
280
     0
  9
$INTERSECTIONCOLOR
 70
   257
  9
$DIMASSOC
280
     2
  9
$PROJECTNAME
  1

  9
$CAMERADISPLAY
290
     0
  9
$LENSLENGTH
 40
50.0
  9
$CAMERAHEIGHT
 40
0.0
  9
$STEPSPERSEC
 40
2.0
  9
$STEPSIZE
 40
6.0
  9
$3DDWFPREC
 40
2.0
  9
$PSOLWIDTH
 40
0.25
  9
$PSOLHEIGHT
 40
4.0
  9
$LOFTANG1
 40
1.570796326794897
  9
$LOFTANG2
 40
1.570796326794897
  9
$LOFTMAG1
 40
0.0
  9
$LOFTMAG2
 40
0.0
  9
$LOFTPARAM
 70
     7
  9
$LOFTNORMALS
280
     1
  9
$LATITUDE
 40
37.795
  9
$LONGITUDE
 40
-122.394
  9
$NORTHDIRECTION
 40
0.0
  9
$TIMEZONE
 70
 -8000
  9
$LIGHTGLYPHDISPLAY
280
     1
  9
$TILEMODELIGHTSYNCH
280
     1
  9
$CMATERIAL
347
3C
  9
$SOLIDHIST
280
     1
  9
$SHOWHIST
280
     1
  9
$DWFFRAME
280
     2
  9
$DGNFRAME
280
     2
  9
$REALWORLDSCALE
290
     1
  9
$INTERFERECOLOR
 62
   256
  9
$CSHADOW
280
     0
  9
$SHADOWPLANELOCATION
 40
0.0
  0
ENDSEC
  0
SECTION
  2
CLASSES
  0
CLASS
  1
ACDBDICTIONARYWDFLT
  2
AcDbDictionaryWithDefault
  3
ObjectDBX Classes
 90
        0
 91
        4
280
     0
281
     0
  0
CLASS
  1
VISUALSTYLE
  2
AcDbVisualStyle
  3
ObjectDBX Classes
 90
     4095
 91
        4
280
     0
281
     0
  0
CLASS
  1
MATERIAL
  2
AcDbMaterial
  3
ObjectDBX Classes
 90
     1153
 91
        4
280
     0
281
     0
  0
CLASS
  1
SUN
  2
AcDbSun
  3
SCENEOE
 90
     1024
 91
        4
280
     0
281
     0
  0
ENDSEC
  0
SECTION
  2
TABLES
  0
TABLE
  2
VPORT
  5
8
330
0
100
AcDbSymbolTable
 70
     1
  0
VPORT
  5
29
330
8
100
AcDbSymbolTableRecord
100
AcDbViewportTableRecord
  2
*Active
 70
     0
 10
0.0
 20
0.0
 11
1.0
 21
1.0
 12
0.0
 22
0.0
 13
0.0
 23
0.0
 14
0.5
 24
0.5
 15
0.5
 25
0.5
 16
0.0
 26
0.0
 36
1.0
 17
105.0007777515277
 27
-148.5000416295416
 37
0.0
 40
297.0000832590831
 41
0.7070757462376333
 42
50.0
 43
0.0
 44
0.0
 50
0.0
 51
0.0
 71
     0
 72
   100
 73
     1
 74
     3
 75
     0
 76
     0
 77
     0
 78
     0
281
     0
 65
     1
110
0.0
120
0.0
130
0.0
111
1.0
121
0.0
131
0.0
112
0.0
122
1.0
132
0.0
 79
     0
146
0.0
 60
     3
 61
     5
292
     1
282
     1
141
0.0
142
0.0
 63
   250
361
3F
  0
ENDTAB
  0
TABLE
  2
LTYPE
  5
5
330
0
100
AcDbSymbolTable
 70
     1
  0
LTYPE
  5
14
330
5
100
AcDbSymbolTableRecord
100
AcDbLinetypeTableRecord
  2
ByBlock
 70
     0
  3

 72
    65
 73
     0
 40
0.0
  0
LTYPE
  5
15
330
5
100
AcDbSymbolTableRecord
100
AcDbLinetypeTableRecord
  2
ByLayer
 70
     0
  3

 72
    65
 73
     0
 40
0.0
  0
LTYPE
  5
16
330
5
100
AcDbSymbolTableRecord
100
AcDbLinetypeTableRecord
  2
Continuous
 70
     0
  3
Solid line
 72
    65
 73
     0
 40
0.0
  0
ENDTAB
  0
TABLE
  2
LAYER
  5
2
330
0
100
AcDbSymbolTable
 70
     2
  0
LAYER
  5
10
330
2
100
AcDbSymbolTableRecord
100
AcDbLayerTableRecord
  2
0
 70
     0
 62
     7
  6
Continuous
370
    -3
390
F
347
3E
  0
LAYER
  5
40
330
2
100
AcDbSymbolTableRecord
100
AcDbLayerTableRecord
  2
Calque 1
 70
     0
 62
     7
  6
Continuous
370
    -3
390
F
347
3E
  0
ENDTAB
  0
TABLE
  2
STYLE
  5
3
330
0
100
AcDbSymbolTable
 70
     1
  0
STYLE
  5
11
330
3
100
AcDbSymbolTableRecord
100
AcDbTextStyleTableRecord
  2
Standard
 70
     0
 40
0.0
 41
1.0
 50
0.0
 71
     0
 42
0.2
  3
txt
  4

  0
ENDTAB
  0
TABLE
  2
VIEW
  5
6
330
0
100
AcDbSymbolTable
 70
     0
  0
ENDTAB
  0
TABLE
  2
UCS
  5
7
330
0
100
AcDbSymbolTable
 70
     0
  0
ENDTAB
  0
TABLE
  2
APPID
  5
9
330
0
100
AcDbSymbolTable
 70
     1
  0
APPID
  5
12
330
9
100
AcDbSymbolTableRecord
100
AcDbRegAppTableRecord
  2
ACAD
 70
     0
  0
ENDTAB
  0
TABLE
  2
DIMSTYLE
  5
A
330
0
100
AcDbSymbolTable
 70
     1
100
AcDbDimStyleTable
  0
DIMSTYLE
105
27
330
A
100
AcDbSymbolTableRecord
100
AcDbDimStyleTableRecord
  2
Standard
 70
     0
178
     0
340
11
  0
ENDTAB
  0
TABLE
  2
BLOCK_RECORD
  5
1
330
0
100
AcDbSymbolTable
 70
     4
  0
BLOCK_RECORD
  5
1F
330
1
100
AcDbSymbolTableRecord
100
AcDbBlockTableRecord
  2
*Model_Space
340
22
 70
     0
280
     1
281
     0
  0
BLOCK_RECORD
  5
1B
330
1
100
AcDbSymbolTableRecord
100
AcDbBlockTableRecord
  2
*Paper_Space
340
1E
 70
     0
280
     1
281
     0
  0
BLOCK_RECORD
  5
23
330
1
100
AcDbSymbolTableRecord
100
AcDbBlockTableRecord
  2
*Paper_Space0
340
26
 70
     0
280
     1
281
     0
  0
BLOCK_RECORD
  5
5C
330
1
100
AcDbSymbolTableRecord
100
AcDbBlockTableRecord
  2
block 2
340
0
102
{BLKREFS
331
5D
102
}
 70
     0
280
     1
281
     0
  0
BLOCK_RECORD
  5
86
330
1
100
AcDbSymbolTableRecord
100
AcDbBlockTableRecord
  2
block 3
340
0
102
{BLKREFS
331
87
102
}
 70
     0
280
     1
281
     0
  0
BLOCK_RECORD
  5
B0
330
1
100
AcDbSymbolTableRecord
100
AcDbBlockTableRecord
  2
block 4
340
0
102
{BLKREFS
331
B1
102
}
 70
     0
280
     1
281
     0
  0
ENDTAB
  0
ENDSEC
  0
SECTION
  2
BLOCKS
  0
BLOCK
  5
20
330
1F
100
AcDbEntity
  8
0
100
AcDbBlockBegin
  2
*Model_Space
 70
     0
 10
0.0
 20
0.0
 30
0.0
  3
*Model_Space
  1

  0
ENDBLK
  5
21
330
1F
100
AcDbEntity
  8
0
100
AcDbBlockEnd
  0
BLOCK
  5
1C
330
1B
100
AcDbEntity
 67
     1
  8
0
100
AcDbBlockBegin
  2
*Paper_Space
 70
     0
 10
0.0
 20
0.0
 30
0.0
  3
*Paper_Space
  1

  0
ENDBLK
  5
1D
330
1B
100
AcDbEntity
 67
     1
  8
0
100
AcDbBlockEnd
  0
BLOCK
  5
24
330
23
100
AcDbEntity
  8
0
100
AcDbBlockBegin
  2
*Paper_Space0
 70
     0
 10
0.0
 20
0.0
 30
0.0
  3
*Paper_Space0
  1

  0
ENDBLK
  5
25
330
23
100
AcDbEntity
  8
0
100
AcDbBlockEnd
  0
BLOCK
  5
5E
330
5C
100
AcDbEntity
  8
0
100
AcDbBlockBegin
  2
block 2
 70
     0
 10
0.0
 20
0.0
 30
0.0
  3
block 2
  1

  0
SPLINE
  5
60
330
5C
100
AcDbEntity
  8
Calque 1
 62
     1
370
    13
100
AcDbSpline
210
0.0
220
0.0
230
1.0
 70
    11
 71
     3
 72
    14
 73
    10
 74
     0
 42
0.0000000001
 43
0.0000000001
 12
1.0
 22
0.0
 32
0.0
 13
1.0
 23
0.0
 33
0.0
 40
0.0
 40
0.0
 40
0.0
 40
0.0
 40
1.0
 40
1.0
 40
1.0
 40
2.0
 40
2.0
 40
2.0
 40
3.0
 40
3.0
 40
3.0
 40
3.0
 10
198.0247791139934
 20
-236.2302461754505
 30
0.0
 10
198.0247791139934
 20
-236.2302461754505
 30
0.0
 10
201.0871371687837
 20
-237.9982625638977
 30
0.0
 10
201.0871371687837
 20
-237.9982625638977
 30
0.0
 10
201.0871371687837
 20
-237.9982625638977
 30
0.0
 10
201.0871371687837
 20
-233.2882911761857
 30
0.0
 10
201.0871371687837
 20
-233.2882911761857
 30
0.0
 10
200.7925324466351
 20
-234.4959200647731
 30
0.0
 10
199.6195463358169
 20
-235.5900603422776
 30
0.0
 10
198.0247791139934
 20
-236.2302461754505
 30
0.0
  0
SPLINE
  5
61
330
5C
100
AcDbEntity
  8
Calque 1
 62
     1
370
    13
100
AcDbSpline
210
0.0
220
0.0
230
1.0
 70
    11
 71
     3
 72
    32
 73
    28
 74
     0
 42
0.0000000001
 43
0.0000000001
 12
1.0
 22
0.0
 32
0.0
 13
1.0
 23
0.0
 33
0.0
 40
0.0
 40
0.0
 40
0.0
 40
0.0
 40
1.0
 40
1.0
 40
1.0
 40
2.0
 40
2.0
 40
2.0
 40
3.0
 40
3.0
 40
3.0
 40
4.0
 40
4.0
 40
4.0
 40
5.0
 40
5.0
 40
5.0
 40
6.0
 40
6.0
 40
6.0
 40
7.0
 40
7.0
 40
7.0
 40
8.0
 40
8.0
 40
8.0
 40
9.0
 40
9.0
 40
9.0
 40
9.0
 10
170.9423818985418
 20
-95.45148704397859
 30
0.0
 10
170.9423818985418
 20
-95.45148704397859
 30
0.0
 10
174.9401302308759
 20
-99.0163417653095
 30
0.0
 10
174.9401302308759
 20
-99.0163417653095
 30
0.0
 10
176.7336524526494
 20
-100.6155892649097
 30
0.0
 10
179.4180443964227
 20
-101.598569264664
 30
0.0
 10
180.9053202293846
 20
-101.2006359314302
 30
0.0
 10
182.3925960623465
 20
-100.8028084315297
 30
0.0
 10
184.4990321729302
 20
-99.15956954305146
 30
0.0
 10
185.5862932837703
 20
-97.54913898789866
 30
0.0
 10
186.6736249501647
 20
-95.93867315496801
 30
0.0
 10
187.0387499500734
 20
-93.34272260006126
 30
0.0
 10
186.3976821724561
 20
-91.78051676711864
 30
0.0
 10
185.7566496726162
 20
-90.21824037862032
 30
0.0
 10
184.3283230063065
 20
-87.61445815704876
 30
0.0
 10
183.2236346732499
 20
-85.99429093523159
 30
0.0
 10
182.451545228998
 20
-84.86198010218155
 30
0.0
 10
181.1319799515502
 20
-83.85789693576577
 30
0.0
 10
179.8556652296466
 20
-83.33992743589539
 30
0.0
 10
179.8556652296466
 20
-83.33992743589539
 30
0.0
 10
170.8648060652278
 20
-88.53072787904203
 30
0.0
 10
170.8648060652278
 20
-88.53072787904203
 30
0.0
 10
170.8648060652278
 20
-88.53072787904203
 30
0.0
 10
170.2196107876112
 20
-89.34402176772767
 30
0.0
 10
170.2196107876112
 20
-89.34402176772767
 30
0.0
 10
168.8235632879608
 20
-91.10392426728765
 30
0.0
 10
169.1488243989901
 20
-93.85223954437838
 30
0.0
 10
170.9423818985418
 20
-95.45148704397859
 30
0.0
  0
SPLINE
  5
62
330
5C
100
AcDbEntity
  8
Calque 1
 62
     7
370
    13
100
AcDbSpline
210
0.0
220
0.0
230
1.0
 70
    11
 71
     3
 72
    17
 73
    13
 74
     0
 42
0.0000000001
 43
0.0000000001
 12
1.0
 22
0.0
 32
0.0
 13
1.0
 23
0.0
 33
0.0
 40
0.0
 40
0.0
 40
0.0
 40
0.0
 40
1.0
 40
1.0
 40
1.0
 40
2.0
 40
2.0
 40
2.0
 40
3.0
 40
3.0
 40
3.0
 40
4.0
 40
4.0
 40
4.0
 40
4.0
 10
201.0871371687837
 20
-84.7691995466492
 30
0.0
 10
201.1343035576603
 20
-84.58215676891814
 30
0.0
 10
201.1653480020975
 20
-84.39112760229914
 30
0.0
 10
201.1653480020975
 20
-84.19410121345946
 30
0.0
 10
201.1653480020975
 20
-84.19410121345946
 30
0.0
 10
201.1653480020975
 20
-77.1403060207786
 30
0.0
 10
201.1653480020975
 20
-77.1403060207786
 30
0.0
 10
201.1653480020975
 20
-76.91054538194723
 30
0.0
 10
201.1367730021046
 20
-76.70145399311056
 30
0.0
 10
201.0871371687837
 20
-76.50950760426963
 30
0.0
 10
201.0871371687837
 20
-76.50950760426963
 30
0.0
 10
201.0871371687837
 20
-84.7691995466492
 30
0.0
 10
201.0871371687837
 20
-84.7691995466492
 30
0.0
  0
SPLINE
  5
63
330
5C
100
AcDbEntity
  8
Calque 1
 62
     1
370
    13
100
AcDbSpline
210
0.0
220
0.0
230
1.0
 70
    11
 71
     3
 72
    26
 73
    22
 74
     0
 42
0.0000000001
 43
0.0000000001
 12
1.0
 22
0.0
 32
0.0
 13
1.0
 23
0.0
 33
0.0
 40
0.0
 40
0.0
 40
0.0
 40
0.0
 40
1.0
 40
1.0
 40
1.0
 40
2.0
 40
2.0
 40
2.0
 40
3.0
 40
3.0
 40
3.0
 40
4.0
 40
4.0
 40
4.0
 40
5.0
 40
5.0
 40
5.0
 40
6.0
 40
6.0
 40
6.0
 40
7.0
 40
7.0
 40
7.0
 40
7.0
 10
196.8685499476158
 20
-75.80169427111318
 30
0.0
 10
196.8685499476158
 20
-75.80169427111318
 30
0.0
 10
188.9641052273701
 20
-79.96655343673874
 30
0.0
 10
188.9641052273701
 20
-79.96655343673874
 30
0.0
 10
186.6008468946274
 20
-81.2117849086495
 30
0.0
 10
185.4540721726917
 20
-83.38441271366186
 30
0.0
 10
186.415603283563
 20
-84.79474065775393
 30
0.0
 10
187.3772755055444
 20
-86.20496982406787
 30
0.0
 10
190.6465730047269
 20
-87.4424437126475
 30
0.0
 10
193.6805677261913
 20
-87.54460815706642
 30
0.0
 10
193.6805677261913
 20
-87.54460815706642
 30
0.0
 10
195.6487855034764
 20
-87.61096565704995
 30
0.0
 10
195.6487855034764
 20
-87.61096565704995
 30
0.0
 10
198.3811905027939
 20
-87.70297010147108
 30
0.0
 10
200.6597821688905
 20
-86.46345010178119
 30
0.0
 10
201.0871371687837
 20
-84.7691995466492
 30
0.0
 10
201.0871371687837
 20
-84.7691995466492
 30
0.0
 10
201.0871371687837
 20
-76.50950760426963
 30
0.0
 10
201.0871371687837
 20
-76.50950760426963
 30
0.0
 10
200.7086066133227
 20
-75.04615010463534
 30
0.0
 10
198.9578057804275
 20
-74.70085121583283
 30
0.0
 10
196.8685499476158
 20
-75.80169427111318
 30
0.0
  0
SPLINE
  5
64
330
5C
100
AcDbEntity
  8
Calque 1
 62
     1
370
    13
100
AcDbSpline
210
0.0
220
0.0
230
1.0
 70
    11
 71
     3
 72
    32
 73
    28
 74
     0
 42
0.0000000001
 43
0.0000000001
 12
1.0
 22
0.0
 32
0.0
 13
1.0
 23
0.0
 33
0.0
 40
0.0
 40
0.0
 40
0.0
 40
0.0
 40
1.0
 40
1.0
 40
1.0
 40
2.0
 40
2.0
 40
2.0
 40
3.0
 40
3.0
 40
3.0
 40
4.0
 40
4.0
 40
4.0
 40
5.0
 40
5.0
 40
5.0
 40
6.0
 40
6.0
 40
6.0
 40
7.0
 40
7.0
 40
7.0
 40
8.0
 40
8.0
 40
8.0
 40
9.0
 40
9.0
 40
9.0
 40
9.0
 10
152.6973149586584
 20
-167.7484595259041
 30
0.0
 10
152.6973149586584
 20
-167.7484595259041
 30
0.0
 10
144.1603396830155
 20
-165.686861470864
 30
0.0
 10
144.1603396830155
 20
-165.686861470864
 30
0.0
 10
141.3113416281716
 20
-164.998874248814
 30
0.0
 10
137.39183940693
 20
-165.6829456375318
 30
0.0
 10
135.450503296304
 20
-167.2070514704839
 30
0.0
 10
135.450503296304
 20
-167.2070514704839
 30
0.0
 10
121.6329032997579
 20
-178.0550034122167
 30
0.0
 10
121.6329032997579
 20
-178.0550034122167
 30
0.0
 10
119.6914260780218
 20
-179.579215078502
 30
0.0
 10
120.2345274667746
 20
-181.6604275779822
 30
0.0
 10
122.839685521679
 20
-182.6798847999492
 30
0.0
 10
122.839685521679
 20
-182.6798847999492
 30
0.0
 10
133.8549599633693
 20
-186.9906175766493
 30
0.0
 10
133.8549599633693
 20
-186.9906175766493
 30
0.0
 10
136.4601180182738
 20
-188.0100747986169
 30
0.0
 10
139.8336613507636
 20
-188.847181187296
 30
0.0
 10
141.3518405170507
 20
-188.850708965073
 30
0.0
 10
142.8698785722265
 20
-188.8543778539613
 30
0.0
 10
145.1359113494377
 20
-187.3799784098852
 30
0.0
 10
146.3876374602362
 20
-185.5744264658922
 30
0.0
 10
146.3876374602362
 20
-185.5744264658922
 30
0.0
 10
155.6019460690439
 20
-172.282183135882
 30
0.0
 10
155.6019460690439
 20
-172.282183135882
 30
0.0
 10
156.8535663465086
 20
-170.4767370252223
 30
0.0
 10
155.5463482912798
 20
-168.4364467479548
 30
0.0
 10
152.6973149586584
 20
-167.7484595259041
 30
0.0
  0
SPLINE
  5
65
330
5C
100
AcDbEntity
  8
Calque 1
 62
     1
370
    13
100
AcDbSpline
210
0.0
220
0.0
230
1.0
 70
    11
 71
     3
 72
    32
 73
    28
 74
     0
 42
0.0000000001
 43
0.0000000001
 12
1.0
 22
0.0
 32
0.0
 13
1.0
 23
0.0
 33
0.0
 40
0.0
 40
0.0
 40
0.0
 40
0.0
 40
1.0
 40
1.0
 40
1.0
 40
2.0
 40
2.0
 40
2.0
 40
3.0
 40
3.0
 40
3.0
 40
4.0
 40
4.0
 40
4.0
 40
5.0
 40
5.0
 40
5.0
 40
6.0
 40
6.0
 40
6.0
 40
7.0
 40
7.0
 40
7.0
 40
8.0
 40
8.0
 40
8.0
 40
9.0
 40
9.0
 40
9.0
 40
9.0
 10
154.9000946803305
 20
-199.5960025734978
 30
0.0
 10
154.6500105137265
 20
-198.2086334071782
 30
0.0
 10
152.5989605142392
 20
-195.9883206299557
 30
0.0
 10
150.3419941259147
 20
-194.6617703525096
 30
0.0
 10
150.3419941259147
 20
-194.6617703525096
 30
0.0
 10
148.6887010707725
 20
-193.6900439638633
 30
0.0
 10
148.6887010707725
 20
-193.6900439638633
 30
0.0
 10
146.4318052380031
 20
-192.3634936864172
 30
0.0
 10
143.3813357943216
 20
-191.2754564644672
 30
0.0
 10
141.9097232946894
 20
-191.2720697978009
 30
0.0
 10
140.4381813506122
 20
-191.2685420200246
 30
0.0
 10
138.1671744067355
 20
-192.7301356307701
 30
0.0
 10
136.8629902403952
 20
-194.5195656303224
 30
0.0
 10
136.8629902403952
 20
-194.5195656303224
 30
0.0
 10
133.9689424633407
 20
-198.4909261848853
 30
0.0
 10
133.9689424633407
 20
-198.4909261848853
 30
0.0
 10
133.8391202411514
 20
-198.6690789626189
 30
0.0
 10
133.7212219078472
 20
-198.8537581292391
 30
0.0
 10
133.6100969078754
 20
-199.0410125736369
 30
0.0
 10
133.6100969078754
 20
-199.0410125736369
 30
0.0
 10
142.6825535722737
 20
-204.2789159056605
 30
0.0
 10
142.6825535722737
 20
-204.2789159056605
 30
0.0
 10
142.6825535722737
 20
-204.2789159056605
 30
0.0
 10
150.010453570442
 20
-203.0293417393066
 30
0.0
 10
150.010453570442
 20
-203.0293417393066
 30
0.0
 10
152.9498332919293
 20
-202.5283620172092
 30
0.0
 10
155.1501435691564
 20
-200.9832659064842
 30
0.0
 10
154.9000946803305
 20
-199.5960025734978
 30
0.0
  0
SPLINE
  5
66
330
5C
100
AcDbEntity
  8
Calque 1
 62
     1
370
    13
100
AcDbSpline
210
0.0
220
0.0
230
1.0
 70
    11
 71
     3
 72
    26
 73
    22
 74
     0
 42
0.0000000001
 43
0.0000000001
 12
1.0
 22
0.0
 32
0.0
 13
1.0
 23
0.0
 33
0.0
 40
0.0
 40
0.0
 40
0.0
 40
0.0
 40
1.0
 40
1.0
 40
1.0
 40
2.0
 40
2.0
 40
2.0
 40
3.0
 40
3.0
 40
3.0
 40
4.0
 40
4.0
 40
4.0
 40
5.0
 40
5.0
 40
5.0
 40
6.0
 40
6.0
 40
6.0
 40
7.0
 40
7.0
 40
7.0
 40
7.0
 10
130.9765755196445
 20
-188.675413687339
 30
0.0
 10
130.9765755196445
 20
-188.675413687339
 30
0.0
 10
119.6650383002499
 20
-184.2485111884459
 30
0.0
 10
119.6650383002499
 20
-184.2485111884459
 30
0.0
 10
117.0599508009011
 20
-183.229124522034
 30
0.0
 10
112.4653377464947
 20
-182.6132803555215
 30
0.0
 10
109.4549438583583
 20
-182.8801920221216
 30
0.0
 10
109.4549438583583
 20
-182.8801920221216
 30
0.0
 10
108.3505377475231
 20
-182.9782642443194
 30
0.0
 10
108.3505377475231
 20
-182.9782642443194
 30
0.0
 10
107.6496035810317
 20
-183.0403884109701
 30
0.0
 10
107.030125803409
 20
-183.1848156331564
 30
0.0
 10
106.4996185813193
 20
-183.389038688661
 30
0.0
 10
106.4996185813193
 20
-183.389038688661
 30
0.0
 10
130.7242335752632
 20
-197.3748784073865
 30
0.0
 10
130.7242335752632
 20
-197.3748784073865
 30
0.0
 10
130.7242335752632
 20
-197.3748784073865
 30
0.0
 10
133.3419857968306
 20
-193.7826834082846
 30
0.0
 10
133.3419857968306
 20
-193.7826834082846
 30
0.0
 10
134.646134685394
 20
-191.9931475753984
 30
0.0
 10
133.5816982967714
 20
-189.6947297981953
 30
0.0
 10
130.9765755196445
 20
-188.675413687339
 30
0.0
  0
SPLINE
  5
67
330
5C
100
AcDbEntity
  8
Calque 1
 62
     1
370
    13
100
AcDbSpline
210
0.0
220
0.0
230
1.0
 70
    11
 71
     3
 72
    44
 73
    40
 74
     0
 42
0.0000000001
 43
0.0000000001
 12
1.0
 22
0.0
 32
0.0
 13
1.0
 23
0.0
 33
0.0
 40
0.0
 40
0.0
 40
0.0
 40
0.0
 40
1.0
 40
1.0
 40
1.0
 40
2.0
 40
2.0
 40
2.0
 40
3.0
 40
3.0
 40
3.0
 40
4.0
 40
4.0
 40
4.0
 40
5.0
 40
5.0
 40
5.0
 40
6.0
 40
6.0
 40
6.0
 40
7.0
 40
7.0
 40
7.0
 40
8.0
 40
8.0
 40
8.0
 40
9.0
 40
9.0
 40
9.0
 40
10.0
 40
10.0
 40
10.0
 40
11.0
 40
11.0
 40
11.0
 40
12.0
 40
12.0
 40
12.0
 40
13.0
 40
13.0
 40
13.0
 40
13.0
 10
108.8975902473863
 20
-180.4880411893864
 30
0.0
 10
111.9080899688559
 20
-180.2210589672306
 30
0.0
 10
115.9596016345096
 20
-178.7555848009303
 30
0.0
 10
117.9008319118024
 20
-177.2314084124226
 30
0.0
 10
117.9008319118024
 20
-177.2314084124226
 30
0.0
 10
132.7057863525456
 20
-165.6081567486617
 30
0.0
 10
132.7057863525456
 20
-165.6081567486617
 30
0.0
 10
134.647122463171
 20
-164.083980360154
 30
0.0
 10
135.1410113519369
 20
-161.3814203608291
 30
0.0
 10
133.8033838522714
 20
-159.6023620279406
 30
0.0
 10
133.8033838522714
 20
-159.6023620279406
 30
0.0
 10
130.0438663532113
 20
-154.6023720291909
 30
0.0
 10
130.0438663532113
 20
-154.6023720291909
 30
0.0
 10
128.7062035757676
 20
-152.8233842518581
 30
0.0
 10
125.1387735766595
 20
-151.5321823077362
 30
0.0
 10
122.1162441329704
 20
-151.7331598076859
 30
0.0
 10
122.1162441329704
 20
-151.7331598076859
 30
0.0
 10
98.3127752500327
 20
-153.3160031406231
 30
0.0
 10
98.3127752500327
 20
-153.3160031406231
 30
0.0
 10
95.29031636189931
 20
-153.517015918351
 30
0.0
 10
91.46962719618794
 20
-154.1127164737581
 30
0.0
 10
89.82233136326646
 20
-154.6398370291816
 30
0.0
 10
88.17542358590055
 20
-155.1668870290494
 30
0.0
 10
87.58864830826941
 20
-157.1415253618893
 30
0.0
 10
88.51888803025922
 20
-159.0276517503065
 30
0.0
 10
88.51888803025922
 20
-159.0276517503065
 30
0.0
 10
97.66535747241694
 20
-177.5737439678926
 30
0.0
 10
97.66535747241694
 20
-177.5737439678926
 30
0.0
 10
97.83910052792916
 20
-177.925957301138
 30
0.0
 10
98.01580691677356
 20
-178.2679400788303
 30
0.0
 10
98.19039663895234
 20
-178.5917900787492
 30
0.0
 10
98.19039663895234
 20
-178.5917900787492
 30
0.0
 10
102.4078902490091
 20
-181.0267328559178
 30
0.0
 10
102.4078902490091
 20
-181.0267328559178
 30
0.0
 10
103.4275944154207
 20
-180.9592817448238
 30
0.0
 10
104.6693369151103
 20
-180.8630439670698
 30
0.0
 10
105.9665713592308
 20
-180.7479678559876
 30
0.0
 10
105.9665713592308
 20
-180.7479678559876
 30
0.0
 10
108.8975902473863
 20
-180.4880411893864
 30
0.0
 10
108.8975902473863
 20
-180.4880411893864
 30
0.0
  0
SPLINE
  5
68
330
5C
100
AcDbEntity
  8
Calque 1
 62
     7
370
    13
100
AcDbSpline
210
0.0
220
0.0
230
1.0
 70
    11
 71
     3
 72
    14
 73
    10
 74
     0
 42
0.0000000001
 43
0.0000000001
 12
1.0
 22
0.0
 32
0.0
 13
1.0
 23
0.0
 33
0.0
 40
0.0
 40
0.0
 40
0.0
 40
0.0
 40
1.0
 40
1.0
 40
1.0
 40
2.0
 40
2.0
 40
2.0
 40
3.0
 40
3.0
 40
3.0
 40
3.0
 10
201.1653480020975
 20
-92.48864760027469
 30
0.0
 10
201.1653480020975
 20
-92.36457565586153
 30
0.0
 10
201.1343035576603
 20
-92.24258510033646
 30
0.0
 10
201.0871371687837
 20
-92.1222173225885
 30
0.0
 10
201.0871371687837
 20
-92.1222173225885
 30
0.0
 10
201.0871371687837
 20
-92.86079287795947
 30
0.0
 10
201.0871371687837
 20
-92.86079287795947
 30
0.0
 10
201.1349032798826
 20
-92.7418714891004
 30
0.0
 10
201.1653480020975
 20
-92.61854037801996
 30
0.0
 10
201.1653480020975
 20
-92.48864760027469
 30
0.0
  0
SPLINE
  5
69
330
5C
100
AcDbEntity
  8
Calque 1
 62
     1
370
    13
100
AcDbSpline
210
0.0
220
0.0
230
1.0
 70
    11
 71
     3
 72
    23
 73
    19
 74
     0
 42
0.0000000001
 43
0.0000000001
 12
1.0
 22
0.0
 32
0.0
 13
1.0
 23
0.0
 33
0.0
 40
0.0
 40
0.0
 40
0.0
 40
0.0
 40
1.0
 40
1.0
 40
1.0
 40
2.0
 40
2.0
 40
2.0
 40
3.0
 40
3.0
 40
3.0
 40
4.0
 40
4.0
 40
4.0
 40
5.0
 40
5.0
 40
5.0
 40
6.0
 40
6.0
 40
6.0
 40
6.0
 10
195.6487855034764
 20
-90.0341256564439
 30
0.0
 10
195.6487855034764
 20
-90.0341256564439
 30
0.0
 10
194.8981802258866
 20
-90.00883148978373
 30
0.0
 10
194.8981802258866
 20
-90.00883148978373
 30
0.0
 10
191.8641502266453
 20
-89.90666704536481
 30
0.0
 10
189.7352068938438
 20
-90.68454204517032
 30
0.0
 10
190.1672538381804
 20
-91.73751315601824
 30
0.0
 10
190.5991596714057
 20
-92.79041371131049
 30
0.0
 10
193.2506021707424
 20
-93.90060537769959
 30
0.0
 10
196.0589955033739
 20
-94.20459398873484
 30
0.0
 10
198.5750771694115
 20
-94.47693843311117
 30
0.0
 10
200.675868835553
 20
-93.88413065548153
 30
0.0
 10
201.0871371687837
 20
-92.86079287795947
 30
0.0
 10
201.0871371687837
 20
-92.86079287795947
 30
0.0
 10
201.0871371687837
 20
-92.1222173225885
 30
0.0
 10
201.0871371687837
 20
-92.1222173225885
 30
0.0
 10
200.6597821688905
 20
-91.03181648952804
 30
0.0
 10
198.3811905027939
 20
-90.12620065642103
 30
0.0
 10
195.6487855034764
 20
-90.0341256564439
 30
0.0
  0
SPLINE
  5
6A
330
5C
100
AcDbEntity
  8
Calque 1
 62
     7
370
    13
100
AcDbSpline
210
0.0
220
0.0
230
1.0
 70
    11
 71
     3
 72
    17
 73
    13
 74
     0
 42
0.0000000001
 43
0.0000000001
 12
1.0
 22
0.0
 32
0.0
 13
1.0
 23
0.0
 33
0.0
 40
0.0
 40
0.0
 40
0.0
 40
0.0
 40
1.0
 40
1.0
 40
1.0
 40
2.0
 40
2.0
 40
2.0
 40
3.0
 40
3.0
 40
3.0
 40
4.0
 40
4.0
 40
4.0
 40
4.0
 10
201.1653480020975
 20
-105.8037156525017
 30
0.0
 10
201.1653480020975
 20
-105.8037156525017
 30
0.0
 10
201.1653480020975
 20
-100.8120159315274
 30
0.0
 10
201.1653480020975
 20
-100.8120159315274
 30
0.0
 10
201.1653480020975
 20
-100.6099800982443
 30
0.0
 10
201.1346210576605
 20
-100.4097434316279
 30
0.0
 10
201.0871371687837
 20
-100.2114117650108
 30
0.0
 10
201.0871371687837
 20
-100.2114117650108
 30
0.0
 10
201.0871371687837
 20
-106.451521485673
 30
0.0
 10
201.0871371687837
 20
-106.451521485673
 30
0.0
 10
201.1374785576601
 20
-106.2564706523886
 30
0.0
 10
201.1653480020975
 20
-106.0412056524423
 30
0.0
 10
201.1653480020975
 20
-105.8037156525017
 30
0.0
  0
SPLINE
  5
6B
330
5C
100
AcDbEntity
  8
Calque 1
 62
     1
370
    13
100
AcDbSpline
210
0.0
220
0.0
230
1.0
 70
    11
 71
     3
 72
    23
 73
    19
 74
     0
 42
0.0000000001
 43
0.0000000001
 12
1.0
 22
0.0
 32
0.0
 13
1.0
 23
0.0
 33
0.0
 40
0.0
 40
0.0
 40
0.0
 40
0.0
 40
1.0
 40
1.0
 40
1.0
 40
2.0
 40
2.0
 40
2.0
 40
3.0
 40
3.0
 40
3.0
 40
4.0
 40
4.0
 40
4.0
 40
5.0
 40
5.0
 40
5.0
 40
6.0
 40
6.0
 40
6.0
 40
6.0
 10
195.8784085589747
 20
-96.63724371034891
 30
0.0
 10
192.9705671708126
 20
-96.32260121042738
 30
0.0
 10
189.8259766160437
 20
-97.1989717657638
 30
0.0
 10
188.8903393940552
 20
-98.58489454319516
 30
0.0
 10
187.9547374498449
 20
-99.97081732062652
 30
0.0
 10
189.0270407829102
 20
-102.1963864867367
 30
0.0
 10
191.2731063379042
 20
-103.5305567641809
 30
0.0
 10
191.2731063379042
 20
-103.5305567641809
 30
0.0
 10
197.0813455031187
 20
-106.9804412077628
 30
0.0
 10
197.0813455031187
 20
-106.9804412077628
 30
0.0
 10
199.058347447069
 20
-108.154767874136
 30
0.0
 10
200.7174966133205
 20
-107.8839403742039
 30
0.0
 10
201.0871371687837
 20
-106.451521485673
 30
0.0
 10
201.0871371687837
 20
-106.451521485673
 30
0.0
 10
201.0871371687837
 20
-100.2114117650108
 30
0.0
 10
201.0871371687837
 20
-100.2114117650108
 30
0.0
 10
200.6687780022215
 20
-98.46449148766969
 30
0.0
 10
198.4897755027662
 20
-96.91985398805592
 30
0.0
 10
195.8784085589747
 20
-96.63724371034891
 30
0.0
  0
SPLINE
  5
6C
330
5C
100
AcDbEntity
  8
Calque 1
 62
     7
370
    13
100
AcDbSpline
210
0.0
220
0.0
230
1.0
 70
    11
 71
     3
 72
    17
 73
    13
 74
     0
 42
0.0000000001
 43
0.0000000001
 12
1.0
 22
0.0
 32
0.0
 13
1.0
 23
0.0
 33
0.0
 40
0.0
 40
0.0
 40
0.0
 40
0.0
 40
1.0
 40
1.0
 40
1.0
 40
2.0
 40
2.0
 40
2.0
 40
3.0
 40
3.0
 40
3.0
 40
4.0
 40
4.0
 40
4.0
 40
4.0
 10
201.1653480020975
 20
-232.7011278429993
 30
0.0
 10
201.1653480020975
 20
-232.7011278429993
 30
0.0
 10
201.1653480020975
 20
-224.4751967339446
 30
0.0
 10
201.1653480020975
 20
-224.4751967339446
 30
0.0
 10
201.1653480020975
 20
-224.2762300673282
 30
0.0
 10
201.1344446687716
 20
-224.0861534007089
 30
0.0
 10
201.0871371687837
 20
-223.9016506229769
 30
0.0
 10
201.0871371687837
 20
-223.9016506229769
 30
0.0
 10
201.0871371687837
 20
-233.2882911761857
 30
0.0
 10
201.0871371687837
 20
-233.2882911761857
 30
0.0
 10
201.1343741132166
 20
-233.0946867317901
 30
0.0
 10
201.1653480020975
 20
-232.8990008985055
 30
0.0
 10
201.1653480020975
 20
-232.7011278429993
 30
0.0
  0
SPLINE
  5
6D
330
5C
100
AcDbEntity
  8
Calque 1
 62
     1
370
    13
100
AcDbSpline
210
0.0
220
0.0
230
1.0
 70
    11
 71
     3
 72
    26
 73
    22
 74
     0
 42
0.0000000001
 43
0.0000000001
 12
1.0
 22
0.0
 32
0.0
 13
1.0
 23
0.0
 33
0.0
 40
0.0
 40
0.0
 40
0.0
 40
0.0
 40
1.0
 40
1.0
 40
1.0
 40
2.0
 40
2.0
 40
2.0
 40
3.0
 40
3.0
 40
3.0
 40
4.0
 40
4.0
 40
4.0
 40
5.0
 40
5.0
 40
5.0
 40
6.0
 40
6.0
 40
6.0
 40
7.0
 40
7.0
 40
7.0
 40
7.0
 10
195.7416366145641
 20
-221.5557842346745
 30
0.0
 10
195.7416366145641
 20
-221.5557842346745
 30
0.0
 10
188.8091652274086
 20
-222.4290856233452
 30
0.0
 10
188.8091652274086
 20
-222.4290856233452
 30
0.0
 10
185.8261821725993
 20
-222.804899789918
 30
0.0
 10
182.4031793956768
 20
-224.6016322894689
 30
0.0
 10
181.2026413404215
 20
-226.4217186779025
 30
0.0
 10
181.2026413404215
 20
-226.4217186779025
 30
0.0
 10
181.1566038404333
 20
-226.4915334001076
 30
0.0
 10
181.1566038404333
 20
-226.4915334001076
 30
0.0
 10
181.1566038404333
 20
-226.4915334001076
 30
0.0
 10
198.0247791139934
 20
-236.2302461754505
 30
0.0
 10
198.0247791139934
 20
-236.2302461754505
 30
0.0
 10
199.6195463358169
 20
-235.5900603422776
 30
0.0
 10
200.7925324466351
 20
-234.4959200647731
 30
0.0
 10
201.0871371687837
 20
-233.2882911761857
 30
0.0
 10
201.0871371687837
 20
-233.2882911761857
 30
0.0
 10
201.0871371687837
 20
-223.9016506229769
 30
0.0
 10
201.0871371687837
 20
-223.9016506229769
 30
0.0
 10
200.6634157800007
 20
-222.2490278456127
 30
0.0
 10
198.4251818916712
 20
-221.2177172903145
 30
0.0
 10
195.7416366145641
 20
-221.5557842346745
 30
0.0
  0
SPLINE
  5
6E
330
5C
100
AcDbEntity
  8
Calque 1
 62
     1
370
    13
100
AcDbSpline
210
0.0
220
0.0
230
1.0
 70
    11
 71
     3
 72
    20
 73
    16
 74
     0
 42
0.0000000001
 43
0.0000000001
 12
1.0
 22
0.0
 32
0.0
 13
1.0
 23
0.0
 33
0.0
 40
0.0
 40
0.0
 40
0.0
 40
0.0
 40
1.0
 40
1.0
 40
1.0
 40
2.0
 40
2.0
 40
2.0
 40
3.0
 40
3.0
 40
3.0
 40
4.0
 40
4.0
 40
4.0
 40
5.0
 40
5.0
 40
5.0
 40
5.0
 10
176.6907193971047
 20
-219.3207253463449
 30
0.0
 10
176.6907193971047
 20
-219.3207253463449
 30
0.0
 10
172.865373564728
 20
-215.9760745138475
 30
0.0
 10
172.865373564728
 20
-215.9760745138475
 30
0.0
 10
171.0487091207375
 20
-214.3878689586889
 30
0.0
 10
167.951179121512
 20
-212.6531195146781
 30
0.0
 10
165.9819030108929
 20
-212.1211306259222
 30
0.0
 10
164.0795488447025
 20
-211.6071334038284
 30
0.0
 10
160.7819938455267
 20
-212.1913686814602
 30
0.0
 10
158.5141266238711
 20
-213.4191411811536
 30
0.0
 10
158.5141266238711
 20
-213.4191411811536
 30
0.0
 10
178.1873791189528
 20
-224.7772803449806
 30
0.0
 10
178.1873791189528
 20
-224.7772803449806
 30
0.0
 10
178.8604791187844
 20
-223.0046072898681
 30
0.0
 10
178.275397174487
 20
-220.7061189571093
 30
0.0
 10
176.6907193971047
 20
-219.3207253463449
 30
0.0
  0
SPLINE
  5
6F
330
5C
100
AcDbEntity
  8
Calque 1
 62
     7
370
    13
100
AcDbSpline
210
0.0
220
0.0
230
1.0
 70
    11
 71
     3
 72
    17
 73
    13
 74
     0
 42
0.0000000001
 43
0.0000000001
 12
1.0
 22
0.0
 32
0.0
 13
1.0
 23
0.0
 33
0.0
 40
0.0
 40
0.0
 40
0.0
 40
0.0
 40
1.0
 40
1.0
 40
1.0
 40
2.0
 40
2.0
 40
2.0
 40
3.0
 40
3.0
 40
3.0
 40
4.0
 40
4.0
 40
4.0
 40
4.0
 10
201.1653480020975
 20
-160.2203228611197
 30
0.0
 10
201.1653480020975
 20
-160.2203228611197
 30
0.0
 10
201.1653480020975
 20
-141.5275103657929
 30
0.0
 10
201.1653480020975
 20
-141.5275103657929
 30
0.0
 10
201.1653480020975
 20
-141.318912865845
 30
0.0
 10
201.1350796687715
 20
-141.1064348103427
 30
0.0
 10
201.0871371687837
 20
-140.8928631437293
 30
0.0
 10
201.0871371687837
 20
-140.8928631437293
 30
0.0
 10
201.0871371687837
 20
-162.0211475828917
 30
0.0
 10
201.0871371687837
 20
-162.0211475828917
 30
0.0
 10
201.1365613354382
 20
-161.4865128608033
 30
0.0
 10
201.1653480020975
 20
-160.8721503609569
 30
0.0
 10
201.1653480020975
 20
-160.2203228611197
 30
0.0
  0
SPLINE
  5
70
330
5C
100
AcDbEntity
  8
Calque 1
 62
     1
370
    13
100
AcDbSpline
210
0.0
220
0.0
230
1.0
 70
    11
 71
     3
 72
    35
 73
    31
 74
     0
 42
0.0000000001
 43
0.0000000001
 12
1.0
 22
0.0
 32
0.0
 13
1.0
 23
0.0
 33
0.0
 40
0.0
 40
0.0
 40
0.0
 40
0.0
 40
1.0
 40
1.0
 40
1.0
 40
2.0
 40
2.0
 40
2.0
 40
3.0
 40
3.0
 40
3.0
 40
4.0
 40
4.0
 40
4.0
 40
5.0
 40
5.0
 40
5.0
 40
6.0
 40
6.0
 40
6.0
 40
7.0
 40
7.0
 40
7.0
 40
8.0
 40
8.0
 40
8.0
 40
9.0
 40
9.0
 40
9.0
 40
10.0
 40
10.0
 40
10.0
 40
10.0
 10
196.1518818922397
 20
-136.4124089781828
 30
0.0
 10
196.1518818922397
 20
-136.4124089781828
 30
0.0
 10
183.2116402288079
 20
-132.5084642569364
 30
0.0
 10
183.2116402288079
 20
-132.5084642569364
 30
0.0
 10
180.4542938406084
 20
-131.6765789793668
 30
0.0
 10
176.1131516194716
 20
-131.8785089793163
 30
0.0
 10
173.5646849534419
 20
-132.9572328679354
 30
0.0
 10
173.5646849534419
 20
-132.9572328679354
 30
0.0
 10
157.6142963463184
 20
-139.7088350884696
 30
0.0
 10
157.6142963463184
 20
-139.7088350884696
 30
0.0
 10
155.0658296802894
 20
-140.787558977089
 30
0.0
 10
154.8200141247947
 20
-142.76075092104
 30
0.0
 10
157.0678082908993
 20
-144.0936864762624
 30
0.0
 10
157.0678082908993
 20
-144.0936864762624
 30
0.0
 10
185.8505943948147
 20
-161.1604756386621
 30
0.0
 10
185.8505943948147
 20
-161.1604756386621
 30
0.0
 10
188.0986002275864
 20
-162.4933053605516
 30
0.0
 10
192.2021818932272
 20
-163.6678084158134
 30
0.0
 10
194.9696530036467
 20
-163.7702550824544
 30
0.0
 10
197.7371593918437
 20
-163.8727017490954
 30
0.0
 10
200.2632599467675
 20
-163.9264650824156
 30
0.0
 10
200.583370502243
 20
-163.8897409157579
 30
0.0
 10
200.7981416133004
 20
-163.8650817490973
 30
0.0
 10
200.9863132799195
 20
-163.1116895270635
 30
0.0
 10
201.0871371687837
 20
-162.0211475828917
 30
0.0
 10
201.0871371687837
 20
-162.0211475828917
 30
0.0
 10
201.0871371687837
 20
-140.8928631437293
 30
0.0
 10
201.0871371687837
 20
-140.8928631437293
 30
0.0
 10
200.6795377244413
 20
-139.077433421961
 30
0.0
 10
198.6189627249563
 20
-137.1567700891077
 30
0.0
 10
196.1518818922397
 20
-136.4124089781828
 30
0.0
  0
SPLINE
  5
71
330
5C
100
AcDbEntity
  8
Calque 1
 62
     7
370
    13
100
AcDbSpline
210
0.0
220
0.0
230
1.0
 70
    11
 71
     3
 72
    20
 73
    16
 74
     0
 42
0.0000000001
 43
0.0000000001
 12
1.0
 22
0.0
 32
0.0
 13
1.0
 23
0.0
 33
0.0
 40
0.0
 40
0.0
 40
0.0
 40
0.0
 40
1.0
 40
1.0
 40
1.0
 40
2.0
 40
2.0
 40
2.0
 40
3.0
 40
3.0
 40
3.0
 40
4.0
 40
4.0
 40
4.0
 40
5.0
 40
5.0
 40
5.0
 40
5.0
 10
201.1653480020975
 20
-175.7998009127804
 30
0.0
 10
201.1653480020975
 20
-175.7998009127804
 30
0.0
 10
201.1653480020975
 20
-169.8815303587043
 30
0.0
 10
201.1653480020975
 20
-169.8815303587043
 30
0.0
 10
201.1653480020975
 20
-167.9001186925332
 30
0.0
 10
201.1527185576563
 20
-166.2804806373827
 30
0.0
 10
201.1371963354374
 20
-166.2822092484934
 30
0.0
 10
201.1357146687713
 20
-166.2823503596041
 30
0.0
 10
201.115923835443
 20
-166.2979078596005
 30
0.0
 10
201.0871371687837
 20
-166.3210148040388
 30
0.0
 10
201.0871371687837
 20
-166.3210148040388
 30
0.0
 10
201.0871371687837
 20
-176.5893175792495
 30
0.0
 10
201.0871371687837
 20
-176.5893175792495
 30
0.0
 10
201.1381135576593
 20
-176.3156678570956
 30
0.0
 10
201.1653480020975
 20
-176.0509081349395
 30
0.0
 10
201.1653480020975
 20
-175.7998009127804
 30
0.0
  0
SPLINE
  5
72
330
5C
100
AcDbEntity
  8
Calque 1
 62
     1
370
    13
100
AcDbSpline
210
0.0
220
0.0
230
1.0
 70
    11
 71
     3
 72
    26
 73
    22
 74
     0
 42
0.0000000001
 43
0.0000000001
 12
1.0
 22
0.0
 32
0.0
 13
1.0
 23
0.0
 33
0.0
 40
0.0
 40
0.0
 40
0.0
 40
0.0
 40
1.0
 40
1.0
 40
1.0
 40
2.0
 40
2.0
 40
2.0
 40
3.0
 40
3.0
 40
3.0
 40
4.0
 40
4.0
 40
4.0
 40
5.0
 40
5.0
 40
5.0
 40
6.0
 40
6.0
 40
6.0
 40
7.0
 40
7.0
 40
7.0
 40
7.0
 10
173.4423768979169
 20
-189.4994320204666
 30
0.0
 10
171.57791106505
 20
-191.0638250756308
 30
0.0
 10
171.9439885649581
 20
-193.1111709084523
 30
0.0
 10
174.2558824532693
 20
-194.0489600748849
 30
0.0
 10
176.5677763415798
 20
-194.9867492413168
 30
0.0
 10
180.1279743962458
 20
-194.5525150747592
 30
0.0
 10
182.1673121735132
 20
-193.0837247973484
 30
0.0
 10
182.1673121735132
 20
-193.0837247973484
 30
0.0
 10
197.4573360585803
 20
-182.0725778556567
 30
0.0
 10
197.4573360585803
 20
-182.0725778556567
 30
0.0
 10
199.2382288359126
 20
-180.7900542448661
 30
0.0
 10
200.7360174466491
 20
-178.4750206343339
 30
0.0
 10
201.0871371687837
 20
-176.5893175792495
 30
0.0
 10
201.0871371687837
 20
-176.5893175792495
 30
0.0
 10
201.0871371687837
 20
-166.3210148040388
 30
0.0
 10
201.0871371687837
 20
-166.3210148040388
 30
0.0
 10
200.8176502244067
 20
-166.5373734150961
 30
0.0
 10
199.4036110580937
 20
-167.7163920259124
 30
0.0
 10
197.7191324474036
 20
-169.1298314700037
 30
0.0
 10
197.7191324474036
 20
-169.1298314700037
 30
0.0
 10
173.4423768979169
 20
-189.4994320204666
 30
0.0
 10
173.4423768979169
 20
-189.4994320204666
 30
0.0
  0
SPLINE
  5
73
330
5C
100
AcDbEntity
  8
Calque 1
 62
     7
370
    13
100
AcDbSpline
210
0.0
220
0.0
230
1.0
 70
    11
 71
     3
 72
    17
 73
    13
 74
     0
 42
0.0000000001
 43
0.0000000001
 12
1.0
 22
0.0
 32
0.0
 13
1.0
 23
0.0
 33
0.0
 40
0.0
 40
0.0
 40
0.0
 40
0.0
 40
1.0
 40
1.0
 40
1.0
 40
2.0
 40
2.0
 40
2.0
 40
3.0
 40
3.0
 40
3.0
 40
4.0
 40
4.0
 40
4.0
 40
4.0
 10
201.1653480020975
 20
-194.7565264635968
 30
0.0
 10
201.1653480020975
 20
-194.7565264635968
 30
0.0
 10
201.1653480020975
 20
-186.5804428545293
 30
0.0
 10
201.1653480020975
 20
-186.5804428545293
 30
0.0
 10
201.1653480020975
 20
-186.3293356323702
 30
0.0
 10
201.1381135576593
 20
-186.103804799093
 30
0.0
 10
201.0871371687837
 20
-185.9035328546987
 30
0.0
 10
201.0871371687837
 20
-185.9035328546987
 30
0.0
 10
201.0871371687837
 20
-195.3607289634457
 30
0.0
 10
201.0871371687837
 20
-195.3607289634457
 30
0.0
 10
201.1345505021048
 20
-195.1595750746071
 30
0.0
 10
201.1653480020975
 20
-194.9577509079911
 30
0.0
 10
201.1653480020975
 20
-194.7565264635968
 30
0.0
  0
SPLINE
  5
74
330
5C
100
AcDbEntity
  8
Calque 1
 62
     1
370
    13
100
AcDbSpline
210
0.0
220
0.0
230
1.0
 70
    11
 71
     3
 72
    26
 73
    22
 74
     0
 42
0.0000000001
 43
0.0000000001
 12
1.0
 22
0.0
 32
0.0
 13
1.0
 23
0.0
 33
0.0
 40
0.0
 40
0.0
 40
0.0
 40
0.0
 40
1.0
 40
1.0
 40
1.0
 40
2.0
 40
2.0
 40
2.0
 40
3.0
 40
3.0
 40
3.0
 40
4.0
 40
4.0
 40
4.0
 40
5.0
 40
5.0
 40
5.0
 40
6.0
 40
6.0
 40
6.0
 40
7.0
 40
7.0
 40
7.0
 40
7.0
 10
197.4573360585803
 20
-185.6480511880958
 30
0.0
 10
197.4573360585803
 20
-185.6480511880958
 30
0.0
 10
184.6911549506603
 20
-194.8416164635756
 30
0.0
 10
184.6911549506603
 20
-194.8416164635756
 30
0.0
 10
182.6518171733923
 20
-196.3102303520969
 30
0.0
 10
181.6565605069749
 20
-198.4074589626838
 30
0.0
 10
182.4795205067692
 20
-199.5019520179661
 30
0.0
 10
183.3024452287854
 20
-200.5966214621366
 30
0.0
 10
186.3698480057962
 20
-201.0557617397994
 30
0.0
 10
189.2959280050649
 20
-200.5223970177107
 30
0.0
 10
189.2959280050649
 20
-200.5223970177107
 30
0.0
 10
195.8452827256497
 20
-199.328773406898
 30
0.0
 10
195.8452827256497
 20
-199.328773406898
 30
0.0
 10
198.4740768916591
 20
-198.8495600736848
 30
0.0
 10
200.6674374466668
 20
-197.1399284074456
 30
0.0
 10
201.0871371687837
 20
-195.3607289634457
 30
0.0
 10
201.0871371687837
 20
-195.3607289634457
 30
0.0
 10
201.0871371687837
 20
-185.9035328546987
 30
0.0
 10
201.0871371687837
 20
-185.9035328546987
 30
0.0
 10
200.7360174466491
 20
-184.5235014661552
 30
0.0
 10
199.2382288359126
 20
-184.3655275773058
 30
0.0
 10
197.4573360585803
 20
-185.6480511880958
 30
0.0
  0
SPLINE
  5
75
330
5C
100
AcDbEntity
  8
Calque 1
 62
     7
370
    13
100
AcDbSpline
210
0.0
220
0.0
230
1.0
 70
    11
 71
     3
 72
    17
 73
    13
 74
     0
 42
0.0000000001
 43
0.0000000001
 12
1.0
 22
0.0
 32
0.0
 13
1.0
 23
0.0
 33
0.0
 40
0.0
 40
0.0
 40
0.0
 40
0.0
 40
1.0
 40
1.0
 40
1.0
 40
2.0
 40
2.0
 40
2.0
 40
3.0
 40
3.0
 40
3.0
 40
4.0
 40
4.0
 40
4.0
 40
4.0
 10
201.1653480020975
 20
-131.6629970349256
 30
0.0
 10
201.1653480020975
 20
-131.6629970349256
 30
0.0
 10
201.1653480020975
 20
-117.9244898161379
 30
0.0
 10
201.1653480020975
 20
-117.9244898161379
 30
0.0
 10
201.1653480020975
 20
-117.7274987050761
 30
0.0
 10
201.1343035576603
 20
-117.5344234273465
 30
0.0
 10
201.0871371687837
 20
-117.3442409273941
 30
0.0
 10
201.0871371687837
 20
-117.3442409273941
 30
0.0
 10
201.0871371687837
 20
-132.2504425903344
 30
0.0
 10
201.0871371687837
 20
-132.2504425903344
 30
0.0
 10
201.1350796687715
 20
-132.0657987014916
 30
0.0
 10
201.1653480020975
 20
-131.8715592570959
 30
0.0
 10
201.1653480020975
 20
-131.6629970349256
 30
0.0
  0
SPLINE
  5
76
330
5C
100
AcDbEntity
  8
Calque 1
 62
     1
370
    13
100
AcDbSpline
210
0.0
220
0.0
230
1.0
 70
    11
 71
     3
 72
    32
 73
    28
 74
     0
 42
0.0000000001
 43
0.0000000001
 12
1.0
 22
0.0
 32
0.0
 13
1.0
 23
0.0
 33
0.0
 40
0.0
 40
0.0
 40
0.0
 40
0.0
 40
1.0
 40
1.0
 40
1.0
 40
2.0
 40
2.0
 40
2.0
 40
3.0
 40
3.0
 40
3.0
 40
4.0
 40
4.0
 40
4.0
 40
5.0
 40
5.0
 40
5.0
 40
6.0
 40
6.0
 40
6.0
 40
7.0
 40
7.0
 40
7.0
 40
8.0
 40
8.0
 40
8.0
 40
9.0
 40
9.0
 40
9.0
 40
9.0
 10
195.6484680034768
 20
-114.1405248170839
 30
0.0
 10
195.6484680034768
 20
-114.1405248170839
 30
0.0
 10
174.8582857864519
 20
-113.4567709283661
 30
0.0
 10
174.8582857864519
 20
-113.4567709283661
 30
0.0
 10
171.8239030094329
 20
-113.3569348172798
 30
0.0
 10
168.5154824547047
 20
-114.1626439837452
 30
0.0
 10
167.5058677327343
 20
-115.2471534279185
 30
0.0
 10
166.4962882885421
 20
-116.3316628720918
 30
0.0
 10
167.1907666217018
 20
-118.5015637048826
 30
0.0
 10
169.0490588434598
 20
-120.0690612044907
 30
0.0
 10
169.0490588434598
 20
-120.0690612044907
 30
0.0
 10
175.835162730652
 20
-125.7929864808375
 30
0.0
 10
175.835162730652
 20
-125.7929864808375
 30
0.0
 10
177.69345495241
 20
-127.3604839804459
 30
0.0
 10
181.4700468959102
 20
-129.3236570355105
 30
0.0
 10
184.2273932841097
 20
-130.1555775908582
 30
0.0
 10
184.2273932841097
 20
-130.1555775908582
 30
0.0
 10
196.151740781129
 20
-133.7530995344032
 30
0.0
 10
196.151740781129
 20
-133.7530995344032
 30
0.0
 10
198.6189627249563
 20
-134.497319534217
 30
0.0
 10
200.6795377244413
 20
-133.8199156454977
 30
0.0
 10
201.0871371687837
 20
-132.2504425903344
 30
0.0
 10
201.0871371687837
 20
-132.2504425903344
 30
0.0
 10
201.0871371687837
 20
-117.3442409273941
 30
0.0
 10
201.0871371687837
 20
-117.3442409273941
 30
0.0
 10
200.6597468911123
 20
-115.6215212056027
 30
0.0
 10
198.38108466946
 20
-114.2303420392838
 30
0.0
 10
195.6484680034768
 20
-114.1405248170839
 30
0.0
  0
SPLINE
  5
77
330
5C
100
AcDbEntity
  8
Calque 1
 62
     7
370
    13
100
AcDbSpline
210
0.0
220
0.0
230
1.0
 70
    11
 71
     3
 72
    17
 73
    13
 74
     0
 42
0.0000000001
 43
0.0000000001
 12
1.0
 22
0.0
 32
0.0
 13
1.0
 23
0.0
 33
0.0
 40
0.0
 40
0.0
 40
0.0
 40
0.0
 40
1.0
 40
1.0
 40
1.0
 40
2.0
 40
2.0
 40
2.0
 40
3.0
 40
3.0
 40
3.0
 40
4.0
 40
4.0
 40
4.0
 40
4.0
 10
201.1653480020975
 20
-214.8066514585839
 30
0.0
 10
201.1653480020975
 20
-214.8066514585839
 30
0.0
 10
201.1653480020975
 20
-204.4720970167232
 30
0.0
 10
201.1653480020975
 20
-204.4720970167232
 30
0.0
 10
201.1653480020975
 20
-204.2708372945514
 30
0.0
 10
201.1345505021048
 20
-204.0802314612655
 30
0.0
 10
201.0871371687837
 20
-203.896363683534
 30
0.0
 10
201.0871371687837
 20
-203.896363683534
 30
0.0
 10
201.0871371687837
 20
-215.3998825695473
 30
0.0
 10
201.0871371687837
 20
-215.3998825695473
 30
0.0
 10
201.1344446687716
 20
-215.2034911807072
 30
0.0
 10
201.1653480020975
 20
-215.0055828474235
 30
0.0
 10
201.1653480020975
 20
-214.8066514585839
 30
0.0
  0
SPLINE
  5
78
330
5C
100
AcDbEntity
  8
Calque 1
 62
     1
370
    13
100
AcDbSpline
210
0.0
220
0.0
230
1.0
 70
    11
 71
     3
 72
    35
 73
    31
 74
     0
 42
0.0000000001
 43
0.0000000001
 12
1.0
 22
0.0
 32
0.0
 13
1.0
 23
0.0
 33
0.0
 40
0.0
 40
0.0
 40
0.0
 40
0.0
 40
1.0
 40
1.0
 40
1.0
 40
2.0
 40
2.0
 40
2.0
 40
3.0
 40
3.0
 40
3.0
 40
4.0
 40
4.0
 40
4.0
 40
5.0
 40
5.0
 40
5.0
 40
6.0
 40
6.0
 40
6.0
 40
7.0
 40
7.0
 40
7.0
 40
8.0
 40
8.0
 40
8.0
 40
9.0
 40
9.0
 40
9.0
 40
10.0
 40
10.0
 40
10.0
 40
10.0
 10
195.8452827256497
 20
-201.8391047951596
 30
0.0
 10
195.8452827256497
 20
-201.8391047951596
 30
0.0
 10
189.3376968939432
 20
-203.0250025726409
 30
0.0
 10
189.3376968939432
 20
-203.0250025726409
 30
0.0
 10
186.4116168946744
 20
-203.5584025725072
 30
0.0
 10
182.381483562349
 20
-205.2151528498713
 30
0.0
 10
180.3817274517375
 20
-206.70673257172
 30
0.0
 10
180.3817274517375
 20
-206.70673257172
 30
0.0
 10
176.7146730082104
 20
-209.442242015481
 30
0.0
 10
176.7146730082104
 20
-209.442242015481
 30
0.0
 10
174.7149521753771
 20
-210.9339628484412
 30
0.0
 10
174.5650921754143
 20
-213.4538897922554
 30
0.0
 10
176.381650786071
 20
-215.0420953474141
 30
0.0
 10
176.381650786071
 20
-215.0420953474141
 30
0.0
 10
179.5661405074974
 20
-217.8261822911627
 30
0.0
 10
179.5661405074974
 20
-217.8261822911627
 30
0.0
 10
181.3827343959322
 20
-219.4144936796545
 30
0.0
 10
185.3095038393947
 20
-220.4065047905176
 30
0.0
 10
188.2926280053154
 20
-220.0308317350562
 30
0.0
 10
188.2926280053154
 20
-220.0308317350562
 30
0.0
 10
195.7416366145641
 20
-219.0923370130681
 30
0.0
 10
195.7416366145641
 20
-219.0923370130681
 30
0.0
 10
198.4251818916712
 20
-218.7543759020419
 30
0.0
 10
200.6634157800007
 20
-217.1591147913293
 30
0.0
 10
201.0871371687837
 20
-215.3998825695473
 30
0.0
 10
201.0871371687837
 20
-215.3998825695473
 30
0.0
 10
201.0871371687837
 20
-203.896363683534
 30
0.0
 10
201.0871371687837
 20
-203.896363683534
 30
0.0
 10
200.6674374466668
 20
-202.270093406163
 30
0.0
 10
198.4740768916591
 20
-201.3598914619457
 30
0.0
 10
195.8452827256497
 20
-201.8391047951596
 30
0.0
  0
SPLINE
  5
79
330
5C
100
AcDbEntity
  8
Calque 1
 62
     1
370
    13
100
AcDbSpline
210
0.0
220
0.0
230
1.0
 70
    11
 71
     3
 72
    32
 73
    28
 74
     0
 42
0.0000000001
 43
0.0000000001
 12
1.0
 22
0.0
 32
0.0
 13
1.0
 23
0.0
 33
0.0
 40
0.0
 40
0.0
 40
0.0
 40
0.0
 40
1.0
 40
1.0
 40
1.0
 40
2.0
 40
2.0
 40
2.0
 40
3.0
 40
3.0
 40
3.0
 40
4.0
 40
4.0
 40
4.0
 40
5.0
 40
5.0
 40
5.0
 40
6.0
 40
6.0
 40
6.0
 40
7.0
 40
7.0
 40
7.0
 40
8.0
 40
8.0
 40
8.0
 40
9.0
 40
9.0
 40
9.0
 40
9.0
 10
162.7041035672686
 20
-195.6081672967172
 30
0.0
 10
160.1952538456731
 20
-196.464288407614
 30
0.0
 10
158.3667007905745
 20
-198.4084467404614
 30
0.0
 10
158.6407032905067
 20
-199.9286014623038
 30
0.0
 10
158.9146705126602
 20
-201.4487914619236
 30
0.0
 10
160.0984163456975
 20
-204.0690836834911
 30
0.0
 10
161.271155512071
 20
-205.7514809052921
 30
0.0
 10
162.4438241228889
 20
-207.4338428493163
 30
0.0
 10
164.9346469000436
 20
-209.2242959044244
 30
0.0
 10
166.8062388440201
 20
-209.7300734042978
 30
0.0
 10
168.6779366213305
 20
-210.2358509041712
 30
0.0
 10
171.8453166205387
 20
-209.4291539599283
 30
0.0
 10
173.845037453372
 20
-207.9374331269681
 30
0.0
 10
173.845037453372
 20
-207.9374331269681
 30
0.0
 10
177.1886652303142
 20
-205.4432589609254
 30
0.0
 10
177.1886652303142
 20
-205.4432589609254
 30
0.0
 10
179.1883155075912
 20
-203.9515028501871
 30
0.0
 10
180.0505396740425
 20
-201.7016625729716
 30
0.0
 10
179.1047777298348
 20
-200.4435511843971
 30
0.0
 10
178.1588746745156
 20
-199.1855456291564
 30
0.0
 10
175.2741402307923
 20
-197.2999836851833
 30
0.0
 10
172.6942410647708
 20
-196.2535036854445
 30
0.0
 10
172.6942410647708
 20
-196.2535036854445
 30
0.0
 10
171.9563710649547
 20
-195.9541011855198
 30
0.0
 10
171.9563710649547
 20
-195.9541011855198
 30
0.0
 10
169.3766130100446
 20
-194.9077622968924
 30
0.0
 10
165.2130591221966
 20
-194.7520461858203
 30
0.0
 10
162.7041035672686
 20
-195.6081672967172
 30
0.0
  0
SPLINE
  5
7A
330
5C
100
AcDbEntity
  8
Calque 1
 62
     1
370
    13
100
AcDbSpline
210
0.0
220
0.0
230
1.0
 70
    11
 71
     3
 72
    23
 73
    19
 74
     0
 42
0.0000000001
 43
0.0000000001
 12
1.0
 22
0.0
 32
0.0
 13
1.0
 23
0.0
 33
0.0
 40
0.0
 40
0.0
 40
0.0
 40
0.0
 40
1.0
 40
1.0
 40
1.0
 40
2.0
 40
2.0
 40
2.0
 40
3.0
 40
3.0
 40
3.0
 40
4.0
 40
4.0
 40
4.0
 40
5.0
 40
5.0
 40
5.0
 40
6.0
 40
6.0
 40
6.0
 40
6.0
 10
80.31214803231079
 20
-155.1633592512731
 30
0.0
 10
78.76426497714213
 20
-154.7644028624832
 30
0.0
 10
75.02026970030032
 20
-154.5694225847548
 30
0.0
 10
71.99191942327948
 20
-154.7299364736035
 30
0.0
 10
71.99191942327948
 20
-154.7299364736035
 30
0.0
 10
61.36628803704711
 20
-155.2933931401294
 30
0.0
 10
61.36628803704711
 20
-155.2933931401294
 30
0.0
 10
60.45608609283016
 20
-155.3416178623392
 30
0.0
 10
59.37584525976686
 20
-155.4217336956525
 30
0.0
 10
58.23171637116404
 20
-155.5220284178501
 30
0.0
 10
58.23171637116404
 20
-155.5220284178501
 30
0.0
 10
92.7831599736373
 20
-175.4699536906408
 30
0.0
 10
92.7831599736373
 20
-175.4699536906408
 30
0.0
 10
92.7831599736373
 20
-175.4699536906408
 30
0.0
 10
84.81775525340645
 20
-159.3182700835672
 30
0.0
 10
84.81775525340645
 20
-159.3182700835672
 30
0.0
 10
83.88755080919448
 20
-157.4320025840393
 30
0.0
 10
81.86013692081266
 20
-155.5622803622841
 30
0.0
 10
80.31214803231079
 20
-155.1633592512731
 30
0.0
  0
SPLINE
  5
7B
330
5C
100
AcDbEntity
  8
Calque 1
 62
     1
370
    13
100
AcDbSpline
210
0.0
220
0.0
230
1.0
 70
    11
 71
     3
 72
    26
 73
    22
 74
     0
 42
0.0000000001
 43
0.0000000001
 12
1.0
 22
0.0
 32
0.0
 13
1.0
 23
0.0
 33
0.0
 40
0.0
 40
0.0
 40
0.0
 40
0.0
 40
1.0
 40
1.0
 40
1.0
 40
2.0
 40
2.0
 40
2.0
 40
3.0
 40
3.0
 40
3.0
 40
4.0
 40
4.0
 40
4.0
 40
5.0
 40
5.0
 40
5.0
 40
6.0
 40
6.0
 40
6.0
 40
7.0
 40
7.0
 40
7.0
 40
7.0
 10
82.05494080965288
 20
-153.015718696254
 30
0.0
 10
83.4087960870922
 20
-153.3645806406113
 30
0.0
 10
85.944703864236
 20
-153.1929189739875
 30
0.0
 10
87.69056580824378
 20
-152.6342953630165
 30
0.0
 10
89.43649830780755
 20
-152.0756364742666
 30
0.0
 10
91.73929052945388
 20
-150.1009981414274
 30
0.0
 10
92.80813664029786
 20
-148.2461984196688
 30
0.0
 10
92.80813664029786
 20
-148.2461984196688
 30
0.0
 10
104.9039341372739
 20
-127.2565203693606
 30
0.0
 10
104.9039341372739
 20
-127.2565203693606
 30
0.0
 10
105.0618021927901
 20
-126.982517869429
 30
0.0
 10
105.1557821927664
 20
-126.7091856472751
 30
0.0
 10
105.2029485816436
 20
-126.4399809251204
 30
0.0
 10
105.2029485816436
 20
-126.4399809251204
 30
0.0
 10
79.54690247694646
 20
-141.2522731436394
 30
0.0
 10
79.54690247694646
 20
-141.2522731436394
 30
0.0
 10
79.54690247694646
 20
-141.2522731436394
 30
0.0
 10
79.57851136582752
 20
-148.778787030647
 30
0.0
 10
79.57851136582752
 20
-148.778787030647
 30
0.0
 10
79.5866958102698
 20
-150.7602339745956
 30
0.0
 10
80.70112080999107
 20
-152.666786196341
 30
0.0
 10
82.05494080965288
 20
-153.015718696254
 30
0.0
  0
SPLINE
  5
7C
330
5C
100
AcDbEntity
  8
Calque 1
 62
     1
370
    13
100
AcDbSpline
210
0.0
220
0.0
230
1.0
 70
    11
 71
     3
 72
    41
 73
    37
 74
     0
 42
0.0000000001
 43
0.0000000001
 12
1.0
 22
0.0
 32
0.0
 13
1.0
 23
0.0
 33
0.0
 40
0.0
 40
0.0
 40
0.0
 40
0.0
 40
1.0
 40
1.0
 40
1.0
 40
2.0
 40
2.0
 40
2.0
 40
3.0
 40
3.0
 40
3.0
 40
4.0
 40
4.0
 40
4.0
 40
5.0
 40
5.0
 40
5.0
 40
6.0
 40
6.0
 40
6.0
 40
7.0
 40
7.0
 40
7.0
 40
8.0
 40
8.0
 40
8.0
 40
9.0
 40
9.0
 40
9.0
 40
10.0
 40
10.0
 40
10.0
 40
11.0
 40
11.0
 40
11.0
 40
12.0
 40
12.0
 40
12.0
 40
12.0
 10
143.7203905164586
 20
-142.5551520322025
 30
0.0
 10
143.7203905164586
 20
-142.5551520322025
 30
0.0
 10
142.4961105167646
 20
-142.5229786988772
 30
0.0
 10
142.4961105167646
 20
-142.5229786988772
 30
0.0
 10
139.4604577397459
 20
-142.4430039766753
 30
0.0
 10
135.8185563517673
 20
-143.8119581429995
 30
0.0
 10
134.4029296854551
 20
-145.5651578647836
 30
0.0
 10
134.4029296854551
 20
-145.5651578647836
 30
0.0
 10
133.3149630190601
 20
-146.9125573088906
 30
0.0
 10
133.3149630190601
 20
-146.9125573088906
 30
0.0
 10
131.8993716305247
 20
-148.6657217528969
 30
0.0
 10
131.8356952416523
 20
-151.5556773077303
 30
0.0
 10
133.1733580190953
 20
-153.3346650850637
 30
0.0
 10
133.1733580190953
 20
-153.3346650850637
 30
0.0
 10
137.2854063514011
 20
-158.8034967503628
 30
0.0
 10
137.2854063514011
 20
-158.8034967503628
 30
0.0
 10
138.6229632955109
 20
-160.5824845276956
 30
0.0
 10
142.0485413502096
 20
-162.6009731383021
 30
0.0
 10
144.8977510717199
 20
-163.2890309159077
 30
0.0
 10
144.8977510717199
 20
-163.2890309159077
 30
0.0
 10
155.3417371802199
 20
-165.8112156374999
 30
0.0
 10
155.3417371802199
 20
-165.8112156374999
 30
0.0
 10
158.1908763461745
 20
-166.4992028595499
 30
0.0
 10
162.964806344981
 20
-166.7618811928176
 30
0.0
 10
165.9503646775679
 20
-166.3948511929094
 30
0.0
 10
165.9503646775679
 20
-166.3948511929094
 30
0.0
 10
179.7796063407769
 20
-164.6951678600012
 30
0.0
 10
179.7796063407769
 20
-164.6951678600012
 30
0.0
 10
182.7651646733638
 20
-164.328208415648
 30
0.0
 10
183.3687321732135
 20
-162.9373820271071
 30
0.0
 10
181.1207968959976
 20
-161.6044464718844
 30
0.0
 10
181.1207968959976
 20
-161.6044464718844
 30
0.0
 10
153.3269880140574
 20
-145.1240798093381
 30
0.0
 10
153.3269880140574
 20
-145.1240798093381
 30
0.0
 10
151.0789821812857
 20
-143.7911795318935
 30
0.0
 10
146.7560785712548
 20
-142.6351973099604
 30
0.0
 10
143.7203905164586
 20
-142.5551520322025
 30
0.0
  0
SPLINE
  5
7D
330
5C
100
AcDbEntity
  8
Calque 1
 62
     1
370
    13
100
AcDbSpline
210
0.0
220
0.0
230
1.0
 70
    11
 71
     3
 72
    38
 73
    34
 74
     0
 42
0.0000000001
 43
0.0000000001
 12
1.0
 22
0.0
 32
0.0
 13
1.0
 23
0.0
 33
0.0
 40
0.0
 40
0.0
 40
0.0
 40
0.0
 40
1.0
 40
1.0
 40
1.0
 40
2.0
 40
2.0
 40
2.0
 40
3.0
 40
3.0
 40
3.0
 40
4.0
 40
4.0
 40
4.0
 40
5.0
 40
5.0
 40
5.0
 40
6.0
 40
6.0
 40
6.0
 40
7.0
 40
7.0
 40
7.0
 40
8.0
 40
8.0
 40
8.0
 40
9.0
 40
9.0
 40
9.0
 40
10.0
 40
10.0
 40
10.0
 40
11.0
 40
11.0
 40
11.0
 40
11.0
 10
132.7739077414176
 20
-137.4485525890349
 30
0.0
 10
132.7739077414176
 20
-137.4485525890349
 30
0.0
 10
131.9982552416112
 20
-135.1734887007146
 30
0.0
 10
131.9982552416112
 20
-135.1734887007146
 30
0.0
 10
131.3387724639985
 20
-133.2393492567539
 30
0.0
 10
128.7751010757508
 20
-130.7157534240513
 30
0.0
 10
126.3012116319242
 20
-129.5656273132279
 30
0.0
 10
126.3012116319242
 20
-129.5656273132279
 30
0.0
 10
117.7366138562878
 20
-125.5837539808898
 30
0.0
 10
117.7366138562878
 20
-125.5837539808898
 30
0.0
 10
115.2626538569068
 20
-124.4336278700663
 30
0.0
 10
112.6679380242219
 20
-123.6025539813851
 30
0.0
 10
111.9707080243963
 20
-123.737103425796
 30
0.0
 10
111.2731605245706
 20
-123.8715117590958
 30
0.0
 10
109.8283238582649
 20
-125.4990520364665
 30
0.0
 10
108.7594777474209
 20
-127.3538870360029
 30
0.0
 10
108.7594777474209
 20
-127.3538870360029
 30
0.0
 10
97.0190685836895
 20
-147.7268036975767
 30
0.0
 10
97.0190685836895
 20
-147.7268036975767
 30
0.0
 10
95.95022247284551
 20
-149.5814623082239
 30
0.0
 10
97.54883497244587
 20
-150.9345767523301
 30
0.0
 10
100.5711174716904
 20
-150.7336345301579
 30
0.0
 10
100.5711174716904
 20
-150.7336345301579
 30
0.0
 10
122.0373630218793
 20
-149.3061898082926
 30
0.0
 10
122.0373630218793
 20
-149.3061898082926
 30
0.0
 10
125.059963021124
 20
-149.1051770305653
 30
0.0
 10
128.6911046868828
 20
-147.5063528642982
 30
0.0
 10
130.1067666309732
 20
-145.7532236980694
 30
0.0
 10
130.1067666309732
 20
-145.7532236980694
 30
0.0
 10
131.3990269084278
 20
-144.1527767540256
 30
0.0
 10
131.3990269084278
 20
-144.1527767540256
 30
0.0
 10
132.8145830191851
 20
-142.3996475877971
 30
0.0
 10
133.4332846856972
 20
-139.3826567552181
 30
0.0
 10
132.7739077414176
 20
-137.4485525890349
 30
0.0
  0
SPLINE
  5
7E
330
5C
100
AcDbEntity
  8
Calque 1
 62
     1
370
    13
100
AcDbSpline
210
0.0
220
0.0
230
1.0
 70
    11
 71
     3
 72
    32
 73
    28
 74
     0
 42
0.0000000001
 43
0.0000000001
 12
1.0
 22
0.0
 32
0.0
 13
1.0
 23
0.0
 33
0.0
 40
0.0
 40
0.0
 40
0.0
 40
0.0
 40
1.0
 40
1.0
 40
1.0
 40
2.0
 40
2.0
 40
2.0
 40
3.0
 40
3.0
 40
3.0
 40
4.0
 40
4.0
 40
4.0
 40
5.0
 40
5.0
 40
5.0
 40
6.0
 40
6.0
 40
6.0
 40
7.0
 40
7.0
 40
7.0
 40
8.0
 40
8.0
 40
8.0
 40
9.0
 40
9.0
 40
9.0
 40
9.0
 10
147.2972749600087
 20
-109.1121714850077
 30
0.0
 10
147.2972749600087
 20
-109.1121714850077
 30
0.0
 10
152.8392021808453
 20
-113.2377312061987
 30
0.0
 10
152.8392021808453
 20
-113.2377312061987
 30
0.0
 10
154.841392458123
 20
-114.7280762058259
 30
0.0
 10
157.8218002351554
 20
-115.9752867610699
 30
0.0
 10
159.4625696791896
 20
-116.009294538839
 30
0.0
 10
161.1032685676681
 20
-116.0433023166084
 30
0.0
 10
163.3354346782219
 20
-115.115285094618
 30
0.0
 10
164.4229427335052
 20
-113.9470262060212
 30
0.0
 10
165.5103449554553
 20
-112.7786262063133
 30
0.0
 10
165.3048166221735
 20
-110.3675664846939
 30
0.0
 10
163.9660602336197
 20
-108.5888609295832
 30
0.0
 10
163.9660602336197
 20
-108.5888609295832
 30
0.0
 10
157.4850738463508
 20
-99.97780232062479
 30
0.0
 10
157.4850738463508
 20
-99.97780232062479
 30
0.0
 10
156.7696757909744
 20
-99.02734843197355
 30
0.0
 10
155.938637180071
 20
-98.17087454329864
 30
0.0
 10
155.1974157913675
 20
-97.57612648789195
 30
0.0
 10
155.1974157913675
 20
-97.57612648789195
 30
0.0
 10
145.5990027382116
 20
-103.117665653173
 30
0.0
 10
145.5990027382116
 20
-103.117665653173
 30
0.0
 10
144.4218185718385
 20
-104.3588084306406
 30
0.0
 10
143.5871463498256
 20
-105.4336517637053
 30
0.0
 10
143.6082777387092
 20
-105.7252931525211
 30
0.0
 10
143.635159405369
 20
-106.097720652428
 30
0.0
 10
145.2951552382874
 20
-107.6218264853804
 30
0.0
 10
147.2972749600087
 20
-109.1121714850077
 30
0.0
  0
SPLINE
  5
7F
330
5C
100
AcDbEntity
  8
Calque 1
 62
     1
370
    13
100
AcDbSpline
210
0.0
220
0.0
230
1.0
 70
    11
 71
     3
 72
    26
 73
    22
 74
     0
 42
0.0000000001
 43
0.0000000001
 12
1.0
 22
0.0
 32
0.0
 13
1.0
 23
0.0
 33
0.0
 40
0.0
 40
0.0
 40
0.0
 40
0.0
 40
1.0
 40
1.0
 40
1.0
 40
2.0
 40
2.0
 40
2.0
 40
3.0
 40
3.0
 40
3.0
 40
4.0
 40
4.0
 40
4.0
 40
5.0
 40
5.0
 40
5.0
 40
6.0
 40
6.0
 40
6.0
 40
7.0
 40
7.0
 40
7.0
 40
7.0
 10
181.6790324514133
 20
-103.6037934308295
 30
0.0
 10
180.0698718962605
 20
-104.0342175973884
 30
0.0
 10
177.321062730281
 20
-105.7115348191913
 30
0.0
 10
175.5706852307187
 20
-107.3310670410087
 30
0.0
 10
175.5706852307187
 20
-107.3310670410087
 30
0.0
 10
174.8643535642283
 20
-107.9847995408453
 30
0.0
 10
174.8643535642283
 20
-107.9847995408453
 30
0.0
 10
173.1140113424435
 20
-109.6042964848848
 30
0.0
 10
174.1645835644027
 20
-111.0110331511999
 30
0.0
 10
177.1987193969779
 20
-111.110833984508
 30
0.0
 10
177.1987193969779
 20
-111.110833984508
 30
0.0
 10
194.2970116149255
 20
-111.6730206510342
 30
0.0
 10
194.2970116149255
 20
-111.6730206510342
 30
0.0
 10
197.3312532808338
 20
-111.7728214843426
 30
0.0
 10
197.9760605028945
 20
-110.7628187068173
 30
0.0
 10
195.7298538367891
 20
-109.4287189849287
 30
0.0
 10
195.7298538367891
 20
-109.4287189849287
 30
0.0
 10
188.6891149496609
 20
-105.2468206526409
 30
0.0
 10
188.6891149496609
 20
-105.2468206526409
 30
0.0
 10
186.4429435613337
 20
-103.9126503751967
 30
0.0
 10
183.2884046732332
 20
-103.1732281531592
 30
0.0
 10
181.6790324514133
 20
-103.6037934308295
 30
0.0
  0
SPLINE
  5
80
330
5C
100
AcDbEntity
  8
Calque 1
 62
     1
370
    13
100
AcDbSpline
210
0.0
220
0.0
230
1.0
 70
    11
 71
     3
 72
    26
 73
    22
 74
     0
 42
0.0000000001
 43
0.0000000001
 12
1.0
 22
0.0
 32
0.0
 13
1.0
 23
0.0
 33
0.0
 40
0.0
 40
0.0
 40
0.0
 40
0.0
 40
1.0
 40
1.0
 40
1.0
 40
2.0
 40
2.0
 40
2.0
 40
3.0
 40
3.0
 40
3.0
 40
4.0
 40
4.0
 40
4.0
 40
5.0
 40
5.0
 40
5.0
 40
6.0
 40
6.0
 40
6.0
 40
7.0
 40
7.0
 40
7.0
 40
7.0
 10
172.0537730093752
 20
-100.5016773204937
 30
0.0
 10
172.0537730093752
 20
-100.5016773204937
 30
0.0
 10
168.2118818992251
 20
-97.07599343246144
 30
0.0
 10
168.2118818992251
 20
-97.07599343246144
 30
0.0
 10
166.418359677451
 20
-95.47678121063875
 30
0.0
 10
163.535142178172
 20
-94.60556121085675
 30
0.0
 10
161.80483773416
 20
-95.14009009961195
 30
0.0
 10
160.0745685679256
 20
-95.67461898836714
 30
0.0
 10
159.7540346791166
 20
-97.56720121011632
 30
0.0
 10
161.0928969010043
 20
-99.34587148744949
 30
0.0
 10
161.0928969010043
 20
-99.34587148744949
 30
0.0
 10
166.3001438441471
 20
-106.2645845412751
 30
0.0
 10
166.3001438441471
 20
-106.2645845412751
 30
0.0
 10
167.6388649549234
 20
-108.043184263053
 30
0.0
 10
170.1662002320694
 20
-108.1733945407981
 30
0.0
 10
171.9165777316317
 20
-106.5538623189808
 30
0.0
 10
171.9165777316317
 20
-106.5538623189808
 30
0.0
 10
172.1324424537999
 20
-106.3541548190308
 30
0.0
 10
172.1324424537999
 20
-106.3541548190308
 30
0.0
 10
173.8828199533623
 20
-104.7345520416578
 30
0.0
 10
173.8472952311493
 20
-102.1009248200939
 30
0.0
 10
172.0537730093752
 20
-100.5016773204937
 30
0.0
  0
SPLINE
  5
81
330
5C
100
AcDbEntity
  8
Calque 1
 62
     1
370
    13
100
AcDbSpline
210
0.0
220
0.0
230
1.0
 70
    11
 71
     3
 72
    35
 73
    31
 74
     0
 42
0.0000000001
 43
0.0000000001
 12
1.0
 22
0.0
 32
0.0
 13
1.0
 23
0.0
 33
0.0
 40
0.0
 40
0.0
 40
0.0
 40
0.0
 40
1.0
 40
1.0
 40
1.0
 40
2.0
 40
2.0
 40
2.0
 40
3.0
 40
3.0
 40
3.0
 40
4.0
 40
4.0
 40
4.0
 40
5.0
 40
5.0
 40
5.0
 40
6.0
 40
6.0
 40
6.0
 40
7.0
 40
7.0
 40
7.0
 40
8.0
 40
8.0
 40
8.0
 40
9.0
 40
9.0
 40
9.0
 40
10.0
 40
10.0
 40
10.0
 40
10.0
 10
159.35440801255
 20
-172.6700975802294
 30
0.0
 10
159.35440801255
 20
-172.6700975802294
 30
0.0
 10
149.7830882927203
 20
-186.4772200767778
 30
0.0
 10
149.7830882927203
 20
-186.4772200767778
 30
0.0
 10
148.5315032930338
 20
-188.282701465215
 30
0.0
 10
149.3540046817171
 20
-190.8452792423525
 30
0.0
 10
151.6108652367084
 20
-192.1718295197986
 30
0.0
 10
151.6108652367084
 20
-192.1718295197986
 30
0.0
 10
152.3505696809677
 20
-192.6065222974679
 30
0.0
 10
152.3505696809677
 20
-192.6065222974679
 30
0.0
 10
154.6074655137365
 20
-193.9329314638026
 30
0.0
 10
158.6365052349518
 20
-194.2735736859395
 30
0.0
 10
161.3039285676183
 20
-193.3632306306115
 30
0.0
 10
163.9713519002848
 20
-192.4528875752836
 30
0.0
 10
167.6793638438026
 20
-190.42819007579
 30
0.0
 10
169.5439355100027
 20
-188.8636559095144
 30
0.0
 10
169.5439355100027
 20
-188.8636559095144
 30
0.0
 10
193.1047638374463
 20
-169.0948006366785
 30
0.0
 10
193.1047638374463
 20
-169.0948006366785
 30
0.0
 10
194.9693355036464
 20
-167.5303723037368
 30
0.0
 10
194.87898911478
 20
-166.1906986929604
 30
0.0
 10
192.9042096708294
 20
-166.1174973040897
 30
0.0
 10
190.9292891157674
 20
-166.0444017485528
 30
0.0
 10
186.8707571723379
 20
-166.2848903596035
 30
0.0
 10
183.8851635619729
 20
-166.651849803956
 30
0.0
 10
183.8851635619729
 20
-166.651849803956
 30
0.0
 10
167.0584396772907
 20
-168.7201859145504
 30
0.0
 10
167.0584396772907
 20
-168.7201859145504
 30
0.0
 10
164.0728460669264
 20
-169.0871453589029
 30
0.0
 10
160.6060282900154
 20
-170.8645809140139
 30
0.0
 10
159.35440801255
 20
-172.6700975802294
 30
0.0
  0
SPLINE
  5
82
330
5C
100
AcDbEntity
  8
Calque 1
 62
     1
370
    13
100
AcDbSpline
210
0.0
220
0.0
230
1.0
 70
    11
 71
     3
 72
    17
 73
    13
 74
     0
 42
0.0000000001
 43
0.0000000001
 12
1.0
 22
0.0
 32
0.0
 13
1.0
 23
0.0
 33
0.0
 40
0.0
 40
0.0
 40
0.0
 40
0.0
 40
1.0
 40
1.0
 40
1.0
 40
2.0
 40
2.0
 40
2.0
 40
3.0
 40
3.0
 40
3.0
 40
4.0
 40
4.0
 40
4.0
 40
4.0
 10
158.0763646795365
 20
-206.9433053494391
 30
0.0
 10
157.1202663464423
 20
-205.5716700720042
 30
0.0
 10
153.9331660694609
 20
-204.8595881277377
 30
0.0
 10
150.9939274590844
 20
-205.3607442387234
 30
0.0
 10
150.9939274590844
 20
-205.3607442387234
 30
0.0
 10
146.0240999603269
 20
-206.2081517385119
 30
0.0
 10
146.0240999603269
 20
-206.2081517385119
 30
0.0
 10
146.0240999603269
 20
-206.2081517385119
 30
0.0
 10
155.7258063467906
 20
-211.8093103482222
 30
0.0
 10
155.7258063467906
 20
-211.8093103482222
 30
0.0
 10
157.968767457341
 20
-210.4893922929965
 30
0.0
 10
159.0269596792991
 20
-208.3072147935421
 30
0.0
 10
158.0763646795365
 20
-206.9433053494391
 30
0.0
  0
SPLINE
  5
83
330
5C
100
AcDbEntity
  8
Calque 1
 62
     1
370
    13
100
AcDbSpline
210
0.0
220
0.0
230
1.0
 70
    11
 71
     3
 72
    38
 73
    34
 74
     0
 42
0.0000000001
 43
0.0000000001
 12
1.0
 22
0.0
 32
0.0
 13
1.0
 23
0.0
 33
0.0
 40
0.0
 40
0.0
 40
0.0
 40
0.0
 40
1.0
 40
1.0
 40
1.0
 40
2.0
 40
2.0
 40
2.0
 40
3.0
 40
3.0
 40
3.0
 40
4.0
 40
4.0
 40
4.0
 40
5.0
 40
5.0
 40
5.0
 40
6.0
 40
6.0
 40
6.0
 40
7.0
 40
7.0
 40
7.0
 40
8.0
 40
8.0
 40
8.0
 40
9.0
 40
9.0
 40
9.0
 40
10.0
 40
10.0
 40
10.0
 40
11.0
 40
11.0
 40
11.0
 40
11.0
 10
159.4236935680885
 20
-118.429738149345
 30
0.0
 10
157.7120157907384
 20
-118.3942487049095
 30
0.0
 10
154.474468291548
 20
-119.4572034268661
 30
0.0
 10
152.2287907921093
 20
-120.7918323154212
 30
0.0
 10
152.2287907921093
 20
-120.7918323154212
 30
0.0
 10
138.5280660733123
 20
-128.9345431467188
 30
0.0
 10
138.5280660733123
 20
-128.9345431467188
 30
0.0
 10
136.2825296849844
 20
-130.2690662019408
 30
0.0
 10
134.9846955186425
 20
-132.9435803679388
 30
0.0
 10
135.6440724629221
 20
-134.877825645233
 30
0.0
 10
135.6440724629221
 20
-134.877825645233
 30
0.0
 10
136.1799419072326
 20
-136.4495212003957
 30
0.0
 10
136.1799419072326
 20
-136.4495212003957
 30
0.0
 10
136.8393188515122
 20
-138.3836959221343
 30
0.0
 10
139.8626949618675
 20
-140.0315561995002
 30
0.0
 10
142.898241905553
 20
-140.1116014772579
 30
0.0
 10
142.898241905553
 20
-140.1116014772579
 30
0.0
 10
143.9491669052907
 20
-140.1392945328067
 30
0.0
 10
143.9491669052907
 20
-140.1392945328067
 30
0.0
 10
146.9847491267537
 20
-140.2192692550087
 30
0.0
 10
151.5536446811669
 20
-139.4020948107686
 30
0.0
 10
154.1021466249746
 20
-138.3233356443717
 30
0.0
 10
154.1021466249746
 20
-138.3233356443717
 30
0.0
 10
170.7372768985933
 20
-131.2818206461319
 30
0.0
 10
170.7372768985933
 20
-131.2818206461319
 30
0.0
 10
173.2856024535122
 20
-130.2030967575129
 30
0.0
 10
173.8503291200371
 20
-128.0379937024985
 30
0.0
 10
171.9918957871684
 20
-126.470425647335
 30
0.0
 10
171.9918957871684
 20
-126.470425647335
 30
0.0
 10
165.9145577331328
 20
-121.3442117597277
 30
0.0
 10
165.9145577331328
 20
-121.3442117597277
 30
0.0
 10
164.0561949558191
 20
-119.7767142601196
 30
0.0
 10
161.135300789883
 20
-118.4652275937805
 30
0.0
 10
159.4236935680885
 20
-118.429738149345
 30
0.0
  0
SPLINE
  5
84
330
5C
100
AcDbEntity
  8
Calque 1
 62
     1
370
    13
100
AcDbSpline
210
0.0
220
0.0
230
1.0
 70
    11
 71
     3
 72
    32
 73
    28
 74
     0
 42
0.0000000001
 43
0.0000000001
 12
1.0
 22
0.0
 32
0.0
 13
1.0
 23
0.0
 33
0.0
 40
0.0
 40
0.0
 40
0.0
 40
0.0
 40
1.0
 40
1.0
 40
1.0
 40
2.0
 40
2.0
 40
2.0
 40
3.0
 40
3.0
 40
3.0
 40
4.0
 40
4.0
 40
4.0
 40
5.0
 40
5.0
 40
5.0
 40
6.0
 40
6.0
 40
6.0
 40
7.0
 40
7.0
 40
7.0
 40
8.0
 40
8.0
 40
8.0
 40
9.0
 40
9.0
 40
9.0
 40
9.0
 10
120.1643246890142
 20
-123.7555537035692
 30
0.0
 10
120.1643246890142
 20
-123.7555537035692
 30
0.0
 10
127.7891577426641
 20
-127.300441202683
 30
0.0
 10
127.7891577426641
 20
-127.300441202683
 30
0.0
 10
130.2631177420451
 20
-128.4506378690621
 30
0.0
 10
134.1245174633021
 20
-128.2996842579888
 30
0.0
 10
136.3701949627408
 20
-126.9650906472112
 30
0.0
 10
136.3701949627408
 20
-126.9650906472112
 30
0.0
 10
148.9790724595881
 20
-119.4713498157515
 30
0.0
 10
148.9790724595881
 20
-119.4713498157515
 30
0.0
 10
151.2247146812492
 20
-118.136720927196
 30
0.0
 10
151.4239282923102
 20
-115.8253914833296
 30
0.0
 10
149.4218791261445
 20
-114.3350817614799
 30
0.0
 10
149.4218791261445
 20
-114.3350817614799
 30
0.0
 10
145.021470238356
 20
-111.0593637067433
 30
0.0
 10
145.021470238356
 20
-111.0593637067433
 30
0.0
 10
143.0194563499672
 20
-109.5690187071157
 30
0.0
 10
139.1119838509445
 20
-109.0112770405887
 30
0.0
 10
136.3384449627486
 20
-109.8198789848309
 30
0.0
 10
136.3384449627486
 20
-109.8198789848309
 30
0.0
 10
131.59474801949
 20
-111.2029089844851
 30
0.0
 10
131.59474801949
 20
-111.2029089844851
 30
0.0
 10
131.59474801949
 20
-111.2029089844851
 30
0.0
 10
116.8318094120695
 20
-119.7261612045765
 30
0.0
 10
116.8318094120695
 20
-119.7261612045765
 30
0.0
 10
117.0005783009168
 20
-121.2528423153061
 30
0.0
 10
118.2735416339316
 20
-122.8764667593446
 30
0.0
 10
120.1643246890142
 20
-123.7555537035692
 30
0.0
  0
SPLINE
  5
85
330
5C
100
AcDbEntity
  8
Calque 1
 62
     1
370
    13
100
AcDbSpline
210
0.0
220
0.0
230
1.0
 70
    11
 71
     3
 72
    20
 73
    16
 74
     0
 42
0.0000000001
 43
0.0000000001
 12
1.0
 22
0.0
 32
0.0
 13
1.0
 23
0.0
 33
0.0
 40
0.0
 40
0.0
 40
0.0
 40
0.0
 40
1.0
 40
1.0
 40
1.0
 40
2.0
 40
2.0
 40
2.0
 40
3.0
 40
3.0
 40
3.0
 40
4.0
 40
4.0
 40
4.0
 40
5.0
 40
5.0
 40
5.0
 40
5.0
 10
63.03221053663075
 20
-152.7772761963136
 30
0.0
 10
63.03221053663075
 20
-152.7772761963136
 30
0.0
 10
70.43197136811413
 20
-152.3849167519674
 30
0.0
 10
70.43197136811413
 20
-152.3849167519674
 30
0.0
 10
73.46028636735682
 20
-152.2243675853411
 30
0.0
 10
75.93121247785031
 20
-150.4718734191122
 30
0.0
 10
75.92278108896379
 20
-148.4904617529411
 30
0.0
 10
75.92278108896379
 20
-148.4904617529411
 30
0.0
 10
75.90112053341348
 20
-143.3571217542245
 30
0.0
 10
75.90112053341348
 20
-143.3571217542245
 30
0.0
 10
75.90112053341348
 20
-143.3571217542245
 30
0.0
 10
60.23422414844129
 20
-152.4022734186301
 30
0.0
 10
60.23422414844129
 20
-152.4022734186301
 30
0.0
 10
61.03675831490744
 20
-152.6893639741139
 30
0.0
 10
61.99141025911302
 20
-152.8324506407442
 30
0.0
 10
63.03221053663075
 20
-152.7772761963136
 30
0.0
  0
ENDBLK
  5
5F
330
5C
100
AcDbEntity
  8
0
100
AcDbBlockEnd
  0
BLOCK
  5
88
330
86
100
AcDbEntity
  8
0
100
AcDbBlockBegin
  2
block 3
 70
     0
 10
0.0
 20
0.0
 30
0.0
  3
block 3
  1

  0
SPLINE
  5
8A
330
86
100
AcDbEntity
  8
Calque 1
 62
     1
370
    13
100
AcDbSpline
210
0.0
220
0.0
230
1.0
 70
    11
 71
     3
 72
    14
 73
    10
 74
     0
 42
0.0000000001
 43
0.0000000001
 12
1.0
 22
0.0
 32
0.0
 13
1.0
 23
0.0
 33
0.0
 40
0.0
 40
0.0
 40
0.0
 40
0.0
 40
1.0
 40
1.0
 40
1.0
 40
2.0
 40
2.0
 40
2.0
 40
3.0
 40
3.0
 40
3.0
 40
3.0
 10
187.3831668944318
 20
-255.2885011706859
 30
0.0
 10
187.3831668944318
 20
-255.2885011706859
 30
0.0
 10
190.4454543936664
 20
-253.5204142266837
 30
0.0
 10
190.4454543936664
 20
-253.5204142266837
 30
0.0
 10
190.4454543936664
 20
-253.5204142266837
 30
0.0
 10
186.3665318946863
 20
-251.1654461717165
 30
0.0
 10
186.3665318946863
 20
-251.1654461717165
 30
0.0
 10
187.2650568944612
 20
-252.0243895048354
 30
0.0
 10
187.6261249499262
 20
-253.5873008933335
 30
0.0
 10
187.3831668944318
 20
-255.2885011706859
 30
0.0
  0
SPLINE
  5
8B
330
86
100
AcDbEntity
  8
Calque 1
 62
     1
370
    13
100
AcDbSpline
210
0.0
220
0.0
230
1.0
 70
    11
 71
     3
 72
    32
 73
    28
 74
     0
 42
0.0000000001
 43
0.0000000001
 12
1.0
 22
0.0
 32
0.0
 13
1.0
 23
0.0
 33
0.0
 40
0.0
 40
0.0
 40
0.0
 40
0.0
 40
1.0
 40
1.0
 40
1.0
 40
2.0
 40
2.0
 40
2.0
 40
3.0
 40
3.0
 40
3.0
 40
4.0
 40
4.0
 40
4.0
 40
5.0
 40
5.0
 40
5.0
 40
6.0
 40
6.0
 40
6.0
 40
7.0
 40
7.0
 40
7.0
 40
8.0
 40
8.0
 40
8.0
 40
9.0
 40
9.0
 40
9.0
 40
9.0
 10
51.92397915051889
 20
-208.3531464601978
 30
0.0
 10
51.92397915051889
 20
-208.3531464601978
 30
0.0
 10
57.01008220480295
 20
-206.6734303495062
 30
0.0
 10
57.01008220480295
 20
-206.6734303495062
 30
0.0
 10
59.29184887089912
 20
-205.919826460806
 30
0.0
 10
61.48531525923969
 20
-204.0865814612639
 30
0.0
 10
61.88434220358424
 20
-202.5995878505248
 30
0.0
 10
62.28347498126231
 20
-201.1126647953413
 30
0.0
 10
61.91358748135482
 20
-198.4667961848913
 30
0.0
 10
61.06254637045642
 20
-196.7199817408834
 30
0.0
 10
60.21150525955801
 20
-194.9730967413205
 30
0.0
 10
58.14592081562997
 20
-193.3588914639458
 30
0.0
 10
56.47248414938174
 20
-193.132972575114
 30
0.0
 10
54.79897692757783
 20
-192.9070184085033
 30
0.0
 10
51.82985803943119
 20
-192.8420720196312
 30
0.0
 10
49.87441081769795
 20
-192.9886864640384
 30
0.0
 10
48.5077849847061
 20
-193.0911684084576
 30
0.0
 10
46.97842276286638
 20
-193.7319186860753
 30
0.0
 10
45.89169081869361
 20
-194.5782325747525
 30
0.0
 10
45.89169081869361
 20
-194.5782325747525
 30
0.0
 10
45.89162026313793
 20
-204.9599534054904
 30
0.0
 10
45.89162026313793
 20
-204.9599534054904
 30
0.0
 10
45.89162026313793
 20
-204.9599534054904
 30
0.0
 10
46.27336109637601
 20
-205.9253650719157
 30
0.0
 10
46.27336109637601
 20
-205.9253650719157
 30
0.0
 10
47.09946081839169
 20
-208.0143386825047
 30
0.0
 10
49.64221248442272
 20
-209.1067856266761
 30
0.0
 10
51.92397915051889
 20
-208.3531464601978
 30
0.0
  0
SPLINE
  5
8C
330
86
100
AcDbEntity
  8
Calque 1
 62
     7
370
    13
100
AcDbSpline
210
0.0
220
0.0
230
1.0
 70
    11
 71
     3
 72
    17
 73
    13
 74
     0
 42
0.0000000001
 43
0.0000000001
 12
1.0
 22
0.0
 32
0.0
 13
1.0
 23
0.0
 33
0.0
 40
0.0
 40
0.0
 40
0.0
 40
0.0
 40
1.0
 40
1.0
 40
1.0
 40
2.0
 40
2.0
 40
2.0
 40
3.0
 40
3.0
 40
3.0
 40
4.0
 40
4.0
 40
4.0
 40
4.0
 10
57.74520053795262
 20
-176.9059003569481
 30
0.0
 10
57.60680581576484
 20
-176.771527301426
 30
0.0
 10
57.4568752602467
 20
-176.6491134125679
 30
0.0
 10
57.28627192695618
 20
-176.5506178570373
 30
0.0
 10
57.28627192695618
 20
-176.5506178570373
 30
0.0
 10
51.17750137292774
 20
-173.0237220245858
 30
0.0
 10
51.17750137292774
 20
-173.0237220245858
 30
0.0
 10
50.9785347063107
 20
-172.9088223023919
 30
0.0
 10
50.78316637302633
 20
-172.8290239690788
 30
0.0
 10
50.5921019286298
 20
-172.7760720246473
 30
0.0
 10
50.5921019286298
 20
-172.7760720246473
 30
0.0
 10
57.74520053795262
 20
-176.9059003569481
 30
0.0
 10
57.74520053795262
 20
-176.9059003569481
 30
0.0
  0
SPLINE
  5
8D
330
86
100
AcDbEntity
  8
Calque 1
 62
     1
370
    13
100
AcDbSpline
210
0.0
220
0.0
230
1.0
 70
    11
 71
     3
 72
    26
 73
    22
 74
     0
 42
0.0000000001
 43
0.0000000001
 12
1.0
 22
0.0
 32
0.0
 13
1.0
 23
0.0
 33
0.0
 40
0.0
 40
0.0
 40
0.0
 40
0.0
 40
1.0
 40
1.0
 40
1.0
 40
2.0
 40
2.0
 40
2.0
 40
3.0
 40
3.0
 40
3.0
 40
4.0
 40
4.0
 40
4.0
 40
5.0
 40
5.0
 40
5.0
 40
6.0
 40
6.0
 40
6.0
 40
7.0
 40
7.0
 40
7.0
 40
7.0
 10
47.86982165153229
 20
-176.0755673016002
 30
0.0
 10
47.86982165153229
 20
-176.0755673016002
 30
0.0
 10
47.52448748495193
 20
-185.0034203549239
 30
0.0
 10
47.52448748495193
 20
-185.0034203549239
 30
0.0
 10
47.42126470720005
 20
-187.6726781320343
 30
0.0
 10
48.72943526242857
 20
-189.7521267426256
 30
0.0
 10
50.43158803978075
 20
-189.6245975759905
 30
0.0
 10
52.1337055393554
 20
-189.4968567426897
 30
0.0
 10
54.84000498312302
 20
-187.284305076576
 30
0.0
 10
56.44549664938845
 20
-184.7078631327758
 30
0.0
 10
56.44549664938845
 20
-184.7078631327758
 30
0.0
 10
57.48707303801705
 20
-183.0365431331935
 30
0.0
 10
57.48707303801705
 20
-183.0365431331935
 30
0.0
 10
58.93296803765535
 20
-180.716182578218
 30
0.0
 10
58.99879637097255
 20
-178.1231600788662
 30
0.0
 10
57.74520053795262
 20
-176.9059003569481
 30
0.0
 10
57.74520053795262
 20
-176.9059003569481
 30
0.0
 10
50.5921019286298
 20
-172.7760720246473
 30
0.0
 10
50.5921019286298
 20
-172.7760720246473
 30
0.0
 10
49.1355530401049
 20
-172.3721767469708
 30
0.0
 10
47.96112054039854
 20
-173.7157661910794
 30
0.0
 10
47.86982165153229
 20
-176.0755673016002
 30
0.0
  0
SPLINE
  5
8E
330
86
100
AcDbEntity
  8
Calque 1
 62
     1
370
    13
100
AcDbSpline
210
0.0
220
0.0
230
1.0
 70
    11
 71
     3
 72
    32
 73
    28
 74
     0
 42
0.0000000001
 43
0.0000000001
 12
1.0
 22
0.0
 32
0.0
 13
1.0
 23
0.0
 33
0.0
 40
0.0
 40
0.0
 40
0.0
 40
0.0
 40
1.0
 40
1.0
 40
1.0
 40
2.0
 40
2.0
 40
2.0
 40
3.0
 40
3.0
 40
3.0
 40
4.0
 40
4.0
 40
4.0
 40
5.0
 40
5.0
 40
5.0
 40
6.0
 40
6.0
 40
6.0
 40
7.0
 40
7.0
 40
7.0
 40
8.0
 40
8.0
 40
8.0
 40
9.0
 40
9.0
 40
9.0
 40
9.0
 10
105.4124280260356
 20
-260.3023200583215
 30
0.0
 10
105.4124280260356
 20
-260.3023200583215
 30
0.0
 10
99.35858497199348
 20
-266.6647731122863
 30
0.0
 10
99.35858497199348
 20
-266.6647731122863
 30
0.0
 10
97.33826191694313
 20
-268.7881072784224
 30
0.0
 10
95.97093052839607
 20
-272.5245178330437
 30
0.0
 10
96.32018052830868
 20
-274.967821443544
 30
0.0
 10
96.32018052830868
 20
-274.967821443544
 30
0.0
 10
98.80595858324278
 20
-292.358178383641
 30
0.0
 10
98.80595858324278
 20
-292.358178383641
 30
0.0
 10
99.15524386093324
 20
-294.8016583830301
 30
0.0
 10
101.2291538604149
 20
-295.3719236606654
 30
0.0
 10
103.4146121932018
 20
-293.6255325499903
 30
0.0
 10
103.4146121932018
 20
-293.6255325499903
 30
0.0
 10
112.6554849686696
 20
-286.2413644962813
 30
0.0
 10
112.6554849686696
 20
-286.2413644962813
 30
0.0
 10
114.8409433014564
 20
-284.4949733856068
 30
0.0
 10
117.2526380230754
 20
-281.9919444973432
 30
0.0
 10
118.0148144117744
 20
-280.6789408865608
 30
0.0
 10
118.7769908004721
 20
-279.3661136646667
 30
0.0
 10
118.6331633005081
 20
-276.6664817208971
 30
0.0
 10
117.6953741340762
 20
-274.679672554727
 30
0.0
 10
117.6953741340762
 20
-274.679672554727
 30
0.0
 10
110.7910896913577
 20
-260.0537175583836
 30
0.0
 10
110.7910896913577
 20
-260.0537175583836
 30
0.0
 10
109.8533358027033
 20
-258.0670495033249
 30
0.0
 10
107.4327863588641
 20
-258.1789858921853
 30
0.0
 10
105.4124280260356
 20
-260.3023200583215
 30
0.0
  0
SPLINE
  5
8F
330
86
100
AcDbEntity
  8
Calque 1
 62
     1
370
    13
100
AcDbSpline
210
0.0
220
0.0
230
1.0
 70
    11
 71
     3
 72
    32
 73
    28
 74
     0
 42
0.0000000001
 43
0.0000000001
 12
1.0
 22
0.0
 32
0.0
 13
1.0
 23
0.0
 33
0.0
 40
0.0
 40
0.0
 40
0.0
 40
0.0
 40
1.0
 40
1.0
 40
1.0
 40
2.0
 40
2.0
 40
2.0
 40
3.0
 40
3.0
 40
3.0
 40
4.0
 40
4.0
 40
4.0
 40
5.0
 40
5.0
 40
5.0
 40
6.0
 40
6.0
 40
6.0
 40
7.0
 40
7.0
 40
7.0
 40
8.0
 40
8.0
 40
8.0
 40
9.0
 40
9.0
 40
9.0
 40
9.0
 10
134.0946019077544
 20
-274.3184633881506
 30
0.0
 10
132.7680869080858
 20
-273.8413314438258
 30
0.0
 10
129.8197113532676
 20
-274.507446443659
 30
0.0
 10
127.54238968717
 20
-275.7987542211142
 30
0.0
 10
127.54238968717
 20
-275.7987542211142
 30
0.0
 10
125.8742094098088
 20
-276.7446925542109
 30
0.0
 10
125.8742094098088
 20
-276.7446925542109
 30
0.0
 10
123.5969230214893
 20
-278.0359297761104
 30
0.0
 10
121.1294188554399
 20
-280.1337228311415
 30
0.0
 10
120.3907021889576
 20
-281.4064744974899
 30
0.0
 10
119.6518444113646
 20
-282.6790850527275
 30
0.0
 10
119.7821252446654
 20
-285.3766356076081
 30
0.0
 10
120.6797330222184
 20
-287.4008039404357
 30
0.0
 10
120.6797330222184
 20
-287.4008039404357
 30
0.0
 10
122.6720102439431
 20
-291.8928292170904
 30
0.0
 10
122.6720102439431
 20
-291.8928292170904
 30
0.0
 10
122.761368855032
 20
-292.0943006059293
 30
0.0
 10
122.8623691327845
 20
-292.2887517169917
 30
0.0
 10
122.9690138549798
 20
-292.4786519947214
 30
0.0
 10
122.9690138549798
 20
-292.4786519947214
 30
0.0
 10
132.041399963823
 20
-287.2406075515872
 30
0.0
 10
132.041399963823
 20
-287.2406075515872
 30
0.0
 10
132.041399963823
 20
-287.2406075515872
 30
0.0
 10
134.6231688520665
 20
-280.2696481088852
 30
0.0
 10
134.6231688520665
 20
-280.2696481088852
 30
0.0
 10
135.6589949629187
 20
-277.4736019984728
 30
0.0
 10
135.4210463518667
 20
-274.7955247769204
 30
0.0
 10
134.0946019077544
 20
-274.3184633881506
 30
0.0
  0
SPLINE
  5
90
330
86
100
AcDbEntity
  8
Calque 1
 62
     1
370
    13
100
AcDbSpline
210
0.0
220
0.0
230
1.0
 70
    11
 71
     3
 72
    26
 73
    22
 74
     0
 42
0.0000000001
 43
0.0000000001
 12
1.0
 22
0.0
 32
0.0
 13
1.0
 23
0.0
 33
0.0
 40
0.0
 40
0.0
 40
0.0
 40
0.0
 40
1.0
 40
1.0
 40
1.0
 40
2.0
 40
2.0
 40
2.0
 40
3.0
 40
3.0
 40
3.0
 40
4.0
 40
4.0
 40
4.0
 40
5.0
 40
5.0
 40
5.0
 40
6.0
 40
6.0
 40
6.0
 40
7.0
 40
7.0
 40
7.0
 40
7.0
 10
112.6753463575536
 20
-289.5765256065585
 30
0.0
 10
112.6753463575536
 20
-289.5765256065585
 30
0.0
 10
103.1857652488146
 20
-297.1591311602186
 30
0.0
 10
103.1857652488146
 20
-297.1591311602186
 30
0.0
 10
101.000412749361
 20
-298.905522270893
 30
0.0
 10
98.16975913895746
 20
-302.5766689366419
 30
0.0
 10
96.89573747260938
 20
-305.3171878248452
 30
0.0
 10
96.89573747260938
 20
-305.3171878248452
 30
0.0
 10
96.42844802828179
 20
-306.3226750468164
 30
0.0
 10
96.42844802828179
 20
-306.3226750468164
 30
0.0
 10
96.13179719502257
 20
-306.9607794911009
 30
0.0
 10
95.94715330617983
 20
-307.5694622687269
 30
0.0
 10
95.85874719509071
 20
-308.1310139352532
 30
0.0
 10
95.85874719509071
 20
-308.1310139352532
 30
0.0
 10
120.0831505223675
 20
-294.1447861609718
 30
0.0
 10
120.0831505223675
 20
-294.1447861609718
 30
0.0
 10
120.0831505223675
 20
-294.1447861609718
 30
0.0
 10
118.281091078374
 20
-290.0816328286546
 30
0.0
 10
118.281091078374
 20
-290.0816328286546
 30
0.0
 10
117.3833774674872
 20
-288.057464495827
 30
0.0
 10
114.8606635792291
 20
-287.8300639403284
 30
0.0
 10
112.6753463575536
 20
-289.5765256065585
 30
0.0
  0
SPLINE
  5
91
330
86
100
AcDbEntity
  8
Calque 1
 62
     1
370
    13
100
AcDbSpline
210
0.0
220
0.0
230
1.0
 70
    11
 71
     3
 72
    44
 73
    40
 74
     0
 42
0.0000000001
 43
0.0000000001
 12
1.0
 22
0.0
 32
0.0
 13
1.0
 23
0.0
 33
0.0
 40
0.0
 40
0.0
 40
0.0
 40
0.0
 40
1.0
 40
1.0
 40
1.0
 40
2.0
 40
2.0
 40
2.0
 40
3.0
 40
3.0
 40
3.0
 40
4.0
 40
4.0
 40
4.0
 40
5.0
 40
5.0
 40
5.0
 40
6.0
 40
6.0
 40
6.0
 40
7.0
 40
7.0
 40
7.0
 40
8.0
 40
8.0
 40
8.0
 40
9.0
 40
9.0
 40
9.0
 40
10.0
 40
10.0
 40
10.0
 40
11.0
 40
11.0
 40
11.0
 40
12.0
 40
12.0
 40
12.0
 40
13.0
 40
13.0
 40
13.0
 40
13.0
 10
94.54539080653025
 20
-304.6038006028016
 30
0.0
 10
95.81941247287833
 20
-301.8631406034868
 30
0.0
 10
96.57601497268912
 20
-297.6216933823252
 30
0.0
 10
96.2266591394433
 20
-295.1784603273799
 30
0.0
 10
96.2266591394433
 20
-295.1784603273799
 30
0.0
 10
93.56315164010904
 20
-276.5453731098161
 30
0.0
 10
93.56315164010904
 20
-276.5453731098161
 30
0.0
 10
93.21379580686323
 20
-274.10199894376
 30
0.0
 10
91.12027136294213
 20
-272.3230464442054
 30
0.0
 10
88.91075358571662
 20
-272.5918983885826
 30
0.0
 10
88.91075358571662
 20
-272.5918983885826
 30
0.0
 10
82.70087692060255
 20
-273.3477600550601
 30
0.0
 10
82.70087692060255
 20
-273.3477600550601
 30
0.0
 10
80.49139442115488
 20
-273.6167178327705
 30
0.0
 10
77.58944442188016
 20
-276.060585887715
 30
0.0
 10
76.25224025554809
 20
-278.7786681092581
 30
0.0
 10
76.25224025554809
 20
-278.7786681092581
 30
0.0
 10
65.72129442484726
 20
-300.1844828261285
 30
0.0
 10
65.72129442484726
 20
-300.1844828261285
 30
0.0
 10
64.38416081407055
 20
-302.9025297698935
 30
0.0
 10
62.98970081441916
 20
-306.5092239356587
 30
0.0
 10
62.62256498117745
 20
-308.1993469907916
 30
0.0
 10
62.25553498126925
 20
-309.8891525459244
 30
0.0
 10
63.67221998091512
 20
-311.3846481011061
 30
0.0
 10
65.77078914705712
 20
-311.5220903232942
 30
0.0
 10
65.77078914705712
 20
-311.5220903232942
 30
0.0
 10
86.40539636412093
 20
-312.8740406007339
 30
0.0
 10
86.40539636412093
 20
-312.8740406007339
 30
0.0
 10
86.79729719735617
 20
-312.8997228229497
 30
0.0
 10
87.18182497503787
 20
-312.9176439340566
 30
0.0
 10
87.54959580827911
 20
-312.9283683784983
 30
0.0
 10
87.54959580827911
 20
-312.9283683784983
 30
0.0
 10
91.76705414055806
 20
-310.4933903235516
 30
0.0
 10
91.76705414055806
 20
-310.4933903235516
 30
0.0
 10
92.21850386266743
 20
-309.576591434892
 30
0.0
 10
92.75603136253328
 20
-308.453100046284
 30
0.0
 10
93.30498886239596
 20
-307.2721058799125
 30
0.0
 10
93.30498886239596
 20
-307.2721058799125
 30
0.0
 10
94.54539080653025
 20
-304.6038006028016
 30
0.0
 10
94.54539080653025
 20
-304.6038006028016
 30
0.0
  0
SPLINE
  5
92
330
86
100
AcDbEntity
  8
Calque 1
 62
     7
370
    13
100
AcDbSpline
210
0.0
220
0.0
230
1.0
 70
    11
 71
     3
 72
    14
 73
    10
 74
     0
 42
0.0000000001
 43
0.0000000001
 12
1.0
 22
0.0
 32
0.0
 13
1.0
 23
0.0
 33
0.0
 40
0.0
 40
0.0
 40
0.0
 40
0.0
 40
1.0
 40
1.0
 40
1.0
 40
2.0
 40
2.0
 40
2.0
 40
3.0
 40
3.0
 40
3.0
 40
3.0
 10
64.46956831404901
 20
-180.6978734115558
 30
0.0
 10
64.36211220296495
 20
-180.6358550782383
 30
0.0
 10
64.2409330363286
 20
-180.6017414671357
 30
0.0
 10
64.1130863696939
 20
-180.5824092449183
 30
0.0
 10
64.1130863696939
 20
-180.5824092449183
 30
0.0
 10
64.75274303620051
 20
-180.9516970226032
 30
0.0
 10
64.75274303620051
 20
-180.9516970226032
 30
0.0
 10
64.67365025844263
 20
-180.8508731337396
 30
0.0
 10
64.58203386957646
 20
-180.7628198004286
 30
0.0
 10
64.46956831404901
 20
-180.6978734115558
 30
0.0
  0
SPLINE
  5
93
330
86
100
AcDbEntity
  8
Calque 1
 62
     1
370
    13
100
AcDbSpline
210
0.0
220
0.0
230
1.0
 70
    11
 71
     3
 72
    23
 73
    19
 74
     0
 42
0.0000000001
 43
0.0000000001
 12
1.0
 22
0.0
 32
0.0
 13
1.0
 23
0.0
 33
0.0
 40
0.0
 40
0.0
 40
0.0
 40
0.0
 40
1.0
 40
1.0
 40
1.0
 40
2.0
 40
2.0
 40
2.0
 40
3.0
 40
3.0
 40
3.0
 40
4.0
 40
4.0
 40
4.0
 40
5.0
 40
5.0
 40
5.0
 40
6.0
 40
6.0
 40
6.0
 40
6.0
 10
59.58560692638121
 20
-184.2480878551125
 30
0.0
 10
59.58560692638121
 20
-184.2480878551125
 30
0.0
 10
59.18841442648051
 20
-184.8854867438421
 30
0.0
 10
59.18841442648051
 20
-184.8854867438421
 30
0.0
 10
57.58288748243756
 20
-187.4619639654205
 30
0.0
 10
57.19208026031312
 20
-189.6946239648621
 30
0.0
 10
58.32001664891995
 20
-189.8469534092685
 30
0.0
 10
59.44781192641575
 20
-189.9993534092307
 30
0.0
 10
61.73497609251059
 20
-188.2582186874432
 30
0.0
 10
63.402450814316
 20
-185.9781100769024
 30
0.0
 10
64.89635886949807
 20
-183.9352797996355
 30
0.0
 10
65.43332192491911
 20
-181.8195656334974
 30
0.0
 10
64.75274303620051
 20
-180.9516970226032
 30
0.0
 10
64.75274303620051
 20
-180.9516970226032
 30
0.0
 10
64.1130863696939
 20
-180.5824092449183
 30
0.0
 10
64.1130863696939
 20
-180.5824092449183
 30
0.0
 10
62.9551285922056
 20
-180.4073256338507
 30
0.0
 10
61.03153720379767
 20
-181.9277978556927
 30
0.0
 10
59.58560692638121
 20
-184.2480878551125
 30
0.0
  0
SPLINE
  5
94
330
86
100
AcDbEntity
  8
Calque 1
 62
     7
370
    13
100
AcDbSpline
210
0.0
220
0.0
230
1.0
 70
    11
 71
     3
 72
    17
 73
    13
 74
     0
 42
0.0000000001
 43
0.0000000001
 12
1.0
 22
0.0
 32
0.0
 13
1.0
 23
0.0
 33
0.0
 40
0.0
 40
0.0
 40
0.0
 40
0.0
 40
1.0
 40
1.0
 40
1.0
 40
2.0
 40
2.0
 40
2.0
 40
3.0
 40
3.0
 40
3.0
 40
4.0
 40
4.0
 40
4.0
 40
4.0
 10
76.00074497783304
 20
-187.3554250765583
 30
0.0
 10
76.00074497783304
 20
-187.3554250765583
 30
0.0
 10
71.67780609002492
 20
-184.8595575771818
 30
0.0
 10
71.67780609002492
 20
-184.8595575771818
 30
0.0
 10
71.50286359006869
 20
-184.7585572994294
 30
0.0
 10
71.31405692344913
 20
-184.685038410559
 30
0.0
 10
71.11854747905372
 20
-184.6270064661288
 30
0.0
 10
71.11854747905372
 20
-184.6270064661288
 30
0.0
 10
76.52264442214707
 20
-187.747078965349
 30
0.0
 10
76.52264442214707
 20
-187.747078965349
 30
0.0
 10
76.37888747773847
 20
-187.6059325764958
 30
0.0
 10
76.20641442222593
 20
-187.4741700765282
 30
0.0
 10
76.00074497783304
 20
-187.3554250765583
 30
0.0
  0
SPLINE
  5
95
330
86
100
AcDbEntity
  8
Calque 1
 62
     1
370
    13
100
AcDbSpline
210
0.0
220
0.0
230
1.0
 70
    11
 71
     3
 72
    23
 73
    19
 74
     0
 42
0.0000000001
 43
0.0000000001
 12
1.0
 22
0.0
 32
0.0
 13
1.0
 23
0.0
 33
0.0
 40
0.0
 40
0.0
 40
0.0
 40
0.0
 40
1.0
 40
1.0
 40
1.0
 40
2.0
 40
2.0
 40
2.0
 40
3.0
 40
3.0
 40
3.0
 40
4.0
 40
4.0
 40
4.0
 40
5.0
 40
5.0
 40
5.0
 40
6.0
 40
6.0
 40
6.0
 40
6.0
 10
65.4188580360341
 20
-187.3508036876706
 30
0.0
 10
63.6924694253544
 20
-189.7117336870803
 30
0.0
 10
62.87914025889124
 20
-192.873222297401
 30
0.0
 10
63.61154220315235
 20
-194.3764789636915
 30
0.0
 10
64.34401470296945
 20
-195.8797003522051
 30
0.0
 10
66.80753248013123
 20
-196.0638503521587
 30
0.0
 10
69.08601831289499
 20
-194.785771741367
 30
0.0
 10
69.08601831289499
 20
-194.785771741367
 30
0.0
 10
74.97779525586657
 20
-191.4806320199713
 30
0.0
 10
74.97779525586657
 20
-191.4806320199713
 30
0.0
 10
76.98330164425415
 20
-190.3556589646973
 30
0.0
 10
77.57833192188325
 20
-188.7833989650903
 30
0.0
 10
76.52264442214707
 20
-187.747078965349
 30
0.0
 10
76.52264442214707
 20
-187.747078965349
 30
0.0
 10
71.11854747905372
 20
-184.6270064661288
 30
0.0
 10
71.11854747905372
 20
-184.6270064661288
 30
0.0
 10
69.3964980350397
 20
-184.1158667440346
 30
0.0
 10
66.96931636897965
 20
-185.2306092437561
 30
0.0
 10
65.4188580360341
 20
-187.3508036876706
 30
0.0
  0
SPLINE
  5
96
330
86
100
AcDbEntity
  8
Calque 1
 62
     7
370
    13
100
AcDbSpline
210
0.0
220
0.0
230
1.0
 70
    11
 71
     3
 72
    17
 73
    13
 74
     0
 42
0.0000000001
 43
0.0000000001
 12
1.0
 22
0.0
 32
0.0
 13
1.0
 23
0.0
 33
0.0
 40
0.0
 40
0.0
 40
0.0
 40
0.0
 40
1.0
 40
1.0
 40
1.0
 40
2.0
 40
2.0
 40
2.0
 40
3.0
 40
3.0
 40
3.0
 40
4.0
 40
4.0
 40
4.0
 40
4.0
 10
185.8971257836921
 20
-250.8041311718068
 30
0.0
 10
185.8971257836921
 20
-250.8041311718068
 30
0.0
 10
178.7732724521402
 20
-246.6911656172798
 30
0.0
 10
178.7732724521402
 20
-246.6911656172798
 30
0.0
 10
178.6009405077384
 20
-246.591682283971
 30
0.0
 10
178.4208827300059
 20
-246.5234197839882
 30
0.0
 10
178.2374382856072
 20
-246.4721258951124
 30
0.0
 10
178.2374382856072
 20
-246.4721258951124
 30
0.0
 10
186.3665318946863
 20
-251.1654461717165
 30
0.0
 10
186.3665318946863
 20
-251.1654461717165
 30
0.0
 10
186.2224574502777
 20
-251.027721727307
 30
0.0
 10
186.0685052280938
 20
-250.9030500606715
 30
0.0
 10
185.8971257836921
 20
-250.8041311718068
 30
0.0
  0
SPLINE
  5
97
330
86
100
AcDbEntity
  8
Calque 1
 62
     1
370
    13
100
AcDbSpline
210
0.0
220
0.0
230
1.0
 70
    11
 71
     3
 72
    26
 73
    22
 74
     0
 42
0.0000000001
 43
0.0000000001
 12
1.0
 22
0.0
 32
0.0
 13
1.0
 23
0.0
 33
0.0
 40
0.0
 40
0.0
 40
0.0
 40
0.0
 40
1.0
 40
1.0
 40
1.0
 40
2.0
 40
2.0
 40
2.0
 40
3.0
 40
3.0
 40
3.0
 40
4.0
 40
4.0
 40
4.0
 40
5.0
 40
5.0
 40
5.0
 40
6.0
 40
6.0
 40
6.0
 40
7.0
 40
7.0
 40
7.0
 40
7.0
 10
173.5331113423387
 20
-249.9285367275813
 30
0.0
 10
173.5331113423387
 20
-249.9285367275813
 30
0.0
 10
170.8231782874609
 20
-256.3688478370828
 30
0.0
 10
170.8231782874609
 20
-256.3688478370828
 30
0.0
 10
169.6571418988636
 20
-259.1401289475007
 30
0.0
 10
169.5016727322354
 20
-263.002869224313
 30
0.0
 10
170.4776324542135
 20
-264.9526367238252
 30
0.0
 10
170.4776324542135
 20
-264.9526367238252
 30
0.0
 10
170.5150974542049
 20
-265.0274256126959
 30
0.0
 10
170.5150974542049
 20
-265.0274256126959
 30
0.0
 10
170.5150974542049
 20
-265.0274256126959
 30
0.0
 10
187.3831668944318
 20
-255.2885011706859
 30
0.0
 10
187.3831668944318
 20
-255.2885011706859
 30
0.0
 10
187.6261249499262
 20
-253.5873008933335
 30
0.0
 10
187.2650568944612
 20
-252.0243895048354
 30
0.0
 10
186.3665318946863
 20
-251.1654461717165
 30
0.0
 10
186.3665318946863
 20
-251.1654461717165
 30
0.0
 10
178.2374382856072
 20
-246.4721258951124
 30
0.0
 10
178.2374382856072
 20
-246.4721258951124
 30
0.0
 10
176.5944110637957
 20
-246.0127739507825
 30
0.0
 10
174.5820960642987
 20
-247.4354914504269
 30
0.0
 10
173.5331113423387
 20
-249.9285367275813
 30
0.0
  0
SPLINE
  5
98
330
86
100
AcDbEntity
  8
Calque 1
 62
     1
370
    13
100
AcDbSpline
210
0.0
220
0.0
230
1.0
 70
    11
 71
     3
 72
    20
 73
    16
 74
     0
 42
0.0000000001
 43
0.0000000001
 12
1.0
 22
0.0
 32
0.0
 13
1.0
 23
0.0
 33
0.0
 40
0.0
 40
0.0
 40
0.0
 40
0.0
 40
1.0
 40
1.0
 40
1.0
 40
2.0
 40
2.0
 40
2.0
 40
3.0
 40
3.0
 40
3.0
 40
4.0
 40
4.0
 40
4.0
 40
5.0
 40
5.0
 40
5.0
 40
5.0
 10
162.0720316229816
 20
-265.3095772792916
 30
0.0
 10
162.0720316229816
 20
-265.3095772792916
 30
0.0
 10
157.2628238464066
 20
-266.9500997788818
 30
0.0
 10
157.2628238464066
 20
-266.9500997788818
 30
0.0
 10
154.9790816247549
 20
-267.7292800564646
 30
0.0
 10
151.9279771810736
 20
-269.5444275560108
 30
0.0
 10
150.4826113481013
 20
-270.9838667223175
 30
0.0
 10
149.0862816262282
 20
-272.3743756108588
 30
0.0
 10
147.9434580154029
 20
-275.5222469989607
 30
0.0
 10
147.8728319043091
 20
-278.1001706094276
 30
0.0
 10
147.8728319043091
 20
-278.1001706094276
 30
0.0
 10
167.5459080105026
 20
-266.7417139456004
 30
0.0
 10
167.5459080105026
 20
-266.7417139456004
 30
0.0
 10
166.3472396774687
 20
-265.2724297793011
 30
0.0
 10
164.064167733595
 20
-264.6299156127952
 30
0.0
 10
162.0720316229816
 20
-265.3095772792916
 30
0.0
  0
SPLINE
  5
99
330
86
100
AcDbEntity
  8
Calque 1
 62
     7
370
    13
100
AcDbSpline
210
0.0
220
0.0
230
1.0
 70
    11
 71
     3
 72
    17
 73
    13
 74
     0
 42
0.0000000001
 43
0.0000000001
 12
1.0
 22
0.0
 32
0.0
 13
1.0
 23
0.0
 33
0.0
 40
0.0
 40
0.0
 40
0.0
 40
0.0
 40
1.0
 40
1.0
 40
1.0
 40
2.0
 40
2.0
 40
2.0
 40
3.0
 40
3.0
 40
3.0
 40
4.0
 40
4.0
 40
4.0
 40
4.0
 10
123.1269171882735
 20
-214.5637286808671
 30
0.0
 10
123.1269171882735
 20
-214.5637286808671
 30
0.0
 10
106.9384741367654
 20
-205.2173047943147
 30
0.0
 10
106.9384741367654
 20
-205.2173047943147
 30
0.0
 10
106.7578166368105
 20
-205.1130236832299
 30
0.0
 10
106.5586735813046
 20
-205.0329784054722
 30
0.0
 10
106.349723303579
 20
-204.9677145165992
 30
0.0
 10
106.349723303579
 20
-204.9677145165992
 30
0.0
 10
124.6473541323379
 20
-215.5318920139582
 30
0.0
 10
124.6473541323379
 20
-215.5318920139582
 30
0.0
 10
124.2090630213366
 20
-215.2217297918137
 30
0.0
 10
123.6913969103545
 20
-214.8896247918969
 30
0.0
 10
123.1269171882735
 20
-214.5637286808671
 30
0.0
  0
SPLINE
  5
9A
330
86
100
AcDbEntity
  8
Calque 1
 62
     1
370
    13
100
AcDbSpline
210
0.0
220
0.0
230
1.0
 70
    11
 71
     3
 72
    35
 73
    31
 74
     0
 42
0.0000000001
 43
0.0000000001
 12
1.0
 22
0.0
 32
0.0
 13
1.0
 23
0.0
 33
0.0
 40
0.0
 40
0.0
 40
0.0
 40
0.0
 40
1.0
 40
1.0
 40
1.0
 40
2.0
 40
2.0
 40
2.0
 40
3.0
 40
3.0
 40
3.0
 40
4.0
 40
4.0
 40
4.0
 40
5.0
 40
5.0
 40
5.0
 40
6.0
 40
6.0
 40
6.0
 40
7.0
 40
7.0
 40
7.0
 40
8.0
 40
8.0
 40
8.0
 40
9.0
 40
9.0
 40
9.0
 40
10.0
 40
10.0
 40
10.0
 40
10.0
 10
100.0019105273881
 20
-207.0015489605357
 30
0.0
 10
100.0019105273881
 20
-207.0015489605357
 30
0.0
 10
90.15087330762883
 20
-216.2561447915549
 30
0.0
 10
90.15087330762883
 20
-216.2561447915549
 30
0.0
 10
88.05177497482019
 20
-218.2281372910622
 30
0.0
 10
86.05607580865265
 20
-222.0886550678747
 30
0.0
 10
85.71603330873742
 20
-224.8350300671881
 30
0.0
 10
85.71603330873742
 20
-224.8350300671881
 30
0.0
 10
83.58793664260277
 20
-242.0243036740021
 30
0.0
 10
83.58793664260277
 20
-242.0243036740021
 30
0.0
 10
83.24789414268787
 20
-244.7706786733154
 30
0.0
 10
84.83380664229139
 20
-245.970158395238
 30
0.0
 10
87.1120455306109
 20
-244.6899983955579
 30
0.0
 10
87.1120455306109
 20
-244.6899983955579
 30
0.0
 10
116.2837338566512
 20
-228.2967678441003
 30
0.0
 10
116.2837338566512
 20
-228.2967678441003
 30
0.0
 10
118.5620080227483
 20
-227.0163608999763
 30
0.0
 10
121.6309277442033
 20
-224.049782011829
 30
0.0
 10
123.1033869105018
 20
-221.7043036790819
 30
0.0
 10
124.5758813545778
 20
-219.3588253463348
 30
0.0
 10
125.8854982986952
 20
-217.1980261802086
 30
0.0
 10
126.0137330208852
 20
-216.9024336802823
 30
0.0
 10
126.099740243086
 20
-216.7041020136651
 30
0.0
 10
125.5413988543364
 20
-216.1644578471337
 30
0.0
 10
124.6473541323379
 20
-215.5318920139582
 30
0.0
 10
124.6473541323379
 20
-215.5318920139582
 30
0.0
 10
106.349723303579
 20
-204.9677145165992
 30
0.0
 10
106.349723303579
 20
-204.9677145165992
 30
0.0
 10
104.5737341373566
 20
-204.4130067389604
 30
0.0
 10
101.8800994158076
 20
-205.2371661831987
 30
0.0
 10
100.0019105273881
 20
-207.0015489605357
 30
0.0
  0
SPLINE
  5
9B
330
86
100
AcDbEntity
  8
Calque 1
 62
     7
370
    13
100
AcDbSpline
210
0.0
220
0.0
230
1.0
 70
    11
 71
     3
 72
    20
 73
    16
 74
     0
 42
0.0000000001
 43
0.0000000001
 12
1.0
 22
0.0
 32
0.0
 13
1.0
 23
0.0
 33
0.0
 40
0.0
 40
0.0
 40
0.0
 40
0.0
 40
1.0
 40
1.0
 40
1.0
 40
2.0
 40
2.0
 40
2.0
 40
3.0
 40
3.0
 40
3.0
 40
4.0
 40
4.0
 40
4.0
 40
5.0
 40
5.0
 40
5.0
 40
5.0
 10
136.6191149626783
 20
-222.3534500678083
 30
0.0
 10
136.6191149626783
 20
-222.3534500678083
 30
0.0
 10
131.4937477417375
 20
-219.3943147907709
 30
0.0
 10
131.4937477417375
 20
-219.3943147907709
 30
0.0
 10
129.777801353278
 20
-218.4036089576851
 30
0.0
 10
128.3688421869631
 20
-217.6047436801072
 30
0.0
 10
128.3625627425204
 20
-217.6190311801034
 30
0.0
 10
128.3619630202987
 20
-217.6204070134362
 30
0.0
 10
128.3655260758532
 20
-217.6453131245414
 30
0.0
 10
128.3711705202961
 20
-217.6818256245321
 30
0.0
 10
128.3711705202961
 20
-217.6818256245321
 30
0.0
 10
137.2637810736283
 20
-222.8159770121374
 30
0.0
 10
137.2637810736283
 20
-222.8159770121374
 30
0.0
 10
137.0522555181257
 20
-222.6350020121824
 30
0.0
 10
136.8366024626239
 20
-222.4790036788882
 30
0.0
 10
136.6191149626783
 20
-222.3534500678083
 30
0.0
  0
SPLINE
  5
9C
330
86
100
AcDbEntity
  8
Calque 1
 62
     1
370
    13
100
AcDbSpline
210
0.0
220
0.0
230
1.0
 70
    11
 71
     3
 72
    26
 73
    22
 74
     0
 42
0.0000000001
 43
0.0000000001
 12
1.0
 22
0.0
 32
0.0
 13
1.0
 23
0.0
 33
0.0
 40
0.0
 40
0.0
 40
0.0
 40
0.0
 40
1.0
 40
1.0
 40
1.0
 40
2.0
 40
2.0
 40
2.0
 40
3.0
 40
3.0
 40
3.0
 40
4.0
 40
4.0
 40
4.0
 40
5.0
 40
5.0
 40
5.0
 40
6.0
 40
6.0
 40
6.0
 40
7.0
 40
7.0
 40
7.0
 40
7.0
 10
134.6218635742887
 20
-253.2120864489831
 30
0.0
 10
135.0444560741834
 20
-255.6089645039393
 30
0.0
 10
137.0005382959164
 20
-256.3155783926517
 30
0.0
 10
138.9686502398684
 20
-254.7823356152572
 30
0.0
 10
140.9367269060434
 20
-253.2490575600847
 30
0.0
 10
142.3407824612478
 20
-249.9487156164655
 30
0.0
 10
142.0884405168665
 20
-247.4481914504237
 30
0.0
 10
142.0884405168665
 20
-247.4481914504237
 30
0.0
 10
140.1975163506726
 20
-228.7010864551103
 30
0.0
 10
140.1975163506726
 20
-228.7010864551103
 30
0.0
 10
139.9772771840612
 20
-226.517533122323
 30
0.0
 10
138.7212824621526
 20
-224.0629053451593
 30
0.0
 10
137.2637810736283
 20
-222.8159770121374
 30
0.0
 10
137.2637810736283
 20
-222.8159770121374
 30
0.0
 10
128.3711705202961
 20
-217.6818256245321
 30
0.0
 10
128.3711705202961
 20
-217.6818256245321
 30
0.0
 10
128.4238049647273
 20
-218.0233850688909
 30
0.0
 10
128.737812464649
 20
-219.8374742351045
 30
0.0
 10
129.11965913122
 20
-222.0029653456742
 30
0.0
 10
129.11965913122
 20
-222.0029653456742
 30
0.0
 10
134.6218635742887
 20
-253.2120864489831
 30
0.0
 10
134.6218635742887
 20
-253.2120864489831
 30
0.0
  0
SPLINE
  5
9D
330
86
100
AcDbEntity
  8
Calque 1
 62
     7
370
    13
100
AcDbSpline
210
0.0
220
0.0
230
1.0
 70
    11
 71
     3
 72
    17
 73
    13
 74
     0
 42
0.0000000001
 43
0.0000000001
 12
1.0
 22
0.0
 32
0.0
 13
1.0
 23
0.0
 33
0.0
 40
0.0
 40
0.0
 40
0.0
 40
0.0
 40
1.0
 40
1.0
 40
1.0
 40
2.0
 40
2.0
 40
2.0
 40
3.0
 40
3.0
 40
3.0
 40
4.0
 40
4.0
 40
4.0
 40
4.0
 10
153.0361227363521
 20
-231.8318128432165
 30
0.0
 10
153.0361227363521
 20
-231.8318128432165
 30
0.0
 10
145.9554494047888
 20
-227.7437886775722
 30
0.0
 10
145.9554494047888
 20
-227.7437886775722
 30
0.0
 10
145.7379971826213
 20
-227.6182350664923
 30
0.0
 10
145.5290469048957
 20
-227.5290528442923
 30
0.0
 10
145.3301155160562
 20
-227.473067010973
 30
0.0
 10
145.3301155160562
 20
-227.473067010973
 30
0.0
 10
153.5202749584527
 20
-232.2016650653468
 30
0.0
 10
153.5202749584527
 20
-232.2016650653468
 30
0.0
 10
153.3698152362689
 20
-232.0600247876044
 30
0.0
 10
153.210394958531
 20
-231.9324250654137
 30
0.0
 10
153.0361227363521
 20
-231.8318128432165
 30
0.0
  0
SPLINE
  5
9E
330
86
100
AcDbEntity
  8
Calque 1
 62
     1
370
    13
100
AcDbSpline
210
0.0
220
0.0
230
1.0
 70
    11
 71
     3
 72
    26
 73
    22
 74
     0
 42
0.0000000001
 43
0.0000000001
 12
1.0
 22
0.0
 32
0.0
 13
1.0
 23
0.0
 33
0.0
 40
0.0
 40
0.0
 40
0.0
 40
0.0
 40
1.0
 40
1.0
 40
1.0
 40
2.0
 40
2.0
 40
2.0
 40
3.0
 40
3.0
 40
3.0
 40
4.0
 40
4.0
 40
4.0
 40
5.0
 40
5.0
 40
5.0
 40
6.0
 40
6.0
 40
6.0
 40
7.0
 40
7.0
 40
7.0
 40
7.0
 10
143.2939880165648
 20
-230.4888231213302
 30
0.0
 10
143.2939880165648
 20
-230.4888231213302
 30
0.0
 10
144.8727391272815
 20
-246.1414320063059
 30
0.0
 10
144.8727391272815
 20
-246.1414320063059
 30
0.0
 10
145.1249046827746
 20
-248.6418503390146
 30
0.0
 10
146.4435527380005
 20
-250.5523889496478
 30
0.0
 10
147.8028760709932
 20
-250.3869361719111
 30
0.0
 10
149.1623405150985
 20
-250.2215892275082
 30
0.0
 10
151.0936930146153
 20
-247.7947250614481
 30
0.0
 10
152.0948057921432
 20
-244.9939870065928
 30
0.0
 10
152.0948057921432
 20
-244.9939870065928
 30
0.0
 10
154.3357913471384
 20
-238.7252670081602
 30
0.0
 10
154.3357913471384
 20
-238.7252670081602
 30
0.0
 10
155.2351630135802
 20
-236.2090442310111
 30
0.0
 10
154.8512702358977
 20
-233.4546964539219
 30
0.0
 10
153.5202749584527
 20
-232.2016650653468
 30
0.0
 10
153.5202749584527
 20
-232.2016650653468
 30
0.0
 10
145.3301155160562
 20
-227.473067010973
 30
0.0
 10
145.3301155160562
 20
-227.473067010973
 30
0.0
 10
143.9593974608432
 20
-227.0871281221809
 30
0.0
 10
143.0737135721759
 20
-228.3052697885428
 30
0.0
 10
143.2939880165648
 20
-230.4888231213302
 30
0.0
  0
SPLINE
  5
9F
330
86
100
AcDbEntity
  8
Calque 1
 62
     7
370
    13
100
AcDbSpline
210
0.0
220
0.0
230
1.0
 70
    11
 71
     3
 72
    17
 73
    13
 74
     0
 42
0.0000000001
 43
0.0000000001
 12
1.0
 22
0.0
 32
0.0
 13
1.0
 23
0.0
 33
0.0
 40
0.0
 40
0.0
 40
0.0
 40
0.0
 40
1.0
 40
1.0
 40
1.0
 40
2.0
 40
2.0
 40
2.0
 40
3.0
 40
3.0
 40
3.0
 40
4.0
 40
4.0
 40
4.0
 40
4.0
 10
98.3955369166786
 20
-200.285048128881
 30
0.0
 10
98.3955369166786
 20
-200.285048128881
 30
0.0
 10
86.49764775298662
 20
-193.4157945194877
 30
0.0
 10
86.49764775298662
 20
-193.4157945194877
 30
0.0
 10
86.32704441969577
 20
-193.3172989639565
 30
0.0
 10
86.14430553085256
 20
-193.2476606306409
 30
0.0
 10
85.95602803089965
 20
-193.1934034084322
 30
0.0
 10
85.95602803089965
 20
-193.1934034084322
 30
0.0
 10
98.865189972117
 20
-200.6465395176795
 30
0.0
 10
98.865189972117
 20
-200.6465395176795
 30
0.0
 10
98.72922941659539
 20
-200.5126603510467
 30
0.0
 10
98.57615913885589
 20
-200.3893292399665
 30
0.0
 10
98.3955369166786
 20
-200.285048128881
 30
0.0
  0
SPLINE
  5
A0
330
86
100
AcDbEntity
  8
Calque 1
 62
     1
370
    13
100
AcDbSpline
210
0.0
220
0.0
230
1.0
 70
    11
 71
     3
 72
    32
 73
    28
 74
     0
 42
0.0000000001
 43
0.0000000001
 12
1.0
 22
0.0
 32
0.0
 13
1.0
 23
0.0
 33
0.0
 40
0.0
 40
0.0
 40
0.0
 40
0.0
 40
1.0
 40
1.0
 40
1.0
 40
2.0
 40
2.0
 40
2.0
 40
3.0
 40
3.0
 40
3.0
 40
4.0
 40
4.0
 40
4.0
 40
5.0
 40
5.0
 40
5.0
 40
6.0
 40
6.0
 40
6.0
 40
7.0
 40
7.0
 40
7.0
 40
8.0
 40
8.0
 40
8.0
 40
9.0
 40
9.0
 40
9.0
 40
9.0
 10
80.46218442116214
 20
-196.3015872965437
 30
0.0
 10
80.46218442116214
 20
-196.3015872965437
 30
0.0
 10
69.47495581279775
 20
-213.9645356254612
 30
0.0
 10
69.47495581279775
 20
-213.9645356254612
 30
0.0
 10
67.87129859097648
 20
-216.5424592359281
 30
0.0
 10
66.91484748010457
 20
-219.8104867351109
 30
0.0
 10
67.34925803555141
 20
-221.2271011792014
 30
0.0
 10
67.78370386877609
 20
-222.6436803455138
 30
0.0
 10
70.01011970155278
 20
-223.1271975676152
 30
0.0
 10
72.2967547009813
 20
-222.3016270122658
 30
0.0
 10
72.2967547009813
 20
-222.3016270122658
 30
0.0
 10
80.64686358778239
 20
-219.2866470130198
 30
0.0
 10
80.64686358778239
 20
-219.2866470130198
 30
0.0
 10
82.9334985872109
 20
-218.4610411798929
 30
0.0
 10
86.52195414186919
 20
-216.1720425693543
 30
0.0
 10
88.62108775245567
 20
-214.200050069847
 30
0.0
 10
88.62108775245567
 20
-214.200050069847
 30
0.0
 10
97.69880080574185
 20
-205.6720000719787
 30
0.0
 10
97.69880080574185
 20
-205.6720000719787
 30
0.0
 10
99.57695441638354
 20
-203.9074761835315
 30
0.0
 10
100.0205724718281
 20
-201.7842478507286
 30
0.0
 10
98.865189972117
 20
-200.6465395176795
 30
0.0
 10
98.865189972117
 20
-200.6465395176795
 30
0.0
 10
85.95602803089965
 20
-193.1934034084322
 30
0.0
 10
85.95602803089965
 20
-193.1934034084322
 30
0.0
 10
84.25038275354834
 20
-192.702195630777
 30
0.0
 10
81.90628025413442
 20
-193.9799920193466
 30
0.0
 10
80.46218442116214
 20
-196.3015872965437
 30
0.0
  0
SPLINE
  5
A1
330
86
100
AcDbEntity
  8
Calque 1
 62
     7
370
    13
100
AcDbSpline
210
0.0
220
0.0
230
1.0
 70
    11
 71
     3
 72
    17
 73
    13
 74
     0
 42
0.0000000001
 43
0.0000000001
 12
1.0
 22
0.0
 32
0.0
 13
1.0
 23
0.0
 33
0.0
 40
0.0
 40
0.0
 40
0.0
 40
0.0
 40
1.0
 40
1.0
 40
1.0
 40
2.0
 40
2.0
 40
2.0
 40
3.0
 40
3.0
 40
3.0
 40
4.0
 40
4.0
 40
4.0
 40
4.0
 10
170.4000566208996
 20
-241.8568753407107
 30
0.0
 10
170.4000566208996
 20
-241.8568753407107
 30
0.0
 10
161.4500844009152
 20
-236.6895981197804
 30
0.0
 10
161.4500844009152
 20
-236.6895981197804
 30
0.0
 10
161.2757769009588
 20
-236.5889858975832
 30
0.0
 10
161.0953310676704
 20
-236.5203353420446
 30
0.0
 10
160.9123805121608
 20
-236.4695000642797
 30
0.0
 10
160.9123805121608
 20
-236.4695000642797
 30
0.0
 10
170.8746838430038
 20
-242.2212242295082
 30
0.0
 10
170.8746838430038
 20
-242.2212242295082
 30
0.0
 10
170.7282810652623
 20
-242.0820886739877
 30
0.0
 10
170.5723532875239
 20
-241.9563586740189
 30
0.0
 10
170.4000566208996
 20
-241.8568753407107
 30
0.0
  0
SPLINE
  5
A2
330
86
100
AcDbEntity
  8
Calque 1
 62
     1
370
    13
100
AcDbSpline
210
0.0
220
0.0
230
1.0
 70
    11
 71
     3
 72
    35
 73
    31
 74
     0
 42
0.0000000001
 43
0.0000000001
 12
1.0
 22
0.0
 32
0.0
 13
1.0
 23
0.0
 33
0.0
 40
0.0
 40
0.0
 40
0.0
 40
0.0
 40
1.0
 40
1.0
 40
1.0
 40
2.0
 40
2.0
 40
2.0
 40
3.0
 40
3.0
 40
3.0
 40
4.0
 40
4.0
 40
4.0
 40
5.0
 40
5.0
 40
5.0
 40
6.0
 40
6.0
 40
6.0
 40
7.0
 40
7.0
 40
7.0
 40
8.0
 40
8.0
 40
8.0
 40
9.0
 40
9.0
 40
9.0
 40
10.0
 40
10.0
 40
10.0
 40
10.0
 10
156.50978440215
 20
-239.9804150634018
 30
0.0
 10
156.50978440215
 20
-239.9804150634018
 30
0.0
 10
154.2830157915959
 20
-246.2090947840669
 30
0.0
 10
154.2830157915959
 20
-246.2090947840669
 30
0.0
 10
153.281903014068
 20
-249.0098681167003
 30
0.0
 10
152.7016541253248
 20
-253.3284325600649
 30
0.0
 10
152.993507180807
 20
-255.8060614483343
 30
0.0
 10
152.993507180807
 20
-255.8060614483343
 30
0.0
 10
153.5289885695623
 20
-260.3495922805319
 30
0.0
 10
153.5289885695623
 20
-260.3495922805319
 30
0.0
 10
153.8209827361559
 20
-262.8272564465788
 30
0.0
 10
155.9284066245178
 20
-264.2169892240095
 30
0.0
 10
158.2121135683914
 20
-263.43791477976
 30
0.0
 10
158.2121135683914
 20
-263.43791477976
 30
0.0
 10
162.2154357896127
 20
-262.0721356134344
 30
0.0
 10
162.2154357896127
 20
-262.0721356134344
 30
0.0
 10
164.4992485668195
 20
-261.2930611691849
 30
0.0
 10
167.3217530105582
 20
-258.3883947810219
 30
0.0
 10
168.4879657880445
 20
-255.6170783928258
 30
0.0
 10
168.4879657880445
 20
-255.6170783928258
 30
0.0
 10
171.3996877317614
 20
-248.6968131167781
 30
0.0
 10
171.3996877317614
 20
-248.6968131167781
 30
0.0
 10
172.4488135648321
 20
-246.2038031174018
 30
0.0
 10
172.1864174537865
 20
-243.4677997847523
 30
0.0
 10
170.8746838430038
 20
-242.2212242295082
 30
0.0
 10
170.8746838430038
 20
-242.2212242295082
 30
0.0
 10
160.9123805121608
 20
-236.4695000642797
 30
0.0
 10
160.9123805121608
 20
-236.4695000642797
 30
0.0
 10
159.2941182903432
 20
-236.0198142310588
 30
0.0
 10
157.4091560685918
 20
-237.464227564031
 30
0.0
 10
156.50978440215
 20
-239.9804150634018
 30
0.0
  0
SPLINE
  5
A3
330
86
100
AcDbEntity
  8
Calque 1
 62
     1
370
    13
100
AcDbSpline
210
0.0
220
0.0
230
1.0
 70
    11
 71
     3
 72
    32
 73
    28
 74
     0
 42
0.0000000001
 43
0.0000000001
 12
1.0
 22
0.0
 32
0.0
 13
1.0
 23
0.0
 33
0.0
 40
0.0
 40
0.0
 40
0.0
 40
0.0
 40
1.0
 40
1.0
 40
1.0
 40
2.0
 40
2.0
 40
2.0
 40
3.0
 40
3.0
 40
3.0
 40
4.0
 40
4.0
 40
4.0
 40
5.0
 40
5.0
 40
5.0
 40
6.0
 40
6.0
 40
6.0
 40
7.0
 40
7.0
 40
7.0
 40
8.0
 40
8.0
 40
8.0
 40
9.0
 40
9.0
 40
9.0
 40
9.0
 10
134.5430530187532
 20
-265.5660467236722
 30
0.0
 10
134.0300435744369
 20
-268.166865611911
 30
0.0
 10
134.7994519075781
 20
-270.7224936668277
 30
0.0
 10
136.2529669072145
 20
-271.2452750555855
 30
0.0
 10
137.7064819068509
 20
-271.7680917221214
 30
0.0
 10
140.5675802394687
 20
-272.0531008887168
 30
0.0
 10
142.6109396834022
 20
-271.8786875554272
 30
0.0
 10
144.6542638495589
 20
-271.7043094999152
 30
0.0
 10
147.450239404415
 20
-270.4424233891197
 30
0.0
 10
148.824026626294
 20
-269.0744570005725
 30
0.0
 10
150.1979196815062
 20
-267.7064200564703
 30
0.0
 10
151.0830038479512
 20
-264.5600303350344
 30
0.0
 10
150.7909744035801
 20
-262.0823661689876
 30
0.0
 10
150.7909744035801
 20
-262.0823661689876
 30
0.0
 10
150.3028005148127
 20
-257.9395908922455
 30
0.0
 10
150.3028005148127
 20
-257.9395908922455
 30
0.0
 10
150.0107005148859
 20
-255.4619620039761
 30
0.0
 10
148.4934032930432
 20
-253.5903700599995
 30
0.0
 10
146.930950515656
 20
-253.7803408932849
 30
0.0
 10
145.3685330160463
 20
-253.9705233932374
 30
0.0
 10
142.2932280168153
 20
-255.5259911706263
 30
0.0
 10
140.0970099618093
 20
-257.2369986701991
 30
0.0
 10
140.0970099618093
 20
-257.2369986701991
 30
0.0
 10
139.4687832952995
 20
-257.7263367256323
 30
0.0
 10
139.4687832952995
 20
-257.7263367256323
 30
0.0
 10
137.2727416291818
 20
-259.4372736696487
 30
0.0
 10
135.0560977408469
 20
-262.9651572798778
 30
0.0
 10
134.5430530187532
 20
-265.5660467236722
 30
0.0
  0
SPLINE
  5
A4
330
86
100
AcDbEntity
  8
Calque 1
 62
     1
370
    13
100
AcDbSpline
210
0.0
220
0.0
230
1.0
 70
    11
 71
     3
 72
    23
 73
    19
 74
     0
 42
0.0000000001
 43
0.0000000001
 12
1.0
 22
0.0
 32
0.0
 13
1.0
 23
0.0
 33
0.0
 40
0.0
 40
0.0
 40
0.0
 40
0.0
 40
1.0
 40
1.0
 40
1.0
 40
2.0
 40
2.0
 40
2.0
 40
3.0
 40
3.0
 40
3.0
 40
4.0
 40
4.0
 40
4.0
 40
5.0
 40
5.0
 40
5.0
 40
6.0
 40
6.0
 40
6.0
 40
6.0
 10
58.3208633155862
 20
-316.6971639331115
 30
0.0
 10
57.20139359364403
 20
-317.8381883772711
 30
0.0
 10
55.160538871932
 20
-320.9830964320402
 30
0.0
 10
53.78537581672012
 20
-323.6860092091422
 30
0.0
 10
53.78537581672012
 20
-323.6860092091422
 30
0.0
 10
48.960539984593
 20
-333.1698047623269
 30
0.0
 10
48.960539984593
 20
-333.1698047623269
 30
0.0
 10
48.54719026247416
 20
-333.9821814287902
 30
0.0
 10
48.07644359592527
 20
-334.9577530952131
 30
0.0
 10
47.59126831826858
 20
-335.9987297616197
 30
0.0
 10
47.59126831826858
 20
-335.9987297616197
 30
0.0
 10
82.14239442074224
 20
-316.0502753221623
 30
0.0
 10
82.14239442074224
 20
-316.0502753221623
 30
0.0
 10
82.14239442074224
 20
-316.0502753221623
 30
0.0
 10
64.17189442523467
 20
-314.8726678224564
 30
0.0
 10
64.17189442523467
 20
-314.8726678224564
 30
0.0
 10
62.073254703537
 20
-314.7351197669352
 30
0.0
 10
59.44033303752869
 20
-315.5560689333968
 30
0.0
 10
58.3208633155862
 20
-316.6971639331115
 30
0.0
  0
SPLINE
  5
A5
330
86
100
AcDbEntity
  8
Calque 1
 62
     1
370
    13
100
AcDbSpline
210
0.0
220
0.0
230
1.0
 70
    11
 71
     3
 72
    26
 73
    22
 74
     0
 42
0.0000000001
 43
0.0000000001
 12
1.0
 22
0.0
 32
0.0
 13
1.0
 23
0.0
 33
0.0
 40
0.0
 40
0.0
 40
0.0
 40
0.0
 40
1.0
 40
1.0
 40
1.0
 40
2.0
 40
2.0
 40
2.0
 40
3.0
 40
3.0
 40
3.0
 40
4.0
 40
4.0
 40
4.0
 40
5.0
 40
5.0
 40
5.0
 40
6.0
 40
6.0
 40
6.0
 40
7.0
 40
7.0
 40
7.0
 40
7.0
 10
57.33234470472226
 20
-314.1140544893132
 30
0.0
 10
58.3113735933664
 20
-313.1160108784513
 30
0.0
 10
59.43070220419786
 20
-310.8340325456884
 30
0.0
 10
59.81981609298916
 20
-309.0427681016916
 30
0.0
 10
60.20896525955864
 20
-307.2513978243616
 30
0.0
 10
59.65027109303192
 20
-304.2698258806627
 30
0.0
 10
58.5784263710776
 20
-302.416790047793
 30
0.0
 10
58.5784263710776
 20
-302.416790047793
 30
0.0
 10
46.44872692966536
 20
-281.4466558863688
 30
0.0
 10
46.44872692966536
 20
-281.4466558863688
 30
0.0
 10
46.29036498526072
 20
-281.1729356086593
 30
0.0
 10
46.10064109641924
 20
-280.9548836642695
 30
0.0
 10
45.89109109647161
 20
-280.7794472754241
 30
0.0
 10
45.89109109647161
 20
-280.7794472754241
 30
0.0
 10
45.89087942980488
 20
-310.4043492124623
 30
0.0
 10
45.89087942980488
 20
-310.4043492124623
 30
0.0
 10
45.89087942980488
 20
-310.4043492124623
 30
0.0
 10
52.42485303928245
 20
-314.1402306004175
 30
0.0
 10
52.42485303928245
 20
-314.1402306004175
 30
0.0
 10
54.14492692774157
 20
-315.1238808779494
 30
0.0
 10
56.35324526052275
 20
-315.112062822397
 30
0.0
 10
57.33234470472226
 20
-314.1140544893132
 30
0.0
  0
SPLINE
  5
A6
330
86
100
AcDbEntity
  8
Calque 1
 62
     1
370
    13
100
AcDbSpline
210
0.0
220
0.0
230
1.0
 70
    11
 71
     3
 72
    41
 73
    37
 74
     0
 42
0.0000000001
 43
0.0000000001
 12
1.0
 22
0.0
 32
0.0
 13
1.0
 23
0.0
 33
0.0
 40
0.0
 40
0.0
 40
0.0
 40
0.0
 40
1.0
 40
1.0
 40
1.0
 40
2.0
 40
2.0
 40
2.0
 40
3.0
 40
3.0
 40
3.0
 40
4.0
 40
4.0
 40
4.0
 40
5.0
 40
5.0
 40
5.0
 40
6.0
 40
6.0
 40
6.0
 40
7.0
 40
7.0
 40
7.0
 40
8.0
 40
8.0
 40
8.0
 40
9.0
 40
9.0
 40
9.0
 40
10.0
 40
10.0
 40
10.0
 40
11.0
 40
11.0
 40
11.0
 40
12.0
 40
12.0
 40
12.0
 40
12.0
 10
79.10593025483448
 20
-255.4799183928606
 30
0.0
 10
79.10593025483448
 20
-255.4799183928606
 30
0.0
 10
78.4659208105501
 20
-256.5241053370439
 30
0.0
 10
78.4659208105501
 20
-256.5241053370439
 30
0.0
 10
76.8788441442801
 20
-259.113070891952
 30
0.0
 10
76.2434560888835
 20
-262.9515047798815
 30
0.0
 10
77.0539630331252
 20
-265.0540956126893
 30
0.0
 10
77.0539630331252
 20
-265.0540956126893
 30
0.0
 10
77.67686275519168
 20
-266.6699942233964
 30
0.0
 10
77.67686275519168
 20
-266.6699942233964
 30
0.0
 10
78.48733442165586
 20
-268.7725145006485
 30
0.0
 10
80.95829580992687
 20
-270.2726314447179
 30
0.0
 10
83.16777830937454
 20
-270.0036736670069
 30
0.0
 10
83.16777830937454
 20
-270.0036736670069
 30
0.0
 10
89.9599146965655
 20
-269.1769742227692
 30
0.0
 10
89.9599146965655
 20
-269.1769742227692
 30
0.0
 10
92.16936191823534
 20
-268.9080870006145
 30
0.0
 10
95.6302177507035
 20
-266.9506995011035
 30
0.0
 10
97.65068191686488
 20
-264.8272595016348
 30
0.0
 10
97.65068191686488
 20
-264.8272595016348
 30
0.0
 10
105.0569338594577
 20
-257.0435706146918
 30
0.0
 10
105.0569338594577
 20
-257.0435706146918
 30
0.0
 10
107.0773274700638
 20
-254.9201306152224
 30
0.0
 10
109.6917988582988
 20
-250.9171611717788
 30
0.0
 10
110.866725246894
 20
-248.1480672835825
 30
0.0
 10
110.866725246894
 20
-248.1480672835825
 30
0.0
 10
116.3093808010888
 20
-235.3217375645663
 30
0.0
 10
116.3093808010888
 20
-235.3217375645663
 30
0.0
 10
117.4843424674622
 20
-232.5526789541476
 30
0.0
 10
116.5816546899104
 20
-231.3345725655631
 30
0.0
 10
114.3033099682571
 20
-232.6148736763546
 30
0.0
 10
114.3033099682571
 20
-232.6148736763546
 30
0.0
 10
86.13400441974404
 20
-248.4448239501746
 30
0.0
 10
86.13400441974404
 20
-248.4448239501746
 30
0.0
 10
83.85565969809164
 20
-249.7251956165211
 30
0.0
 10
80.69311275443768
 20
-252.8909528379517
 30
0.0
 10
79.10593025483448
 20
-255.4799183928606
 30
0.0
  0
SPLINE
  5
A7
330
86
100
AcDbEntity
  8
Calque 1
 62
     1
370
    13
100
AcDbSpline
210
0.0
220
0.0
230
1.0
 70
    11
 71
     3
 72
    38
 73
    34
 74
     0
 42
0.0000000001
 43
0.0000000001
 12
1.0
 22
0.0
 32
0.0
 13
1.0
 23
0.0
 33
0.0
 40
0.0
 40
0.0
 40
0.0
 40
0.0
 40
1.0
 40
1.0
 40
1.0
 40
2.0
 40
2.0
 40
2.0
 40
3.0
 40
3.0
 40
3.0
 40
4.0
 40
4.0
 40
4.0
 40
5.0
 40
5.0
 40
5.0
 40
6.0
 40
6.0
 40
6.0
 40
7.0
 40
7.0
 40
7.0
 40
8.0
 40
8.0
 40
8.0
 40
9.0
 40
9.0
 40
9.0
 40
10.0
 40
10.0
 40
10.0
 40
11.0
 40
11.0
 40
11.0
 40
11.0
 10
69.21026664619735
 20
-262.4065689466842
 30
0.0
 10
69.21026664619735
 20
-262.4065689466842
 30
0.0
 10
66.85215886900907
 20
-261.9407611690227
 30
0.0
 10
66.85215886900907
 20
-261.9407611690227
 30
0.0
 10
64.84739331395485
 20
-261.5448033913439
 30
0.0
 10
61.38008164815476
 20
-262.503230057771
 30
0.0
 10
59.14710414871292
 20
-264.0706217240462
 30
0.0
 10
59.14710414871292
 20
-264.0706217240462
 30
0.0
 10
51.41640248397916
 20
-269.4968378338008
 30
0.0
 10
51.41640248397916
 20
-269.4968378338008
 30
0.0
 10
49.18338970675948
 20
-271.0643000556311
 30
0.0
 10
47.16627692948617
 20
-272.8958517218394
 30
0.0
 10
46.93418442954414
 20
-273.5669408883388
 30
0.0
 10
46.70180970738003
 20
-274.238241721504
 30
0.0
 10
47.38887970720809
 20
-276.3032617209879
 30
0.0
 10
48.46079498471809
 20
-278.1563328316358
 30
0.0
 10
48.46079498471809
 20
-278.1563328316358
 30
0.0
 10
60.23404775955241
 20
-298.5103053265472
 30
0.0
 10
60.23404775955241
 20
-298.5103053265472
 30
0.0
 10
61.30582192595137
 20
-300.3632706038619
 30
0.0
 10
63.27696775879179
 20
-299.6553867151498
 30
0.0
 10
64.6141013695685
 20
-296.9375161602737
 30
0.0
 10
64.6141013695685
 20
-296.9375161602737
 30
0.0
 10
74.11098497830562
 20
-277.6335161650999
 30
0.0
 10
74.11098497830562
 20
-277.6335161650999
 30
0.0
 10
75.44822442241554
 20
-274.9153281102235
 30
0.0
 10
75.87917775564108
 20
-270.9712725556545
 30
0.0
 10
75.06874136695474
 20
-268.8687170006243
 30
0.0
 10
75.06874136695474
 20
-268.8687170006243
 30
0.0
 10
74.32886053380656
 20
-266.9493589455488
 30
0.0
 10
74.32886053380656
 20
-266.9493589455488
 30
0.0
 10
73.51835358956454
 20
-264.8468739460743
 30
0.0
 10
71.21496164569622
 20
-262.8025972799188
 30
0.0
 10
69.21026664619735
 20
-262.4065689466842
 30
0.0
  0
SPLINE
  5
A8
330
86
100
AcDbEntity
  8
Calque 1
 62
     1
370
    13
100
AcDbSpline
210
0.0
220
0.0
230
1.0
 70
    11
 71
     3
 72
    32
 73
    28
 74
     0
 42
0.0000000001
 43
0.0000000001
 12
1.0
 22
0.0
 32
0.0
 13
1.0
 23
0.0
 33
0.0
 40
0.0
 40
0.0
 40
0.0
 40
0.0
 40
1.0
 40
1.0
 40
1.0
 40
2.0
 40
2.0
 40
2.0
 40
3.0
 40
3.0
 40
3.0
 40
4.0
 40
4.0
 40
4.0
 40
5.0
 40
5.0
 40
5.0
 40
6.0
 40
6.0
 40
6.0
 40
7.0
 40
7.0
 40
7.0
 40
8.0
 40
8.0
 40
8.0
 40
9.0
 40
9.0
 40
9.0
 40
9.0
 10
51.93191665051692
 20
-235.6607570089265
 30
0.0
 10
51.93191665051692
 20
-235.6607570089265
 30
0.0
 10
58.27574303781988
 20
-232.924083398499
 30
0.0
 10
58.27574303781988
 20
-232.924083398499
 30
0.0
 10
60.56749331502464
 20
-231.9353178431908
 30
0.0
 10
63.13779692549313
 20
-229.9777892325691
 30
0.0
 10
63.98763859194721
 20
-228.5738747884755
 30
0.0
 10
64.83744498062377
 20
-227.16999562216
 30
0.0
 10
65.14986498054553
 20
-224.7728706227592
 30
0.0
 10
64.6818347028849
 20
-223.2469303453633
 30
0.0
 10
64.21366331411322
 20
-221.7210253457442
 30
0.0
 10
62.02287803688306
 20
-220.6934895126681
 30
0.0
 10
59.8131133152133
 20
-220.9635409014894
 30
0.0
 10
59.8131133152133
 20
-220.9635409014894
 30
0.0
 10
49.11523304010996
 20
-222.2706884011624
 30
0.0
 10
49.11523304010996
 20
-222.2706884011624
 30
0.0
 10
47.93441526262733
 20
-222.4150097900155
 30
0.0
 10
46.77716304069454
 20
-222.7064747899425
 30
0.0
 10
45.89147915202689
 20
-223.0509975676341
 30
0.0
 10
45.89147915202689
 20
-223.0509975676341
 30
0.0
 10
45.89140859647153
 20
-234.1342875648632
 30
0.0
 10
45.89140859647153
 20
-234.1342875648632
 30
0.0
 10
46.37767748523871
 20
-235.7743161755644
 30
0.0
 10
46.89114554066591
 20
-237.034579508583
 30
0.0
 10
47.15428248504453
 20
-237.1621086752174
 30
0.0
 10
47.49026804051613
 20
-237.3250214529548
 30
0.0
 10
49.64016637331216
 20
-236.6494872864571
 30
0.0
 10
51.93191665051692
 20
-235.6607570089265
 30
0.0
  0
SPLINE
  5
A9
330
86
100
AcDbEntity
  8
Calque 1
 62
     1
370
    13
100
AcDbSpline
210
0.0
220
0.0
230
1.0
 70
    11
 71
     3
 72
    26
 73
    22
 74
     0
 42
0.0000000001
 43
0.0000000001
 12
1.0
 22
0.0
 32
0.0
 13
1.0
 23
0.0
 33
0.0
 40
0.0
 40
0.0
 40
0.0
 40
0.0
 40
1.0
 40
1.0
 40
1.0
 40
2.0
 40
2.0
 40
2.0
 40
3.0
 40
3.0
 40
3.0
 40
4.0
 40
4.0
 40
4.0
 40
5.0
 40
5.0
 40
5.0
 40
6.0
 40
6.0
 40
6.0
 40
7.0
 40
7.0
 40
7.0
 40
7.0
 10
64.35241081407844
 20
-203.1310828503921
 30
0.0
 10
63.92057553640849
 20
-204.7398906277678
 30
0.0
 10
63.99878636972229
 20
-207.9590936825184
 30
0.0
 10
64.52611859181282
 20
-210.2847106263816
 30
0.0
 10
64.52611859181282
 20
-210.2847106263816
 30
0.0
 10
64.73912581398174
 20
-211.2233111817022
 30
0.0
 10
64.73912581398174
 20
-211.2233111817022
 30
0.0
 10
65.2664933138498
 20
-213.5488928477878
 30
0.0
 10
67.01002692452523
 20
-213.3424120145059
 30
0.0
 10
68.61350775745763
 20
-210.7646647929278
 30
0.0
 10
68.61350775745763
 20
-210.7646647929278
 30
0.0
 10
77.64955775519846
 20
-196.2382284076708
 30
0.0
 10
77.64955775519846
 20
-196.2382284076708
 30
0.0
 10
79.25310914368652
 20
-193.6603753527596
 30
0.0
 10
78.70080025493574
 20
-192.5969972974702
 30
0.0
 10
76.42234969994982
 20
-193.8751817415951
 30
0.0
 10
76.42234969994982
 20
-193.8751817415951
 30
0.0
 10
69.28032831284641
 20
-197.8817142405933
 30
0.0
 10
69.28032831284641
 20
-197.8817142405933
 30
0.0
 10
67.00184248008264
 20
-199.1598634069406
 30
0.0
 10
64.78421081397055
 20
-201.52206340635
 30
0.0
 10
64.35241081407844
 20
-203.1310828503921
 30
0.0
  0
SPLINE
  5
AA
330
86
100
AcDbEntity
  8
Calque 1
 62
     1
370
    13
100
AcDbSpline
210
0.0
220
0.0
230
1.0
 70
    11
 71
     3
 72
    26
 73
    22
 74
     0
 42
0.0000000001
 43
0.0000000001
 12
1.0
 22
0.0
 32
0.0
 13
1.0
 23
0.0
 33
0.0
 40
0.0
 40
0.0
 40
0.0
 40
0.0
 40
1.0
 40
1.0
 40
1.0
 40
2.0
 40
2.0
 40
2.0
 40
3.0
 40
3.0
 40
3.0
 40
4.0
 40
4.0
 40
4.0
 40
5.0
 40
5.0
 40
5.0
 40
6.0
 40
6.0
 40
6.0
 40
7.0
 40
7.0
 40
7.0
 40
7.0
 10
56.85327248262006
 20
-209.9157403486957
 30
0.0
 10
56.85327248262006
 20
-209.9157403486957
 30
0.0
 10
51.96557165050856
 20
-211.5301220149586
 30
0.0
 10
51.96557165050856
 20
-211.5301220149586
 30
0.0
 10
49.68387553996775
 20
-212.2837259036594
 30
0.0
 10
47.4877633182946
 20
-214.3450770142549
 30
0.0
 10
47.08552609617301
 20
-216.1108003471473
 30
0.0
 10
46.68332415182892
 20
-217.8765236800391
 30
0.0
 10
48.16206276257046
 20
-219.1004156241771
 30
0.0
 10
50.37186276201805
 20
-218.8302584020227
 30
0.0
 10
50.37186276201805
 20
-218.8302584020227
 30
0.0
 10
58.96725803764684
 20
-217.7800036800631
 30
0.0
 10
58.96725803764684
 20
-217.7800036800631
 30
0.0
 10
61.17695220376122
 20
-217.5099522912419
 30
0.0
 10
62.55338525897248
 20
-215.3863006251061
 30
0.0
 10
62.02601775910443
 20
-213.0606836812429
 30
0.0
 10
62.02601775910443
 20
-213.0606836812429
 30
0.0
 10
61.96100081467628
 20
-212.7738753479813
 30
0.0
 10
61.96100081467628
 20
-212.7738753479813
 30
0.0
 10
61.43356275925255
 20
-210.4481878485625
 30
0.0
 10
59.1350038709384
 20
-209.1621364599956
 30
0.0
 10
56.85327248262006
 20
-209.9157403486957
 30
0.0
  0
SPLINE
  5
AB
330
86
100
AcDbEntity
  8
Calque 1
 62
     1
370
    13
100
AcDbSpline
210
0.0
220
0.0
230
1.0
 70
    11
 71
     3
 72
    35
 73
    31
 74
     0
 42
0.0000000001
 43
0.0000000001
 12
1.0
 22
0.0
 32
0.0
 13
1.0
 23
0.0
 33
0.0
 40
0.0
 40
0.0
 40
0.0
 40
0.0
 40
1.0
 40
1.0
 40
1.0
 40
2.0
 40
2.0
 40
2.0
 40
3.0
 40
3.0
 40
3.0
 40
4.0
 40
4.0
 40
4.0
 40
5.0
 40
5.0
 40
5.0
 40
6.0
 40
6.0
 40
6.0
 40
7.0
 40
7.0
 40
7.0
 40
8.0
 40
8.0
 40
8.0
 40
9.0
 40
9.0
 40
9.0
 40
10.0
 40
10.0
 40
10.0
 40
10.0
 10
113.0032533019155
 20
-256.9979564480363
 30
0.0
 10
113.0032533019155
 20
-256.9979564480363
 30
0.0
 10
120.1749080223451
 20
-272.1905078331273
 30
0.0
 10
120.1749080223451
 20
-272.1905078331273
 30
0.0
 10
121.1127324665551
 20
-274.1771406104085
 30
0.0
 10
123.743219965897
 20
-274.746135888044
 30
0.0
 10
126.0204710764389
 20
-273.454933943922
 30
0.0
 10
126.0204710764389
 20
-273.454933943922
 30
0.0
 10
126.7667724651412
 20
-273.03167116625
 30
0.0
 10
126.7667724651412
 20
-273.03167116625
 30
0.0
 10
129.043953020128
 20
-271.7403281110173
 30
0.0
 10
131.3534832973281
 20
-268.4213947785138
 30
0.0
 10
131.8988071860806
 20
-265.6561814458717
 30
0.0
 10
132.4441310748331
 20
-262.89096811323
 30
0.0
 10
132.5447080192527
 20
-258.6673714476191
 30
0.0
 10
132.1220449638023
 20
-256.270317003774
 30
0.0
 10
132.1220449638023
 20
-256.270317003774
 30
0.0
 10
126.7821182984706
 20
-225.9816284002349
 30
0.0
 10
126.7821182984706
 20
-225.9816284002349
 30
0.0
 10
126.3595963541322
 20
-223.5846445119455
 30
0.0
 10
125.1542252433221
 20
-222.9930714565377
 30
0.0
 10
124.1034413546964
 20
-224.6666845116748
 30
0.0
 10
123.0526927438476
 20
-226.3404386779227
 30
0.0
 10
121.231689133192
 20
-229.9754961770143
 30
0.0
 10
120.0566921890412
 20
-232.7445547874331
 30
0.0
 10
120.0566921890412
 20
-232.7445547874331
 30
0.0
 10
113.4345594129191
 20
-248.3510908946425
 30
0.0
 10
113.4345594129191
 20
-248.3510908946425
 30
0.0
 10
112.2595624687682
 20
-251.1201847828394
 30
0.0
 10
112.0654641354836
 20
-255.0112531151994
 30
0.0
 10
113.0032533019155
 20
-256.9979564480363
 30
0.0
  0
SPLINE
  5
AC
330
86
100
AcDbEntity
  8
Calque 1
 62
     1
370
    13
100
AcDbSpline
210
0.0
220
0.0
230
1.0
 70
    11
 71
     3
 72
    17
 73
    13
 74
     0
 42
0.0000000001
 43
0.0000000001
 12
1.0
 22
0.0
 32
0.0
 13
1.0
 23
0.0
 33
0.0
 40
0.0
 40
0.0
 40
0.0
 40
0.0
 40
1.0
 40
1.0
 40
1.0
 40
2.0
 40
2.0
 40
2.0
 40
3.0
 40
3.0
 40
3.0
 40
4.0
 40
4.0
 40
4.0
 40
4.0
 10
142.0457191279888
 20
-275.2413653323647
 30
0.0
 10
140.3797613506267
 20
-275.3835700545512
 30
0.0
 10
138.1695380178466
 20
-277.7876094983945
 30
0.0
 10
137.133958851439
 20
-280.5836556088069
 30
0.0
 10
137.133958851439
 20
-280.5836556088069
 30
0.0
 10
135.3829110740986
 20
-285.3113364409582
 30
0.0
 10
135.3829110740986
 20
-285.3113364409582
 30
0.0
 10
135.3829110740986
 20
-285.3113364409582
 30
0.0
 10
145.0845116272286
 20
-279.710036720136
 30
0.0
 10
145.0845116272286
 20
-279.710036720136
 30
0.0
 10
145.0628863494564
 20
-277.1075950541204
 30
0.0
 10
143.7021871831296
 20
-275.1000778323994
 30
0.0
 10
142.0457191279888
 20
-275.2413653323647
 30
0.0
  0
SPLINE
  5
AD
330
86
100
AcDbEntity
  8
Calque 1
 62
     1
370
    13
100
AcDbSpline
210
0.0
220
0.0
230
1.0
 70
    11
 71
     3
 72
    38
 73
    34
 74
     0
 42
0.0000000001
 43
0.0000000001
 12
1.0
 22
0.0
 32
0.0
 13
1.0
 23
0.0
 33
0.0
 40
0.0
 40
0.0
 40
0.0
 40
0.0
 40
1.0
 40
1.0
 40
1.0
 40
2.0
 40
2.0
 40
2.0
 40
3.0
 40
3.0
 40
3.0
 40
4.0
 40
4.0
 40
4.0
 40
5.0
 40
5.0
 40
5.0
 40
6.0
 40
6.0
 40
6.0
 40
7.0
 40
7.0
 40
7.0
 40
8.0
 40
8.0
 40
8.0
 40
9.0
 40
9.0
 40
9.0
 40
10.0
 40
10.0
 40
10.0
 40
11.0
 40
11.0
 40
11.0
 40
11.0
 10
66.06437081365033
 20
-229.8177692326089
 30
0.0
 10
65.1778049805386
 20
-231.2823614544653
 30
0.0
 10
64.47958720293545
 20
-234.6176636758539
 30
0.0
 10
64.51253664737158
 20
-237.2297714529785
 30
0.0
 10
64.51253664737158
 20
-237.2297714529785
 30
0.0
 10
64.71397275843229
 20
-253.1662958934387
 30
0.0
 10
64.71397275843229
 20
-253.1662958934387
 30
0.0
 10
64.74695748064657
 20
-255.7782625594526
 30
0.0
 10
66.41422053578526
 20
-258.2394872810592
 30
0.0
 10
68.41902136861732
 20
-258.6355508920713
 30
0.0
 10
68.41902136861732
 20
-258.6355508920713
 30
0.0
 10
70.04807859043228
 20
-258.9573547808799
 30
0.0
 10
70.04807859043228
 20
-258.9573547808799
 30
0.0
 10
72.05280886770898
 20
-259.3533831141145
 30
0.0
 10
74.99158886697423
 20
-257.558978947896
 30
0.0
 10
76.57870081102175
 20
-254.9701545040986
 30
0.0
 10
76.57870081102175
 20
-254.9701545040986
 30
0.0
 10
77.12811692199571
 20
-254.0738872821009
 30
0.0
 10
77.12811692199571
 20
-254.0738872821009
 30
0.0
 10
78.7151935882654
 20
-251.4849922827478
 30
0.0
 10
80.29193386564904
 20
-247.1196142282838
 30
0.0
 10
80.63194108778642
 20
-244.3731686734148
 30
0.0
 10
80.63194108778642
 20
-244.3731686734148
 30
0.0
 10
82.85140719834268
 20
-226.4459545112297
 30
0.0
 10
82.85140719834268
 20
-226.4459545112297
 30
0.0
 10
83.19134386492406
 20
-223.6996853452495
 30
0.0
 10
81.59869330976684
 20
-222.1280603456425
 30
0.0
 10
79.31191719922761
 20
-222.9537014565475
 30
0.0
 10
79.31191719922761
 20
-222.9537014565475
 30
0.0
 10
71.83380442331907
 20
-225.6537567336505
 30
0.0
 10
71.83380442331907
 20
-225.6537567336505
 30
0.0
 10
69.54713414611304
 20
-226.4793625667774
 30
0.0
 10
66.95090136898455
 20
-228.3532122885306
 30
0.0
 10
66.06437081365033
 20
-229.8177692326089
 30
0.0
  0
SPLINE
  5
AE
330
86
100
AcDbEntity
  8
Calque 1
 62
     1
370
    13
100
AcDbSpline
210
0.0
220
0.0
230
1.0
 70
    11
 71
     3
 72
    32
 73
    28
 74
     0
 42
0.0000000001
 43
0.0000000001
 12
1.0
 22
0.0
 32
0.0
 13
1.0
 23
0.0
 33
0.0
 40
0.0
 40
0.0
 40
0.0
 40
0.0
 40
1.0
 40
1.0
 40
1.0
 40
2.0
 40
2.0
 40
2.0
 40
3.0
 40
3.0
 40
3.0
 40
4.0
 40
4.0
 40
4.0
 40
5.0
 40
5.0
 40
5.0
 40
6.0
 40
6.0
 40
6.0
 40
7.0
 40
7.0
 40
7.0
 40
8.0
 40
8.0
 40
8.0
 40
9.0
 40
9.0
 40
9.0
 40
9.0
 10
51.04697359518263
 20
-266.4802703345549
 30
0.0
 10
51.04697359518263
 20
-266.4802703345549
 30
0.0
 10
57.92938581568408
 20
-261.6494372802071
 30
0.0
 10
57.92938581568408
 20
-261.6494372802071
 30
0.0
 10
60.1624338706816
 20
-260.0820103361544
 30
0.0
 10
61.962411925787
 20
-256.6624647814538
 30
0.0
 10
61.92946248135088
 20
-254.0503570043286
 30
0.0
 10
61.92946248135088
 20
-254.0503570043286
 30
0.0
 10
61.74414831473046
 20
-239.3838678413285
 30
0.0
 10
61.74414831473046
 20
-239.3838678413285
 30
0.0
 10
61.71112831473866
 20
-236.7717953419821
 30
0.0
 10
59.80905637077001
 20
-235.4435870089804
 30
0.0
 10
57.5173766491206
 20
-236.4322820087335
 30
0.0
 10
57.5173766491206
 20
-236.4322820087335
 30
0.0
 10
52.48034498371296
 20
-238.60525200819
 30
0.0
 10
52.48034498371296
 20
-238.60525200819
 30
0.0
 10
50.18862998428604
 20
-239.5938764523874
 30
0.0
 10
47.75188804045083
 20
-242.6989911738335
 30
0.0
 10
47.06538248506693
 20
-245.5052325620209
 30
0.0
 10
47.06538248506693
 20
-245.5052325620209
 30
0.0
 10
45.89130276313833
 20
-250.3049153385982
 30
0.0
 10
45.89130276313833
 20
-250.3049153385982
 30
0.0
 10
45.89130276313833
 20
-250.3049153385982
 30
0.0
 10
45.89116165202697
 20
-267.3516314454479
 30
0.0
 10
45.89116165202697
 20
-267.3516314454479
 30
0.0
 10
47.29768665167536
 20
-267.9688161675159
 30
0.0
 10
49.34026998449804
 20
-267.6781978342551
 30
0.0
 10
51.04697359518263
 20
-266.4802703345549
 30
0.0
  0
SPLINE
  5
AF
330
86
100
AcDbEntity
  8
Calque 1
 62
     1
370
    13
100
AcDbSpline
210
0.0
220
0.0
230
1.0
 70
    11
 71
     3
 72
    20
 73
    16
 74
     0
 42
0.0000000001
 43
0.0000000001
 12
1.0
 22
0.0
 32
0.0
 13
1.0
 23
0.0
 33
0.0
 40
0.0
 40
0.0
 40
0.0
 40
0.0
 40
1.0
 40
1.0
 40
1.0
 40
2.0
 40
2.0
 40
2.0
 40
3.0
 40
3.0
 40
3.0
 40
4.0
 40
4.0
 40
4.0
 40
5.0
 40
5.0
 40
5.0
 40
5.0
 10
47.61448109604066
 20
-330.4690086518908
 30
0.0
 10
47.61448109604066
 20
-330.4690086518908
 30
0.0
 10
50.97454831742277
 20
-323.8644442090978
 30
0.0
 10
50.97454831742277
 20
-323.8644442090978
 30
0.0
 10
52.34967609485682
 20
-321.1615667097734
 30
0.0
 10
52.06741859492757
 20
-318.1454578216384
 30
0.0
 10
50.34723887313525
 20
-317.1620544885511
 30
0.0
 10
50.34723887313525
 20
-317.1620544885511
 30
0.0
 10
45.89084415202704
 20
-314.6141522669656
 30
0.0
 10
45.89084415202704
 20
-314.6141522669656
 30
0.0
 10
45.89084415202704
 20
-314.6141522669656
 30
0.0
 10
45.890703040916
 20
-332.7046319846652
 30
0.0
 10
45.890703040916
 20
-332.7046319846652
 30
0.0
 10
46.54062554075361
 20
-332.1531697625807
 30
0.0
 10
47.14186470726977
 20
-331.3979783738806
 30
0.0
 10
47.61448109604066
 20
-330.4690086518908
 30
0.0
  0
ENDBLK
  5
89
330
86
100
AcDbEntity
  8
0
100
AcDbBlockEnd
  0
BLOCK
  5
B2
330
B0
100
AcDbEntity
  8
0
100
AcDbBlockBegin
  2
block 4
 70
     0
 10
0.0
 20
0.0
 30
0.0
  3
block 4
  1

  0
SPLINE
  5
B4
330
B0
100
AcDbEntity
  8
Calque 1
 62
     1
370
    13
100
AcDbSpline
210
0.0
220
0.0
230
1.0
 70
    11
 71
     3
 72
    35
 73
    31
 74
     0
 42
0.0000000001
 43
0.0000000001
 12
1.0
 22
0.0
 32
0.0
 13
1.0
 23
0.0
 33
0.0
 40
0.0
 40
0.0
 40
0.0
 40
0.0
 40
1.0
 40
1.0
 40
1.0
 40
2.0
 40
2.0
 40
2.0
 40
3.0
 40
3.0
 40
3.0
 40
4.0
 40
4.0
 40
4.0
 40
5.0
 40
5.0
 40
5.0
 40
6.0
 40
6.0
 40
6.0
 40
7.0
 40
7.0
 40
7.0
 40
8.0
 40
8.0
 40
8.0
 40
9.0
 40
9.0
 40
9.0
 40
10.0
 40
10.0
 40
10.0
 40
10.0
 10
186.0302288392144
 20
-53.44708372114624
 30
0.0
 10
185.8861896725841
 20
-53.30935927673615
 30
0.0
 10
185.7322374504002
 20
-53.1847228878785
 30
0.0
 10
185.5608227282209
 20
-53.08576872123663
 30
0.0
 10
185.5608227282209
 20
-53.08576872123663
 30
0.0
 10
178.4369693966684
 20
-48.97280316670926
 30
0.0
 10
178.4369693966684
 20
-48.97280316670926
 30
0.0
 10
178.2646727300447
 20
-48.87331983340074
 30
0.0
 10
178.0845796745347
 20
-48.80505733341801
 30
0.0
 10
177.9011705079135
 20
-48.75376344454183
 30
0.0
 10
176.2581080083245
 20
-48.29441150021227
 30
0.0
 10
174.245828286605
 20
-49.71712899985664
 30
0.0
 10
173.196843564645
 20
-52.21017427701109
 30
0.0
 10
173.196843564645
 20
-52.21017427701109
 30
0.0
 10
170.4869105097673
 20
-58.65052066428975
 30
0.0
 10
170.4869105097673
 20
-58.65052066428975
 30
0.0
 10
169.3208741211699
 20
-61.42176649693048
 30
0.0
 10
169.1654049545417
 20
-65.2845420515203
 30
0.0
 10
170.1413646765199
 20
-67.23427427325497
 30
0.0
 10
170.1413646765199
 20
-67.23427427325497
 30
0.0
 10
170.178794398733
 20
-67.30906316212533
 30
0.0
 10
170.178794398733
 20
-67.30906316212533
 30
0.0
 10
170.178794398733
 20
-67.30906316212533
 30
0.0
 10
187.04686383896
 20
-57.57017399789324
 30
0.0
 10
187.04686383896
 20
-57.57017399789324
 30
0.0
 10
187.04686383896
 20
-57.57017399789324
 30
0.0
 10
190.1091866159727
 20
-55.80208705389099
 30
0.0
 10
190.1091866159727
 20
-55.80208705389099
 30
0.0
 10
190.1091866159727
 20
-55.80208705389099
 30
0.0
 10
186.0302288392144
 20
-53.44708372114624
 30
0.0
 10
186.0302288392144
 20
-53.44708372114624
 30
0.0
  0
SPLINE
  5
B5
330
B0
100
AcDbEntity
  8
Calque 1
 62
     1
370
    13
100
AcDbSpline
210
0.0
220
0.0
230
1.0
 70
    11
 71
     3
 72
    32
 73
    28
 74
     0
 42
0.0000000001
 43
0.0000000001
 12
1.0
 22
0.0
 32
0.0
 13
1.0
 23
0.0
 33
0.0
 40
0.0
 40
0.0
 40
0.0
 40
0.0
 40
1.0
 40
1.0
 40
1.0
 40
2.0
 40
2.0
 40
2.0
 40
3.0
 40
3.0
 40
3.0
 40
4.0
 40
4.0
 40
4.0
 40
5.0
 40
5.0
 40
5.0
 40
6.0
 40
6.0
 40
6.0
 40
7.0
 40
7.0
 40
7.0
 40
8.0
 40
8.0
 40
8.0
 40
9.0
 40
9.0
 40
9.0
 40
9.0
 10
51.58767609504736
 20
-10.63482105568507
 30
0.0
 10
51.58767609504736
 20
-10.63482105568507
 30
0.0
 10
56.67384970488678
 20
-8.955104987427088
 30
0.0
 10
56.67384970488678
 20
-8.955104987427088
 30
0.0
 10
58.95554581542759
 20
-8.201465839987359
 30
0.0
 10
61.14901220376817
 20
-6.368220886757333
 30
0.0
 10
61.54807442589055
 20
-4.881227313582589
 30
0.0
 10
61.94717192579078
 20
-3.3943042959616
 30
0.0
 10
61.57735498143866
 20
-0.748471030129097
 30
0.0
 10
60.72627859276273
 20
0.9983433697503994
 30
0.0
 10
59.8752022040868
 20
2.745263602960529
 30
0.0
 10
57.80961776015845
 20
4.359433561779623
 30
0.0
 10
56.13621637168806
 20
4.58535244490484
 30
0.0
 10
54.46270914988414
 20
4.811341883583814
 30
0.0
 10
51.49359026173751
 20
4.876290430939666
 30
0.0
 10
49.53814304000426
 20
4.729673830111784
 30
0.0
 10
48.17151720701241
 20
4.627156610504994
 30
0.0
 10
46.6421549851727
 20
3.986441626850995
 30
0.0
 10
45.55542304099993
 20
3.140092481776494
 30
0.0
 10
45.55542304099993
 20
3.140092481776494
 30
0.0
 10
45.55531720766673
 20
-7.241592808920204
 30
0.0
 10
45.55531720766673
 20
-7.241592808920204
 30
0.0
 10
45.55531720766673
 20
-7.241592808920204
 30
0.0
 10
45.93709331868233
 20
-8.207039728734046
 30
0.0
 10
45.93709331868233
 20
-8.207039728734046
 30
0.0
 10
46.76315776292017
 20
-10.29597623193419
 30
0.0
 10
49.3059094289512
 20
-11.38842492534793
 30
0.0
 10
51.58767609504736
 20
-10.63482105568507
 30
0.0
  0
SPLINE
  5
B6
330
B0
100
AcDbEntity
  8
Calque 1
 62
     1
370
    13
100
AcDbSpline
210
0.0
220
0.0
230
1.0
 70
    11
 71
     3
 72
    32
 73
    28
 74
     0
 42
0.0000000001
 43
0.0000000001
 12
1.0
 22
0.0
 32
0.0
 13
1.0
 23
0.0
 33
0.0
 40
0.0
 40
0.0
 40
0.0
 40
0.0
 40
1.0
 40
1.0
 40
1.0
 40
2.0
 40
2.0
 40
2.0
 40
3.0
 40
3.0
 40
3.0
 40
4.0
 40
4.0
 40
4.0
 40
5.0
 40
5.0
 40
5.0
 40
6.0
 40
6.0
 40
6.0
 40
7.0
 40
7.0
 40
7.0
 40
8.0
 40
8.0
 40
8.0
 40
9.0
 40
9.0
 40
9.0
 40
9.0
 10
50.09532026208706
 20
8.093762633175617
 30
0.0
 10
51.79740248388388
 20
8.221503463250011
 30
0.0
 10
54.50373720542933
 20
10.43405507346978
 30
0.0
 10
56.10919359391692
 20
13.01046167440684
 30
0.0
 10
56.10919359391692
 20
13.01046167440684
 30
0.0
 10
57.15084053810089
 20
14.68181690954479
 30
0.0
 10
57.15084053810089
 20
14.68181690954479
 30
0.0
 10
58.59670025996166
 20
17.00214212812615
 30
0.0
 10
58.66252859327886
 20
19.59519983974951
 30
0.0
 10
57.40893276025862
 20
20.81245953091685
 30
0.0
 10
57.27053803807116
 20
20.94683258304426
 30
0.0
 10
57.12060748255302
 20
21.06921119103324
 30
0.0
 10
56.95000414926249
 20
21.16774202185284
 30
0.0
 10
56.95000414926249
 20
21.16774202185284
 30
0.0
 10
50.84123359523405
 20
24.69464042598504
 30
0.0
 10
50.84123359523405
 20
24.69464042598504
 30
0.0
 10
50.64226692861702
 20
24.80950220672157
 30
0.0
 10
50.44689859533264
 20
24.88930053801908
 30
0.0
 10
50.25579887315796
 20
24.94229042592288
 30
0.0
 10
48.79924998463338
 20
25.34618302636304
 30
0.0
 10
47.62481748492701
 20
24.00255833841954
 30
0.0
 10
47.53358915161645
 20
21.64279256528884
 30
0.0
 10
47.53358915161645
 20
21.64279256528884
 30
0.0
 10
47.18821970725825
 20
12.71493973750179
 30
0.0
 10
47.18821970725825
 20
12.71493973750179
 30
0.0
 10
47.08499692950636
 20
10.04568202782245
 30
0.0
 10
48.39313220695705
 20
7.966198191985614
 30
0.0
 10
50.09532026208706
 20
8.093762633175617
 30
0.0
  0
SPLINE
  5
B7
330
B0
100
AcDbEntity
  8
Calque 1
 62
     1
370
    13
100
AcDbSpline
210
0.0
220
0.0
230
1.0
 70
    11
 71
     3
 72
    32
 73
    28
 74
     0
 42
0.0000000001
 43
0.0000000001
 12
1.0
 22
0.0
 32
0.0
 13
1.0
 23
0.0
 33
0.0
 40
0.0
 40
0.0
 40
0.0
 40
0.0
 40
1.0
 40
1.0
 40
1.0
 40
2.0
 40
2.0
 40
2.0
 40
3.0
 40
3.0
 40
3.0
 40
4.0
 40
4.0
 40
4.0
 40
5.0
 40
5.0
 40
5.0
 40
6.0
 40
6.0
 40
6.0
 40
7.0
 40
7.0
 40
7.0
 40
8.0
 40
8.0
 40
8.0
 40
9.0
 40
9.0
 40
9.0
 40
9.0
 10
98.46965552777125
 20
-94.63985121084824
 30
0.0
 10
98.81894080546171
 20
-97.08333121023715
 30
0.0
 10
100.8928508049434
 20
-97.65356121009455
 30
0.0
 10
103.0783444155081
 20
-95.90717009942013
 30
0.0
 10
103.0783444155081
 20
-95.90717009942013
 30
0.0
 10
112.3192171909759
 20
-88.52300204571073
 30
0.0
 10
112.3192171909759
 20
-88.52300204571073
 30
0.0
 10
114.5046402459846
 20
-86.77661093503599
 30
0.0
 10
116.9163702453817
 20
-84.2736173245508
 30
0.0
 10
117.6785113563025
 20
-82.96057843599026
 30
0.0
 10
118.4407230227784
 20
-81.6477617974295
 30
0.0
 10
118.2968602450369
 20
-78.94811927032652
 30
0.0
 10
117.3590710786043
 20
-76.96131010415677
 30
0.0
 10
117.3590710786043
 20
-76.96131010415677
 30
0.0
 10
110.454821913664
 20
-62.33539038559087
 30
0.0
 10
110.454821913664
 20
-62.33539038559087
 30
0.0
 10
109.5170327472315
 20
-60.34872233053215
 30
0.0
 10
107.0965185811697
 20
-60.46062344161511
 30
0.0
 10
105.0761602483419
 20
-62.5839928855288
 30
0.0
 10
105.0761602483419
 20
-62.5839928855288
 30
0.0
 10
99.02228191652196
 20
-68.94641066171606
 30
0.0
 10
99.02228191652196
 20
-68.94641066171606
 30
0.0
 10
97.0019588614716
 20
-71.0697448278519
 30
0.0
 10
95.63466275070239
 20
-74.80615538247312
 30
0.0
 10
95.98391275061499
 20
-77.24947310408456
 30
0.0
 10
95.98391275061499
 20
-77.24947310408456
 30
0.0
 10
98.46965552777125
 20
-94.63985121084824
 30
0.0
 10
98.46965552777125
 20
-94.63985121084824
 30
0.0
  0
SPLINE
  5
B8
330
B0
100
AcDbEntity
  8
Calque 1
 62
     1
370
    13
100
AcDbSpline
210
0.0
220
0.0
230
1.0
 70
    11
 71
     3
 72
    32
 73
    28
 74
     0
 42
0.0000000001
 43
0.0000000001
 12
1.0
 22
0.0
 32
0.0
 13
1.0
 23
0.0
 33
0.0
 40
0.0
 40
0.0
 40
0.0
 40
0.0
 40
1.0
 40
1.0
 40
1.0
 40
2.0
 40
2.0
 40
2.0
 40
3.0
 40
3.0
 40
3.0
 40
4.0
 40
4.0
 40
4.0
 40
5.0
 40
5.0
 40
5.0
 40
6.0
 40
6.0
 40
6.0
 40
7.0
 40
7.0
 40
7.0
 40
8.0
 40
8.0
 40
8.0
 40
9.0
 40
9.0
 40
9.0
 40
9.0
 10
133.7583341300601
 20
-76.60010093758035
 30
0.0
 10
132.431783852614
 20
-76.12300427103304
 30
0.0
 10
129.4834082977958
 20
-76.78908399308847
 30
0.0
 10
127.2061571872539
 20
-78.08043057609919
 30
0.0
 10
127.2061571872539
 20
-78.08043057609919
 30
0.0
 10
125.5379416321151
 20
-79.02634421475139
 30
0.0
 10
125.5379416321151
 20
-79.02634421475139
 30
0.0
 10
123.2606552437956
 20
-80.3175881394287
 30
0.0
 10
120.7931863555238
 20
-82.41537096390432
 30
0.0
 10
120.0543991334864
 20
-83.68809793580826
 30
0.0
 10
119.3155766336709
 20
-84.9607226021567
 30
0.0
 10
119.4458574669717
 20
-87.65827315703787
 30
0.0
 10
120.3434299667472
 20
-89.68244148986513
 30
0.0
 10
120.3434299667472
 20
-89.68244148986513
 30
0.0
 10
122.3357424662494
 20
-94.17446676652017
 30
0.0
 10
122.3357424662494
 20
-94.17446676652017
 30
0.0
 10
122.4251363551159
 20
-94.37597343313625
 30
0.0
 10
122.5260660773126
 20
-94.5704245441987
 30
0.0
 10
122.6327107995079
 20
-94.76028954415123
 30
0.0
 10
122.6327107995079
 20
-94.76028954415123
 30
0.0
 10
131.7050969083512
 20
-89.52224510101631
 30
0.0
 10
131.7050969083512
 20
-89.52224510101631
 30
0.0
 10
131.7050969083512
 20
-89.52224510101631
 30
0.0
 10
134.2868657965946
 20
-82.55130329720346
 30
0.0
 10
134.2868657965946
 20
-82.55130329720346
 30
0.0
 10
135.322727185225
 20
-79.75523954790262
 30
0.0
 10
135.084778574173
 20
-77.07719760412766
 30
0.0
 10
133.7583341300601
 20
-76.60010093758035
 30
0.0
  0
SPLINE
  5
B9
330
B0
100
AcDbEntity
  8
Calque 1
 62
     1
370
    13
100
AcDbSpline
210
0.0
220
0.0
230
1.0
 70
    11
 71
     3
 72
    26
 73
    22
 74
     0
 42
0.0000000001
 43
0.0000000001
 12
1.0
 22
0.0
 32
0.0
 13
1.0
 23
0.0
 33
0.0
 40
0.0
 40
0.0
 40
0.0
 40
0.0
 40
1.0
 40
1.0
 40
1.0
 40
2.0
 40
2.0
 40
2.0
 40
3.0
 40
3.0
 40
3.0
 40
4.0
 40
4.0
 40
4.0
 40
5.0
 40
5.0
 40
5.0
 40
6.0
 40
6.0
 40
6.0
 40
7.0
 40
7.0
 40
7.0
 40
7.0
 10
112.3391138576374
 20
-91.85819843376579
 30
0.0
 10
112.3391138576374
 20
-91.85819843376579
 30
0.0
 10
102.8494974711209
 20
-99.44076870964776
 30
0.0
 10
102.8494974711209
 20
-99.44076870964776
 30
0.0
 10
100.6641449716673
 20
-101.1871950981003
 30
0.0
 10
97.83349136126378
 20
-104.8583417638492
 30
0.0
 10
96.55943441713785
 20
-107.5988606520529
 30
0.0
 10
96.55943441713785
 20
-107.5988606520529
 30
0.0
 10
96.09221552836563
 20
-108.6043125962458
 30
0.0
 10
96.09221552836563
 20
-108.6043125962458
 30
0.0
 10
95.79549413955104
 20
-109.2424170405307
 30
0.0
 10
95.6108502507083
 20
-109.8511350959342
 30
0.0
 10
95.52247941739702
 20
-110.4126514846827
 30
0.0
 10
95.52247941739702
 20
-110.4126514846827
 30
0.0
 10
119.7468827446739
 20
-96.42645898817912
 30
0.0
 10
119.7468827446739
 20
-96.42645898817912
 30
0.0
 10
119.7468827446739
 20
-96.42645898817912
 30
0.0
 10
117.9447880229022
 20
-92.36330565586185
 30
0.0
 10
117.9447880229022
 20
-92.36330565586185
 30
0.0
 10
117.047074412016
 20
-90.33910204525675
 30
0.0
 10
114.5243958015354
 20
-90.11170148975786
 30
0.0
 10
112.3391138576374
 20
-91.85819843376579
 30
0.0
  0
SPLINE
  5
BA
330
B0
100
AcDbEntity
  8
Calque 1
 62
     1
370
    13
100
AcDbSpline
210
0.0
220
0.0
230
1.0
 70
    11
 71
     3
 72
    44
 73
    40
 74
     0
 42
0.0000000001
 43
0.0000000001
 12
1.0
 22
0.0
 32
0.0
 13
1.0
 23
0.0
 33
0.0
 40
0.0
 40
0.0
 40
0.0
 40
0.0
 40
1.0
 40
1.0
 40
1.0
 40
2.0
 40
2.0
 40
2.0
 40
3.0
 40
3.0
 40
3.0
 40
4.0
 40
4.0
 40
4.0
 40
5.0
 40
5.0
 40
5.0
 40
6.0
 40
6.0
 40
6.0
 40
7.0
 40
7.0
 40
7.0
 40
8.0
 40
8.0
 40
8.0
 40
9.0
 40
9.0
 40
9.0
 40
10.0
 40
10.0
 40
10.0
 40
11.0
 40
11.0
 40
11.0
 40
12.0
 40
12.0
 40
12.0
 40
13.0
 40
13.0
 40
13.0
 40
13.0
 10
95.89039136174962
 20
-97.4600978768097
 30
0.0
 10
95.89039136174962
 20
-97.4600978768097
 30
0.0
 10
93.22688386241536
 20
-78.82700360369016
 30
0.0
 10
93.22688386241536
 20
-78.82700360369016
 30
0.0
 10
92.87752802916955
 20
-76.38367177096765
 30
0.0
 10
90.78400358524846
 20
-74.60468399363457
 30
0.0
 10
88.57448580802294
 20
-74.87357121578961
 30
0.0
 10
88.57448580802294
 20
-74.87357121578961
 30
0.0
 10
82.36460914290886
 20
-75.62939760448951
 30
0.0
 10
82.36460914290886
 20
-75.62939760448951
 30
0.0
 10
80.15509136568335
 20
-75.89835538220024
 30
0.0
 10
77.25321192196432
 20
-78.34225518714459
 30
0.0
 10
75.91600775563192
 20
-81.06033035313175
 30
0.0
 10
75.91600775563192
 20
-81.06033035313175
 30
0.0
 10
65.38502664715358
 20
-102.4661556533361
 30
0.0
 10
65.38502664715358
 20
-102.4661556533361
 30
0.0
 10
64.04789303637686
 20
-105.1841673193233
 30
0.0
 10
62.65343303672547
 20
-108.7908614850881
 30
0.0
 10
62.28629720348376
 20
-110.4809845402211
 30
0.0
 10
61.91926720357556
 20
-112.1707900953542
 30
0.0
 10
63.33598748099928
 20
-113.6662856505359
 30
0.0
 10
65.43452136936344
 20
-113.8037278727239
 30
0.0
 10
65.43452136936344
 20
-113.8037278727239
 30
0.0
 10
86.06912858642693
 20
-115.1556781501637
 30
0.0
 10
86.06912858642693
 20
-115.1556781501637
 30
0.0
 10
86.46099414188465
 20
-115.1813603723795
 30
0.0
 10
86.84555719734419
 20
-115.1992814834861
 30
0.0
 10
87.21332803058543
 20
-115.2100412057056
 30
0.0
 10
87.21332803058543
 20
-115.2100412057056
 30
0.0
 10
91.43078636286437
 20
-112.7750631507589
 30
0.0
 10
91.43078636286437
 20
-112.7750631507589
 30
0.0
 10
91.8822008071959
 20
-111.8582289843214
 30
0.0
 10
92.41972830706143
 20
-110.7347375957132
 30
0.0
 10
92.96872108470228
 20
-109.553743429342
 30
0.0
 10
92.96872108470228
 20
-109.553743429342
 30
0.0
 10
94.20912302883656
 20
-106.8854734300089
 30
0.0
 10
94.20912302883656
 20
-106.8854734300089
 30
0.0
 10
95.48310941740681
 20
-104.1447781529163
 30
0.0
 10
96.23974719499543
 20
-99.90333093175437
 30
0.0
 10
95.89039136174962
 20
-97.4600978768097
 30
0.0
  0
SPLINE
  5
BB
330
B0
100
AcDbEntity
  8
Calque 1
 62
     1
370
    13
100
AcDbSpline
210
0.0
220
0.0
230
1.0
 70
    11
 71
     3
 72
    26
 73
    22
 74
     0
 42
0.0000000001
 43
0.0000000001
 12
1.0
 22
0.0
 32
0.0
 13
1.0
 23
0.0
 33
0.0
 40
0.0
 40
0.0
 40
0.0
 40
0.0
 40
1.0
 40
1.0
 40
1.0
 40
2.0
 40
2.0
 40
2.0
 40
3.0
 40
3.0
 40
3.0
 40
4.0
 40
4.0
 40
4.0
 40
5.0
 40
5.0
 40
5.0
 40
6.0
 40
6.0
 40
6.0
 40
7.0
 40
7.0
 40
7.0
 40
7.0
 10
57.98374887122628
 20
7.871373763524152
 30
0.0
 10
59.11150887094423
 20
7.718973763562326
 30
0.0
 10
61.3987083148169
 20
9.4601062094284
 30
0.0
 10
63.06614775884447
 20
11.74025004014597
 30
0.0
 10
64.56005581402654
 20
13.78304498802993
 30
0.0
 10
65.09705414722542
 20
15.89879437849711
 30
0.0
 10
64.41643998072898
 20
16.76662768969017
 30
0.0
 10
64.33738248074894
 20
16.86748685378371
 30
0.0
 10
64.24576609188277
 20
16.95550490709374
 30
0.0
 10
64.1332652585775
 20
17.02045129432571
 30
0.0
 10
64.02584442527127
 20
17.0825049038537
 30
0.0
 10
63.90466525863491
 20
17.11658323631762
 30
0.0
 10
63.77681859200022
 20
17.13595073582351
 30
0.0
 10
62.61882553673407
 20
17.31103434246787
 30
0.0
 10
60.69526942610398
 20
15.79052931709971
 30
0.0
 10
59.24930387090969
 20
13.47023694045478
 30
0.0
 10
59.24930387090969
 20
13.47023694045478
 30
0.0
 10
58.85211137100898
 20
12.83284042895024
 30
0.0
 10
58.85211137100898
 20
12.83284042895024
 30
0.0
 10
57.24658442696603
 20
10.25639618911335
 30
0.0
 10
56.85577720484127
 20
8.02373624607325
 30
0.0
 10
57.98374887122628
 20
7.871373763524152
 30
0.0
  0
SPLINE
  5
BC
330
B0
100
AcDbEntity
  8
Calque 1
 62
     1
370
    13
100
AcDbSpline
210
0.0
220
0.0
230
1.0
 70
    11
 71
     3
 72
    29
 73
    25
 74
     0
 42
0.0000000001
 43
0.0000000001
 12
1.0
 22
0.0
 32
0.0
 13
1.0
 23
0.0
 33
0.0
 40
0.0
 40
0.0
 40
0.0
 40
0.0
 40
1.0
 40
1.0
 40
1.0
 40
2.0
 40
2.0
 40
2.0
 40
3.0
 40
3.0
 40
3.0
 40
4.0
 40
4.0
 40
4.0
 40
5.0
 40
5.0
 40
5.0
 40
6.0
 40
6.0
 40
6.0
 40
7.0
 40
7.0
 40
7.0
 40
8.0
 40
8.0
 40
8.0
 40
8.0
 10
63.27523914768114
 20
3.341881365517319
 30
0.0
 10
64.00778220305328
 20
1.838660014978802
 30
0.0
 10
66.47126470243755
 20
1.65451001967686
 30
0.0
 10
68.74971525742346
 20
2.93258859818147
 30
0.0
 10
68.74971525742346
 20
2.93258859818147
 30
0.0
 10
74.64152747817289
 20
6.237728236082555
 30
0.0
 10
74.64152747817289
 20
6.237728236082555
 30
0.0
 10
76.64703386656046
 20
7.36266820809577
 30
0.0
 10
77.24206414418924
 20
8.934961222825965
 30
0.0
 10
76.18634136667553
 20
9.97128119638724
 30
0.0
 10
76.04261970004478
 20
10.11239230389831
 30
0.0
 10
75.87014664453224
 20
10.24419007831364
 30
0.0
 10
75.66447720013934
 20
10.36293507528421
 30
0.0
 10
75.66447720013934
 20
10.36293507528421
 30
0.0
 10
71.34150303455338
 20
12.85876723383245
 30
0.0
 10
71.34150303455338
 20
12.85876723383245
 30
0.0
 10
71.16659581237468
 20
12.95980278681037
 30
0.0
 10
70.97778914575545
 20
13.03332167382363
 30
0.0
 10
70.78227970136003
 20
13.09135361678756
 30
0.0
 10
69.06023025734602
 20
13.60249332596952
 30
0.0
 10
66.63304859128597
 20
12.48775085440897
 30
0.0
 10
65.08259025834042
 20
10.36752118627832
 30
0.0
 10
63.35620164766071
 20
8.006591246510656
 30
0.0
 10
62.54283720341972
 20
4.845102716055837
 30
0.0
 10
63.27523914768114
 20
3.341881365517319
 30
0.0
  0
SPLINE
  5
BD
330
B0
100
AcDbEntity
  8
Calque 1
 62
     1
370
    13
100
AcDbSpline
210
0.0
220
0.0
230
1.0
 70
    11
 71
     3
 72
    20
 73
    16
 74
     0
 42
0.0000000001
 43
0.0000000001
 12
1.0
 22
0.0
 32
0.0
 13
1.0
 23
0.0
 33
0.0
 40
0.0
 40
0.0
 40
0.0
 40
0.0
 40
1.0
 40
1.0
 40
1.0
 40
2.0
 40
2.0
 40
2.0
 40
3.0
 40
3.0
 40
3.0
 40
4.0
 40
4.0
 40
4.0
 40
5.0
 40
5.0
 40
5.0
 40
5.0
 10
161.7357638452879
 20
-67.59121482872138
 30
0.0
 10
161.7357638452879
 20
-67.59121482872138
 30
0.0
 10
156.9265207909348
 20
-69.23173732831133
 30
0.0
 10
156.9265207909348
 20
-69.23173732831133
 30
0.0
 10
154.6427785692837
 20
-70.01091760589436
 30
0.0
 10
151.5916741256017
 20
-71.82606510544029
 30
0.0
 10
150.1463435704076
 20
-73.26553954952513
 30
0.0
 10
148.7500138485345
 20
-74.6560131602886
 30
0.0
 10
147.6071902377092
 20
-77.80391629839033
 30
0.0
 10
147.5365288488379
 20
-80.38181768385711
 30
0.0
 10
147.5365288488379
 20
-80.38181768385711
 30
0.0
 10
167.2096402328089
 20
-69.02335149503018
 30
0.0
 10
167.2096402328089
 20
-69.02335149503018
 30
0.0
 10
166.010971899775
 20
-67.55410260650844
 30
0.0
 10
163.7278999559013
 20
-66.91155316222469
 30
0.0
 10
161.7357638452879
 20
-67.59121482872138
 30
0.0
  0
SPLINE
  5
BE
330
B0
100
AcDbEntity
  8
Calque 1
 62
     1
370
    13
100
AcDbSpline
210
0.0
220
0.0
230
1.0
 70
    11
 71
     3
 72
    41
 73
    37
 74
     0
 42
0.0000000001
 43
0.0000000001
 12
1.0
 22
0.0
 32
0.0
 13
1.0
 23
0.0
 33
0.0
 40
0.0
 40
0.0
 40
0.0
 40
0.0
 40
1.0
 40
1.0
 40
1.0
 40
2.0
 40
2.0
 40
2.0
 40
3.0
 40
3.0
 40
3.0
 40
4.0
 40
4.0
 40
4.0
 40
5.0
 40
5.0
 40
5.0
 40
6.0
 40
6.0
 40
6.0
 40
7.0
 40
7.0
 40
7.0
 40
8.0
 40
8.0
 40
8.0
 40
9.0
 40
9.0
 40
9.0
 40
10.0
 40
10.0
 40
10.0
 40
11.0
 40
11.0
 40
11.0
 40
12.0
 40
12.0
 40
12.0
 40
12.0
 10
85.37976553104374
 20
-27.11670424630831
 30
0.0
 10
85.37976553104374
 20
-27.11670424630831
 30
0.0
 10
83.25163358713156
 20
-44.30594214110765
 30
0.0
 10
83.25163358713156
 20
-44.30594214110765
 30
0.0
 10
82.91162636499418
 20
-47.0523515005227
 30
0.0
 10
84.49750358681986
 20
-48.25183122244499
 30
0.0
 10
86.77581303069474
 20
-46.97163594498737
 30
0.0
 10
86.77581303069474
 20
-46.97163594498737
 30
0.0
 10
115.9474660789575
 20
-30.57840665799293
 30
0.0
 10
115.9474660789575
 20
-30.57840665799293
 30
0.0
 10
118.2257402450546
 20
-29.29799844940576
 30
0.0
 10
121.2946246887321
 20
-26.33142093300923
 30
0.0
 10
122.7671191328081
 20
-23.9859779372909
 30
0.0
 10
124.2395782991066
 20
-21.64046438601883
 30
0.0
 10
125.5492305210015
 20
-19.47970055225562
 30
0.0
 10
125.677429965414
 20
-19.18410805979681
 30
0.0
 10
125.7634724653923
 20
-18.98577639819001
 30
0.0
 10
125.2050957988652
 20
-18.44613224529081
 30
0.0
 10
124.3110510768667
 20
-17.8135311503187
 30
0.0
 10
123.872795243643
 20
-17.50340421378625
 30
0.0
 10
123.3551291326608
 20
-17.17129922225896
 30
0.0
 10
122.7906494105798
 20
-16.84536784168527
 30
0.0
 10
122.7906494105798
 20
-16.84536784168527
 30
0.0
 10
106.6021710812941
 20
-7.49897946902039
 30
0.0
 10
106.6021710812941
 20
-7.49897946902039
 30
0.0
 10
106.4215488591169
 20
-7.394663082792834
 30
0.0
 10
106.2223705258334
 20
-7.314651232679513
 30
0.0
 10
106.0134908036628
 20
-7.249387343806799
 30
0.0
 10
104.237431081885
 20
-6.694681433984186
 30
0.0
 10
101.5437963603361
 20
-7.518840857402573
 30
0.0
 10
99.66564274969443
 20
-9.283223590167196
 30
0.0
 10
99.66564274969443
 20
-9.283223590167196
 30
0.0
 10
89.81464080771299
 20
-18.53781918739613
 30
0.0
 10
89.81464080771299
 20
-18.53781918739613
 30
0.0
 10
87.7155071971265
 20
-20.50981163708641
 30
0.0
 10
85.71980803095896
 20
-24.3702940385973
 30
0.0
 10
85.37976553104374
 20
-27.11670424630831
 30
0.0
  0
SPLINE
  5
BF
330
B0
100
AcDbEntity
  8
Calque 1
 62
     1
370
    13
100
AcDbSpline
210
0.0
220
0.0
230
1.0
 70
    11
 71
     3
 72
    35
 73
    31
 74
     0
 42
0.0000000001
 43
0.0000000001
 12
1.0
 22
0.0
 32
0.0
 13
1.0
 23
0.0
 33
0.0
 40
0.0
 40
0.0
 40
0.0
 40
0.0
 40
1.0
 40
1.0
 40
1.0
 40
2.0
 40
2.0
 40
2.0
 40
3.0
 40
3.0
 40
3.0
 40
4.0
 40
4.0
 40
4.0
 40
5.0
 40
5.0
 40
5.0
 40
6.0
 40
6.0
 40
6.0
 40
7.0
 40
7.0
 40
7.0
 40
8.0
 40
8.0
 40
8.0
 40
9.0
 40
9.0
 40
9.0
 40
10.0
 40
10.0
 40
10.0
 40
10.0
 10
128.7833913535263
 20
-24.28463959633808
 30
0.0
 10
128.7833913535263
 20
-24.28463959633808
 30
0.0
 10
134.2855957965949
 20
-55.49372399841253
 30
0.0
 10
134.2855957965949
 20
-55.49372399841253
 30
0.0
 10
134.7081530187122
 20
-57.89060205336871
 30
0.0
 10
136.6642352404452
 20
-58.59721594208084
 30
0.0
 10
138.6323471843972
 20
-57.06397316468639
 30
0.0
 10
140.6004591283497
 20
-55.53069510951442
 30
0.0
 10
142.0045146835541
 20
-52.230353165895
 30
0.0
 10
141.7521727391728
 20
-49.72986427763101
 30
0.0
 10
141.7521727391728
 20
-49.72986427763101
 30
0.0
 10
139.8612485729789
 20
-30.98276053656589
 30
0.0
 10
139.8612485729789
 20
-30.98276053656589
 30
0.0
 10
139.6409741285893
 20
-28.79917067175277
 30
0.0
 10
138.3849794066814
 20
-26.34454289458846
 30
0.0
 10
136.9275132959346
 20
-25.09761596448621
 30
0.0
 10
136.7159877404321
 20
-24.91667624688015
 30
0.0
 10
136.5002994071527
 20
-24.76067791752666
 30
0.0
 10
136.2828471849846
 20
-24.63512430961869
 30
0.0
 10
136.2828471849846
 20
-24.63512430961869
 30
0.0
 10
131.1574799640438
 20
-21.67595382955787
 30
0.0
 10
131.1574799640438
 20
-21.67595382955787
 30
0.0
 10
129.4415335755843
 20
-20.68528178489235
 30
0.0
 10
128.0325744092694
 20
-19.88638276410251
 30
0.0
 10
128.0262949648267
 20
-19.90070400731067
 30
0.0
 10
128.0256952426044
 20
-19.90208137481312
 30
0.0
 10
128.0292582981595
 20
-19.92698748528882
 30
0.0
 10
128.0349027426024
 20
-19.96346470658044
 30
0.0
 10
128.0875019092555
 20
-20.30502414231097
 30
0.0
 10
128.4015446869553
 20
-22.11911326269637
 30
0.0
 10
128.7833913535263
 20
-24.28463959633808
 30
0.0
  0
SPLINE
  5
C0
330
B0
100
AcDbEntity
  8
Calque 1
 62
     1
370
    13
100
AcDbSpline
210
0.0
220
0.0
230
1.0
 70
    11
 71
     3
 72
    32
 73
    28
 74
     0
 42
0.0000000001
 43
0.0000000001
 12
1.0
 22
0.0
 32
0.0
 13
1.0
 23
0.0
 33
0.0
 40
0.0
 40
0.0
 40
0.0
 40
0.0
 40
1.0
 40
1.0
 40
1.0
 40
2.0
 40
2.0
 40
2.0
 40
3.0
 40
3.0
 40
3.0
 40
4.0
 40
4.0
 40
4.0
 40
5.0
 40
5.0
 40
5.0
 40
6.0
 40
6.0
 40
6.0
 40
7.0
 40
7.0
 40
7.0
 40
8.0
 40
8.0
 40
8.0
 40
9.0
 40
9.0
 40
9.0
 40
9.0
 10
144.5364360718103
 20
-48.42310483351353
 30
0.0
 10
144.7886369050809
 20
-50.92352316622152
 30
0.0
 10
146.1072496825286
 20
-52.83406177685517
 30
0.0
 10
147.4666082932995
 20
-52.66857372134089
 30
0.0
 10
148.8260727374049
 20
-52.50322677693798
 30
0.0
 10
150.7573899591435
 20
-50.07636261087785
 30
0.0
 10
151.7585380144495
 20
-47.27562455602262
 30
0.0
 10
151.7585380144495
 20
-47.27562455602262
 30
0.0
 10
153.9995235694448
 20
-41.00690555860642
 30
0.0
 10
153.9995235694448
 20
-41.00690555860642
 30
0.0
 10
154.8988952358865
 20
-38.49071812279971
 30
0.0
 10
154.515002458204
 20
-35.7363704152912
 30
0.0
 10
153.184007180759
 20
-34.48330378059293
 30
0.0
 10
153.0335474585752
 20
-34.3416623370339
 30
0.0
 10
152.8741271808373
 20
-34.21409906523868
 30
0.0
 10
152.6998549586578
 20
-34.1134868455833
 30
0.0
 10
152.6998549586578
 20
-34.1134868455833
 30
0.0
 10
145.6191816270951
 20
-30.02542622700164
 30
0.0
 10
145.6191816270951
 20
-30.02542622700164
 30
0.0
 10
145.4016941271495
 20
-29.89987389752596
 30
0.0
 10
145.1927438494239
 20
-29.81072695535585
 30
0.0
 10
144.9938477383625
 20
-29.75470584567395
 30
0.0
 10
143.6231296831495
 20
-29.36876696663118
 30
0.0
 10
142.7374457944822
 20
-30.58690860222047
 30
0.0
 10
142.9577202388711
 20
-32.77049715762359
 30
0.0
 10
142.9577202388711
 20
-32.77049715762359
 30
0.0
 10
144.5364360718103
 20
-48.42310483351353
 30
0.0
 10
144.5364360718103
 20
-48.42310483351353
 30
0.0
  0
SPLINE
  5
C1
330
B0
100
AcDbEntity
  8
Calque 1
 62
     1
370
    13
100
AcDbSpline
210
0.0
220
0.0
230
1.0
 70
    11
 71
     3
 72
    38
 73
    34
 74
     0
 42
0.0000000001
 43
0.0000000001
 12
1.0
 22
0.0
 32
0.0
 13
1.0
 23
0.0
 33
0.0
 40
0.0
 40
0.0
 40
0.0
 40
0.0
 40
1.0
 40
1.0
 40
1.0
 40
2.0
 40
2.0
 40
2.0
 40
3.0
 40
3.0
 40
3.0
 40
4.0
 40
4.0
 40
4.0
 40
5.0
 40
5.0
 40
5.0
 40
6.0
 40
6.0
 40
6.0
 40
7.0
 40
7.0
 40
7.0
 40
8.0
 40
8.0
 40
8.0
 40
9.0
 40
9.0
 40
9.0
 40
10.0
 40
10.0
 40
10.0
 40
11.0
 40
11.0
 40
11.0
 40
11.0
 10
67.01302553563556
 20
-23.50877544946536
 30
0.0
 10
67.44743609108241
 20
-24.92535457999208
 30
0.0
 10
69.67381664608125
 20
-25.40883651210187
 30
0.0
 10
71.9604869232876
 20
-24.58326597760837
 30
0.0
 10
71.9604869232876
 20
-24.58326597760837
 30
0.0
 10
80.31056053231119
 20
-21.56828456244927
 30
0.0
 10
80.31056053231119
 20
-21.56828456244927
 30
0.0
 10
82.59723080951721
 20
-20.74268024225655
 30
0.0
 10
86.18568636417551
 20
-18.45368168954265
 30
0.0
 10
88.28485525253983
 20
-16.48168923985237
 30
0.0
 10
88.28485525253983
 20
-16.48168923985237
 30
0.0
 10
97.36253302804818
 20
-7.953674735197925
 30
0.0
 10
97.36253302804818
 20
-7.953674735197925
 30
0.0
 10
99.24068663868987
 20
-6.189115613548912
 30
0.0
 10
99.68430469413441
 20
-4.065920677935877
 30
0.0
 10
98.52892219442299
 20
-2.928179030075669
 30
0.0
 10
98.39296163890171
 20
-2.794335144601422
 30
0.0
 10
98.2398913611622
 20
-2.67100403663675
 30
0.0
 10
98.0592691389849
 20
-2.566722928186071
 30
0.0
 10
98.0592691389849
 20
-2.566722928186071
 30
0.0
 10
86.16137997529295
 20
4.302530507675785
 30
0.0
 10
86.16137997529295
 20
4.302530507675785
 30
0.0
 10
85.99074136422458
 20
4.401026060718509
 30
0.0
 10
85.80803775315887
 20
4.470699670052099
 30
0.0
 10
85.61972497542844
 20
4.524923764360808
 30
0.0
 10
83.9141502536325
 20
5.016164656136127
 30
0.0
 10
81.57001247644074
 20
3.738333022069662
 30
0.0
 10
80.12591664346844
 20
1.41677308129759
 30
0.0
 10
80.12591664346844
 20
1.41677308129759
 30
0.0
 10
69.13865275732621
 20
-16.2461748014164
 30
0.0
 10
69.13865275732621
 20
-16.2461748014164
 30
0.0
 10
67.5350308132828
 20
-18.82413362453608
 30
0.0
 10
66.57857970241089
 20
-22.09212576338488
 30
0.0
 10
67.01302553563556
 20
-23.50877544946536
 30
0.0
  0
SPLINE
  5
C2
330
B0
100
AcDbEntity
  8
Calque 1
 62
     1
370
    13
100
AcDbSpline
210
0.0
220
0.0
230
1.0
 70
    11
 71
     3
 72
    41
 73
    37
 74
     0
 42
0.0000000001
 43
0.0000000001
 12
1.0
 22
0.0
 32
0.0
 13
1.0
 23
0.0
 33
0.0
 40
0.0
 40
0.0
 40
0.0
 40
0.0
 40
1.0
 40
1.0
 40
1.0
 40
2.0
 40
2.0
 40
2.0
 40
3.0
 40
3.0
 40
3.0
 40
4.0
 40
4.0
 40
4.0
 40
5.0
 40
5.0
 40
5.0
 40
6.0
 40
6.0
 40
6.0
 40
7.0
 40
7.0
 40
7.0
 40
8.0
 40
8.0
 40
8.0
 40
9.0
 40
9.0
 40
9.0
 40
10.0
 40
10.0
 40
10.0
 40
11.0
 40
11.0
 40
11.0
 40
12.0
 40
12.0
 40
12.0
 40
12.0
 10
170.5384160653101
 20
-44.50289796941622
 30
0.0
 10
170.3919780097905
 20
-44.36372622341715
 30
0.0
 10
170.2360855098302
 20
-44.23799714284107
 30
0.0
 10
170.0637888432059
 20
-44.13851381204577
 30
0.0
 10
170.0637888432059
 20
-44.13851381204577
 30
0.0
 10
161.1137813454434
 20
-38.97123672165177
 30
0.0
 10
161.1137813454434
 20
-38.97123672165177
 30
0.0
 10
160.9395091232651
 20
-38.87062344701268
 30
0.0
 10
160.7590280121986
 20
-38.80200922596912
 30
0.0
 10
160.5761127344671
 20
-38.75113867171139
 30
0.0
 10
158.9578505126488
 20
-38.30145284985049
 30
0.0
 10
157.0728882908981
 20
-39.74590142411065
 30
0.0
 10
156.1735166244563
 20
-42.26208885991736
 30
0.0
 10
156.1735166244563
 20
-42.26208885991736
 30
0.0
 10
153.9467480139022
 20
-48.49076761127425
 30
0.0
 10
153.9467480139022
 20
-48.49076761127425
 30
0.0
 10
152.9456352363743
 20
-51.2915056661298
 30
0.0
 10
152.3653863476311
 20
-55.61010538727223
 30
0.0
 10
152.6572394031133
 20
-58.08773427554158
 30
0.0
 10
152.6572394031133
 20
-58.08773427554158
 30
0.0
 10
153.1927207918686
 20
-62.63122982996137
 30
0.0
 10
153.1927207918686
 20
-62.63122982996137
 30
0.0
 10
153.4847149584616
 20
-65.1089292737864
 30
0.0
 10
155.5921388468242
 20
-66.49862677343899
 30
0.0
 10
157.8758457906977
 20
-65.71958760696698
 30
0.0
 10
157.8758457906977
 20
-65.71958760696698
 30
0.0
 10
161.8791680119191
 20
-64.35377316286417
 30
0.0
 10
161.8791680119191
 20
-64.35377316286417
 30
0.0
 10
164.1629807891258
 20
-63.57469871861435
 30
0.0
 10
166.985449955087
 20
-60.6700323304517
 30
0.0
 10
168.1516980103508
 20
-57.89875122003346
 30
0.0
 10
168.1516980103508
 20
-57.89875122003346
 30
0.0
 10
171.0634199540677
 20
-50.97845066620788
 30
0.0
 10
171.0634199540677
 20
-50.97845066620788
 30
0.0
 10
172.1125105093609
 20
-48.48547594460879
 30
0.0
 10
171.8501143983153
 20
-45.74947261195963
 30
0.0
 10
170.5384160653101
 20
-44.50289796941622
 30
0.0
  0
SPLINE
  5
C3
330
B0
100
AcDbEntity
  8
Calque 1
 62
     1
370
    13
100
AcDbSpline
210
0.0
220
0.0
230
1.0
 70
    11
 71
     3
 72
    32
 73
    28
 74
     0
 42
0.0000000001
 43
0.0000000001
 12
1.0
 22
0.0
 32
0.0
 13
1.0
 23
0.0
 33
0.0
 40
0.0
 40
0.0
 40
0.0
 40
0.0
 40
1.0
 40
1.0
 40
1.0
 40
2.0
 40
2.0
 40
2.0
 40
3.0
 40
3.0
 40
3.0
 40
4.0
 40
4.0
 40
4.0
 40
5.0
 40
5.0
 40
5.0
 40
6.0
 40
6.0
 40
6.0
 40
7.0
 40
7.0
 40
7.0
 40
8.0
 40
8.0
 40
8.0
 40
9.0
 40
9.0
 40
9.0
 40
9.0
 10
146.5946827379623
 20
-56.06201372049257
 30
0.0
 10
145.0322652383526
 20
-56.25216094266717
 30
0.0
 10
141.9569602391216
 20
-57.80762872005609
 30
0.0
 10
139.7607421841156
 20
-59.51867149740606
 30
0.0
 10
139.7607421841156
 20
-59.51867149740606
 30
0.0
 10
139.1324802398277
 20
-60.00797427506173
 30
0.0
 10
139.1324802398277
 20
-60.00797427506173
 30
0.0
 10
136.936473851488
 20
-61.71894649685602
 30
0.0
 10
134.7198299631532
 20
-65.24683010708537
 30
0.0
 10
134.2067852410595
 20
-67.84768427310165
 30
0.0
 10
133.6937757967432
 20
-70.4485031613404
 30
0.0
 10
134.4631841298844
 20
-73.00416649403468
 30
0.0
 10
135.9166991295208
 20
-73.52691260501527
 30
0.0
 10
137.3701788513797
 20
-74.04976454932905
 30
0.0
 10
140.231312461775
 20
-74.3347737159244
 30
0.0
 10
142.274636627931
 20
-74.16032510485698
 30
0.0
 10
144.3179960718652
 20
-73.98598232712276
 30
0.0
 10
147.1139716267213
 20
-72.72409621632703
 30
0.0
 10
148.4877588486003
 20
-71.35612982778014
 30
0.0
 10
149.8616519038125
 20
-69.98805760590004
 30
0.0
 10
150.74670079248
 20
-66.84170316224204
 30
0.0
 10
150.4547066258857
 20
-64.36400371841701
 30
0.0
 10
150.4547066258857
 20
-64.36400371841701
 30
0.0
 10
149.966532737119
 20
-60.22126371945274
 30
0.0
 10
149.966532737119
 20
-60.22126371945274
 30
0.0
 10
149.6744327371922
 20
-57.74363483118339
 30
0.0
 10
148.157100237572
 20
-55.87200760942901
 30
0.0
 10
146.5946827379623
 20
-56.06201372049257
 30
0.0
  0
SPLINE
  5
C4
330
B0
100
AcDbEntity
  8
Calque 1
 62
     1
370
    13
100
AcDbSpline
210
0.0
220
0.0
230
1.0
 70
    11
 71
     3
 72
    23
 73
    19
 74
     0
 42
0.0000000001
 43
0.0000000001
 12
1.0
 22
0.0
 32
0.0
 13
1.0
 23
0.0
 33
0.0
 40
0.0
 40
0.0
 40
0.0
 40
0.0
 40
1.0
 40
1.0
 40
1.0
 40
2.0
 40
2.0
 40
2.0
 40
3.0
 40
3.0
 40
3.0
 40
4.0
 40
4.0
 40
4.0
 40
5.0
 40
5.0
 40
5.0
 40
6.0
 40
6.0
 40
6.0
 40
6.0
 10
57.98459553789252
 20
-118.9788014825412
 30
0.0
 10
56.86512581595035
 20
-120.119861204478
 30
0.0
 10
54.82427109423832
 20
-123.2647339814696
 30
0.0
 10
53.44907276124859
 20
-125.9676820363495
 30
0.0
 10
53.44907276124859
 20
-125.9676820363495
 30
0.0
 10
48.62427220689931
 20
-135.4514423117563
 30
0.0
 10
48.62427220689931
 20
-135.4514423117563
 30
0.0
 10
48.21092248478048
 20
-136.26381897822
 30
0.0
 10
47.74021109600943
 20
-137.2393906446426
 30
0.0
 10
47.25500054057489
 20
-138.2803673110492
 30
0.0
 10
47.25500054057489
 20
-138.2803673110492
 30
0.0
 10
81.80609136527038
 20
-118.3319481493696
 30
0.0
 10
81.80609136527038
 20
-118.3319481493696
 30
0.0
 10
81.80609136527038
 20
-118.3319481493696
 30
0.0
 10
63.83559136976315
 20
-117.1543053718862
 30
0.0
 10
63.83559136976315
 20
-117.1543053718862
 30
0.0
 10
61.73698692584331
 20
-117.016757316365
 30
0.0
 10
59.10402998205716
 20
-117.8377064828266
 30
0.0
 10
57.98459553789252
 20
-118.9788014825412
 30
0.0
  0
SPLINE
  5
C5
330
B0
100
AcDbEntity
  8
Calque 1
 62
     1
370
    13
100
AcDbSpline
210
0.0
220
0.0
230
1.0
 70
    11
 71
     3
 72
    26
 73
    22
 74
     0
 42
0.0000000001
 43
0.0000000001
 12
1.0
 22
0.0
 32
0.0
 13
1.0
 23
0.0
 33
0.0
 40
0.0
 40
0.0
 40
0.0
 40
0.0
 40
1.0
 40
1.0
 40
1.0
 40
2.0
 40
2.0
 40
2.0
 40
3.0
 40
3.0
 40
3.0
 40
4.0
 40
4.0
 40
4.0
 40
5.0
 40
5.0
 40
5.0
 40
6.0
 40
6.0
 40
6.0
 40
7.0
 40
7.0
 40
7.0
 40
7.0
 10
56.99604164925073
 20
-116.3956920387424
 30
0.0
 10
57.97510581567272
 20
-115.3976837056587
 30
0.0
 10
59.09443442650417
 20
-113.1156700951179
 30
0.0
 10
59.48358359307332
 20
-111.3244056511214
 30
0.0
 10
59.87269748186495
 20
-109.5330706515692
 30
0.0
 10
59.31400331533791
 20
-106.5514634300925
 30
0.0
 10
58.24215859338392
 20
-104.6984275972224
 30
0.0
 10
58.24215859338392
 20
-104.6984275972224
 30
0.0
 10
46.11242387419416
 20
-83.72829696357597
 30
0.0
 10
46.11242387419416
 20
-83.72829696357597
 30
0.0
 10
45.95409720756703
 20
-83.45458374142213
 30
0.0
 10
45.76433804094771
 20
-83.2365317970323
 30
0.0
 10
45.55478804100008
 20
-83.06108835263159
 30
0.0
 10
45.55478804100008
 20
-83.06108835263159
 30
0.0
 10
45.55464692988904
 20
-112.6860220396699
 30
0.0
 10
45.55464692988904
 20
-112.6860220396699
 30
0.0
 10
45.55464692988904
 20
-112.6860220396699
 30
0.0
 10
52.08854998381092
 20
-116.4219034276248
 30
0.0
 10
52.08854998381092
 20
-116.4219034276248
 30
0.0
 10
53.80865915004788
 20
-117.4055184273789
 30
0.0
 10
56.01694220505123
 20
-117.3937003718264
 30
0.0
 10
56.99604164925073
 20
-116.3956920387424
 30
0.0
  0
SPLINE
  5
C6
330
B0
100
AcDbEntity
  8
Calque 1
 62
     1
370
    13
100
AcDbSpline
210
0.0
220
0.0
230
1.0
 70
    11
 71
     3
 72
    41
 73
    37
 74
     0
 42
0.0000000001
 43
0.0000000001
 12
1.0
 22
0.0
 32
0.0
 13
1.0
 23
0.0
 33
0.0
 40
0.0
 40
0.0
 40
0.0
 40
0.0
 40
1.0
 40
1.0
 40
1.0
 40
2.0
 40
2.0
 40
2.0
 40
3.0
 40
3.0
 40
3.0
 40
4.0
 40
4.0
 40
4.0
 40
5.0
 40
5.0
 40
5.0
 40
6.0
 40
6.0
 40
6.0
 40
7.0
 40
7.0
 40
7.0
 40
8.0
 40
8.0
 40
8.0
 40
9.0
 40
9.0
 40
9.0
 40
10.0
 40
10.0
 40
10.0
 40
11.0
 40
11.0
 40
11.0
 40
12.0
 40
12.0
 40
12.0
 40
12.0
 10
77.34059497749799
 20
-68.95163177282585
 30
0.0
 10
78.1511019217397
 20
-71.05415205007793
 30
0.0
 10
80.62199275445535
 20
-72.5543042719249
 30
0.0
 10
82.83151053168086
 20
-72.28534649421451
 30
0.0
 10
82.83151053168086
 20
-72.28534649421451
 30
0.0
 10
89.62364691887181
 20
-71.45861177219898
 30
0.0
 10
89.62364691887181
 20
-71.45861177219898
 30
0.0
 10
91.8330588627638
 20
-71.18975982782177
 30
0.0
 10
95.29391469523196
 20
-69.23233705053333
 30
0.0
 10
97.31444941694905
 20
-67.10889705106429
 30
0.0
 10
97.31444941694905
 20
-67.10889705106429
 30
0.0
 10
104.7207013595419
 20
-59.32524344189905
 30
0.0
 10
104.7207013595419
 20
-59.32524344189905
 30
0.0
 10
106.7410949701476
 20
-57.20180344243001
 30
0.0
 10
109.3555310806051
 20
-53.19879872120823
 30
0.0
 10
110.5304221914228
 20
-50.42970483301191
 30
0.0
 10
110.5304221914228
 20
-50.42970483301191
 30
0.0
 10
115.9730777456176
 20
-37.60341147877012
 30
0.0
 10
115.9730777456176
 20
-37.60341147877012
 30
0.0
 10
117.1480746897685
 20
-34.83435293830358
 30
0.0
 10
116.2453516344386
 20
-33.6162113027143
 30
0.0
 10
113.9670421905634
 20
-34.8965123811622
 30
0.0
 10
113.9670421905634
 20
-34.8965123811622
 30
0.0
 10
85.79773664205035
 20
-50.72646149960433
 30
0.0
 10
85.79773664205035
 20
-50.72646149960433
 30
0.0
 10
83.51942719817548
 20
-52.00686844372868
 30
0.0
 10
80.35680969896616
 20
-55.17262566515938
 30
0.0
 10
78.76966247714078
 20
-57.76159122006753
 30
0.0
 10
78.76966247714078
 20
-57.76159122006753
 30
0.0
 10
78.12965303285642
 20
-58.80574288647335
 30
0.0
 10
78.12965303285642
 20
-58.80574288647335
 30
0.0
 10
76.54257636658642
 20
-61.3947084413815
 30
0.0
 10
75.90718831118981
 20
-65.23314232931092
 30
0.0
 10
76.71765997765368
 20
-67.3357331621187
 30
0.0
 10
76.71765997765368
 20
-67.3357331621187
 30
0.0
 10
77.34059497749799
 20
-68.95163177282585
 30
0.0
 10
77.34059497749799
 20
-68.95163177282585
 30
0.0
  0
SPLINE
  5
C7
330
B0
100
AcDbEntity
  8
Calque 1
 62
     1
370
    13
100
AcDbSpline
210
0.0
220
0.0
230
1.0
 70
    11
 71
     3
 72
    38
 73
    34
 74
     0
 42
0.0000000001
 43
0.0000000001
 12
1.0
 22
0.0
 32
0.0
 13
1.0
 23
0.0
 33
0.0
 40
0.0
 40
0.0
 40
0.0
 40
0.0
 40
1.0
 40
1.0
 40
1.0
 40
2.0
 40
2.0
 40
2.0
 40
3.0
 40
3.0
 40
3.0
 40
4.0
 40
4.0
 40
4.0
 40
5.0
 40
5.0
 40
5.0
 40
6.0
 40
6.0
 40
6.0
 40
7.0
 40
7.0
 40
7.0
 40
8.0
 40
8.0
 40
8.0
 40
9.0
 40
9.0
 40
9.0
 40
10.0
 40
10.0
 40
10.0
 40
11.0
 40
11.0
 40
11.0
 40
11.0
 10
73.99255747833504
 20
-69.23099649497796
 30
0.0
 10
73.18205053409334
 20
-67.12851149550372
 30
0.0
 10
70.87865859022469
 20
-65.08423482934823
 30
0.0
 10
68.87396359072584
 20
-64.6882064961137
 30
0.0
 10
68.87396359072584
 20
-64.6882064961137
 30
0.0
 10
66.51589109131538
 20
-64.22239871845251
 30
0.0
 10
66.51589109131538
 20
-64.22239871845251
 30
0.0
 10
64.51112553626116
 20
-63.82647621855149
 30
0.0
 10
61.04377859268355
 20
-64.78486760720077
 30
0.0
 10
58.81083637101924
 20
-66.35225927347565
 30
0.0
 10
58.81083637101924
 20
-66.35225927347565
 30
0.0
 10
51.08013470628547
 20
-71.77847538323029
 30
0.0
 10
51.08013470628547
 20
-71.77847538323029
 30
0.0
 10
48.84712192906579
 20
-73.34593760506054
 30
0.0
 10
46.83000915179217
 20
-75.17748927126918
 30
0.0
 10
46.59788137407262
 20
-75.84861371554582
 30
0.0
 10
46.3655066519085
 20
-76.51987927093383
 30
0.0
 10
47.05261192951441
 20
-78.58492043708415
 30
0.0
 10
48.12449192924657
 20
-80.43799436995428
 30
0.0
 10
48.12449192924657
 20
-80.43799436995428
 30
0.0
 10
59.89777998185873
 20
-100.7919428759767
 30
0.0
 10
59.89777998185873
 20
-100.7919428759767
 30
0.0
 10
60.96955414825737
 20
-102.6449081532914
 30
0.0
 10
62.94066470332027
 20
-101.9370242645793
 30
0.0
 10
64.27783359187481
 20
-99.21918898748096
 30
0.0
 10
64.27783359187481
 20
-99.21918898748096
 30
0.0
 10
73.77471720061162
 20
-79.9151784089738
 30
0.0
 10
73.77471720061162
 20
-79.9151784089738
 30
0.0
 10
75.11192136694402
 20
-77.19700093743113
 30
0.0
 10
75.54290997794739
 20
-73.25291010508364
 30
0.0
 10
74.73243831148353
 20
-71.15035455005372
 30
0.0
 10
74.73243831148353
 20
-71.15035455005372
 30
0.0
 10
73.99255747833504
 20
-69.23099649497796
 30
0.0
 10
73.99255747833504
 20
-69.23099649497796
 30
0.0
  0
SPLINE
  5
C8
330
B0
100
AcDbEntity
  8
Calque 1
 62
     1
370
    13
100
AcDbSpline
210
0.0
220
0.0
230
1.0
 70
    11
 71
     3
 72
    32
 73
    28
 74
     0
 42
0.0000000001
 43
0.0000000001
 12
1.0
 22
0.0
 32
0.0
 13
1.0
 23
0.0
 33
0.0
 40
0.0
 40
0.0
 40
0.0
 40
0.0
 40
1.0
 40
1.0
 40
1.0
 40
2.0
 40
2.0
 40
2.0
 40
3.0
 40
3.0
 40
3.0
 40
4.0
 40
4.0
 40
4.0
 40
5.0
 40
5.0
 40
5.0
 40
6.0
 40
6.0
 40
6.0
 40
7.0
 40
7.0
 40
7.0
 40
8.0
 40
8.0
 40
8.0
 40
9.0
 40
9.0
 40
9.0
 40
9.0
 10
46.81804998512869
 20
-39.44374726515258
 30
0.0
 10
47.15400026282245
 20
-39.60669531655098
 30
0.0
 10
49.30393387339599
 20
-38.93112588934175
 30
0.0
 10
51.59564887282323
 20
-37.94243091456546
 30
0.0
 10
51.59564887282323
 20
-37.94243091456546
 30
0.0
 10
57.93943998234835
 20
-35.20575737327271
 30
0.0
 10
57.93943998234835
 20
-35.20575737327271
 30
0.0
 10
60.23122553733096
 20
-34.21699184294266
 30
0.0
 10
62.80156442557728
 20
-32.25946328177226
 30
0.0
 10
63.65137081425353
 20
-30.85551233790526
 30
0.0
 10
64.5011772029301
 20
-29.45163446451706
 30
0.0
 10
64.81356192507432
 20
-27.05454480344969
 30
0.0
 10
64.34556692519122
 20
-25.52856789479274
 30
0.0
 10
63.8773602586417
 20
-24.00266432575409
 30
0.0
 10
61.68664553696721
 20
-22.97512851863538
 30
0.0
 10
59.47681025974178
 20
-23.24517990063468
 30
0.0
 10
59.47681025974178
 20
-23.24517990063468
 30
0.0
 10
48.77892998463843
 20
-24.55236264506345
 30
0.0
 10
48.77892998463843
 20
-24.55236264506345
 30
0.0
 10
47.59814748493364
 20
-24.69668403027039
 30
0.0
 10
46.44089526300085
 20
-24.9881490228345
 30
0.0
 10
45.55517609655536
 20
-25.33267179182277
 30
0.0
 10
45.55517609655536
 20
-25.33267179182277
 30
0.0
 10
45.55514081877784
 20
-36.41592623128761
 30
0.0
 10
45.55514081877784
 20
-36.41592623128761
 30
0.0
 10
46.04140970754502
 20
-38.05595480055811
 30
0.0
 10
46.55487776297223
 20
-39.31625337951633
 30
0.0
 10
46.81804998512869
 20
-39.44374726515258
 30
0.0
  0
SPLINE
  5
C9
330
B0
100
AcDbEntity
  8
Calque 1
 62
     1
370
    13
100
AcDbSpline
210
0.0
220
0.0
230
1.0
 70
    11
 71
     3
 72
    26
 73
    22
 74
     0
 42
0.0000000001
 43
0.0000000001
 12
1.0
 22
0.0
 32
0.0
 13
1.0
 23
0.0
 33
0.0
 40
0.0
 40
0.0
 40
0.0
 40
0.0
 40
1.0
 40
1.0
 40
1.0
 40
2.0
 40
2.0
 40
2.0
 40
3.0
 40
3.0
 40
3.0
 40
4.0
 40
4.0
 40
4.0
 40
5.0
 40
5.0
 40
5.0
 40
6.0
 40
6.0
 40
6.0
 40
7.0
 40
7.0
 40
7.0
 40
7.0
 10
68.94406053515273
 20
-0.1633538228344584
 30
0.0
 10
66.66557470238897
 20
-1.441502956892824
 30
0.0
 10
64.44790775849903
 20
-3.803702896628083
 30
0.0
 10
64.01610775860692
 20
-5.4127575777999
 30
0.0
 10
63.58427248093729
 20
-7.021530036756696
 30
0.0
 10
63.66248331425109
 20
-10.24073301018354
 30
0.0
 10
64.18985081411914
 20
-12.56638517307343
 30
0.0
 10
64.18985081411914
 20
-12.56638517307343
 30
0.0
 10
64.40282275851023
 20
-13.50495042690642
 30
0.0
 10
64.40282275851023
 20
-13.50495042690642
 30
0.0
 10
64.93019025837827
 20
-15.83053203424255
 30
0.0
 10
66.67375914683123
 20
-15.62408648395386
 30
0.0
 10
68.27727525754177
 20
-13.04633932749545
 30
0.0
 10
68.27727525754177
 20
-13.04633932749545
 30
0.0
 10
77.31325469972694
 20
1.480131968570059
 30
0.0
 10
77.31325469972694
 20
1.480131968570059
 30
0.0
 10
78.91684136599284
 20
4.057949680582229
 30
0.0
 10
78.36453247724207
 20
5.121362986785628
 30
0.0
 10
76.0860466444783
 20
3.843143297173507
 30
0.0
 10
76.0860466444783
 20
3.843143297173507
 30
0.0
 10
68.94406053515273
 20
-0.1633538228344584
 30
0.0
 10
68.94406053515273
 20
-0.1633538228344584
 30
0.0
  0
SPLINE
  5
CA
330
B0
100
AcDbEntity
  8
Calque 1
 62
     1
370
    13
100
AcDbSpline
210
0.0
220
0.0
230
1.0
 70
    11
 71
     3
 72
    26
 73
    22
 74
     0
 42
0.0000000001
 43
0.0000000001
 12
1.0
 22
0.0
 32
0.0
 13
1.0
 23
0.0
 33
0.0
 40
0.0
 40
0.0
 40
0.0
 40
0.0
 40
1.0
 40
1.0
 40
1.0
 40
2.0
 40
2.0
 40
2.0
 40
3.0
 40
3.0
 40
3.0
 40
4.0
 40
4.0
 40
4.0
 40
5.0
 40
5.0
 40
5.0
 40
6.0
 40
6.0
 40
6.0
 40
7.0
 40
7.0
 40
7.0
 40
7.0
 10
61.62469775920475
 20
-15.0555145540149
 30
0.0
 10
61.09725970378102
 20
-12.72986239112501
 30
0.0
 10
58.79873609324471
 20
-11.44381103504602
 30
0.0
 10
56.51700470492606
 20
-12.19741490470887
 30
0.0
 10
56.51700470492606
 20
-12.19741490470887
 30
0.0
 10
51.62926859503703
 20
-13.81175956438838
 30
0.0
 10
51.62926859503703
 20
-13.81175956438838
 30
0.0
 10
49.34760776227407
 20
-14.56536512207521
 30
0.0
 10
47.15146026282308
 20
-16.62671618059687
 30
0.0
 10
46.74922304070148
 20
-18.39247474665973
 30
0.0
 10
46.3470210963574
 20
-20.15816275716883
 30
0.0
 10
47.82579498487677
 20
-21.38205467038919
 30
0.0
 10
50.03559498432437
 20
-21.11189745505925
 30
0.0
 10
50.03559498432437
 20
-21.11189745505925
 30
0.0
 10
58.63102553773099
 20
-20.06167803740814
 30
0.0
 10
58.63102553773099
 20
-20.06167803740814
 30
0.0
 10
60.84068442606754
 20
-19.79159137763196
 30
0.0
 10
62.21708220350127
 20
-17.66793976514415
 30
0.0
 10
61.68974998141074
 20
-15.34232288003114
 30
0.0
 10
61.68974998141074
 20
-15.34232288003114
 30
0.0
 10
61.62469775920475
 20
-15.0555145540149
 30
0.0
 10
61.62469775920475
 20
-15.0555145540149
 30
0.0
  0
SPLINE
  5
CB
330
B0
100
AcDbEntity
  8
Calque 1
 62
     1
370
    13
100
AcDbSpline
210
0.0
220
0.0
230
1.0
 70
    11
 71
     3
 72
    35
 73
    31
 74
     0
 42
0.0000000001
 43
0.0000000001
 12
1.0
 22
0.0
 32
0.0
 13
1.0
 23
0.0
 33
0.0
 40
0.0
 40
0.0
 40
0.0
 40
0.0
 40
1.0
 40
1.0
 40
1.0
 40
2.0
 40
2.0
 40
2.0
 40
3.0
 40
3.0
 40
3.0
 40
4.0
 40
4.0
 40
4.0
 40
5.0
 40
5.0
 40
5.0
 40
6.0
 40
6.0
 40
6.0
 40
7.0
 40
7.0
 40
7.0
 40
8.0
 40
8.0
 40
8.0
 40
9.0
 40
9.0
 40
9.0
 40
10.0
 40
10.0
 40
10.0
 40
10.0
 10
123.7671735770027
 20
-26.94832341727073
 30
0.0
 10
122.7164249661539
 20
-28.62211281901325
 30
0.0
 10
120.8954213554984
 20
-32.25713494849833
 30
0.0
 10
119.72038913357
 20
-35.02622876674175
 30
0.0
 10
119.72038913357
 20
-35.02622876674175
 30
0.0
 10
113.0982563574472
 20
-50.63276372184976
 30
0.0
 10
113.0982563574472
 20
-50.63276372184976
 30
0.0
 10
111.923259413297
 20
-53.40182233226888
 30
0.0
 10
111.7291610800117
 20
-57.29292594240705
 30
0.0
 10
112.6669855242218
 20
-59.27959399746609
 30
0.0
 10
112.6669855242218
 20
-59.27959399746609
 30
0.0
 10
119.8386402446514
 20
-74.47218066033457
 30
0.0
 10
119.8386402446514
 20
-74.47218066033457
 30
0.0
 10
120.7764294110839
 20
-76.45881343761545
 30
0.0
 10
123.4069521882033
 20
-77.027808715251
 30
0.0
 10
125.6842032987452
 20
-75.73657149335182
 30
0.0
 10
125.6842032987452
 20
-75.73657149335182
 30
0.0
 10
126.4305046874475
 20
-75.31330871567974
 30
0.0
 10
126.4305046874475
 20
-75.31330871567974
 30
0.0
 10
128.7076499646562
 20
-74.02196566044704
 30
0.0
 10
131.0172155196344
 20
-70.70306760572116
 30
0.0
 10
131.5625041306094
 20
-67.93781899530141
 30
0.0
 10
132.1078632971394
 20
-65.1726056626595
 30
0.0
 10
132.2084049637809
 20
-60.94900899704854
 30
0.0
 10
131.7857771861086
 20
-58.55198983098132
 30
0.0
 10
131.7857771861086
 20
-58.55198983098132
 30
0.0
 10
126.4458505207769
 20
-28.26330122744221
 30
0.0
 10
126.4458505207769
 20
-28.26330122744221
 30
0.0
 10
126.0233285764385
 20
-25.86631872265275
 30
0.0
 10
124.8179221878509
 20
-25.2747104044126
 30
0.0
 10
123.7671735770027
 20
-26.94832341727073
 30
0.0
  0
SPLINE
  5
CC
330
B0
100
AcDbEntity
  8
Calque 1
 62
     1
370
    13
100
AcDbSpline
210
0.0
220
0.0
230
1.0
 70
    11
 71
     3
 72
    17
 73
    13
 74
     0
 42
0.0000000001
 43
0.0000000001
 12
1.0
 22
0.0
 32
0.0
 13
1.0
 23
0.0
 33
0.0
 40
0.0
 40
0.0
 40
0.0
 40
0.0
 40
1.0
 40
1.0
 40
1.0
 40
2.0
 40
2.0
 40
2.0
 40
3.0
 40
3.0
 40
3.0
 40
4.0
 40
4.0
 40
4.0
 40
4.0
 10
141.709416072517
 20
-77.52303463179398
 30
0.0
 10
140.043493572933
 20
-77.66520760398065
 30
0.0
 10
137.833270240153
 20
-80.06928232560182
 30
0.0
 10
136.7976557959672
 20
-82.86530021379177
 30
0.0
 10
136.7976557959672
 20
-82.86530021379177
 30
0.0
 10
135.046643296405
 20
-87.59300926816547
 30
0.0
 10
135.046643296405
 20
-87.59300926816547
 30
0.0
 10
135.046643296405
 20
-87.59300926816547
 30
0.0
 10
144.7482438495349
 20
-81.99168838067682
 30
0.0
 10
144.7482438495349
 20
-81.99168838067682
 30
0.0
 10
144.7266185717627
 20
-79.38924318688292
 30
0.0
 10
143.3659194054359
 20
-77.38172243738492
 30
0.0
 10
141.709416072517
 20
-77.52303463179398
 30
0.0
  0
SPLINE
  5
CD
330
B0
100
AcDbEntity
  8
Calque 1
 62
     1
370
    13
100
AcDbSpline
210
0.0
220
0.0
230
1.0
 70
    11
 71
     3
 72
    38
 73
    34
 74
     0
 42
0.0000000001
 43
0.0000000001
 12
1.0
 22
0.0
 32
0.0
 13
1.0
 23
0.0
 33
0.0
 40
0.0
 40
0.0
 40
0.0
 40
0.0
 40
1.0
 40
1.0
 40
1.0
 40
2.0
 40
2.0
 40
2.0
 40
3.0
 40
3.0
 40
3.0
 40
4.0
 40
4.0
 40
4.0
 40
5.0
 40
5.0
 40
5.0
 40
6.0
 40
6.0
 40
6.0
 40
7.0
 40
7.0
 40
7.0
 40
8.0
 40
8.0
 40
8.0
 40
9.0
 40
9.0
 40
9.0
 40
10.0
 40
10.0
 40
10.0
 40
11.0
 40
11.0
 40
11.0
 40
11.0
 10
76.79181386652418
 20
-56.35552483153042
 30
0.0
 10
78.37889053279419
 20
-53.76662983217762
 30
0.0
 10
79.95566608795535
 20
-49.40125177771327
 30
0.0
 10
80.29567331009274
 20
-46.65480622284424
 30
0.0
 10
80.29567331009274
 20
-46.65480622284424
 30
0.0
 10
82.515139420649
 20
-28.72759337187777
 30
0.0
 10
82.515139420649
 20
-28.72759337187777
 30
0.0
 10
82.85507608723037
 20
-25.98132427527427
 30
0.0
 10
81.26246080985099
 20
-24.40973459314664
 30
0.0
 10
78.9756494215336
 20
-25.23537568319389
 30
0.0
 10
78.9756494215336
 20
-25.23537568319389
 30
0.0
 10
71.49753664562539
 20
-27.93539561431064
 30
0.0
 10
71.49753664562539
 20
-27.93539561431064
 30
0.0
 10
69.21086636841936
 20
-28.7610367043579
 30
0.0
 10
66.61463359129054
 20
-30.63485110099735
 30
0.0
 10
65.72806775817912
 20
-32.09940678203867
 30
0.0
 10
64.8415372028449
 20
-33.56403547071208
 30
0.0
 10
64.14331942524177
 20
-36.89930122528338
 30
0.0
 10
64.17626886967788
 20
-39.51141004120414
 30
0.0
 10
64.17626886967788
 20
-39.51141004120414
 30
0.0
 10
64.37766970296109
 20
-55.44796872064605
 30
0.0
 10
64.37766970296109
 20
-55.44796872064605
 30
0.0
 10
64.4106897029529
 20
-58.05990010888204
 30
0.0
 10
66.07791748031374
 20
-60.52112483048901
 30
0.0
 10
68.08275359092364
 20
-60.91722371927891
 30
0.0
 10
68.08275359092364
 20
-60.91722371927891
 30
0.0
 10
69.71181081273859
 20
-61.23899233030942
 30
0.0
 10
69.71181081273859
 20
-61.23899233030942
 30
0.0
 10
71.71650581223746
 20
-61.63502066354364
 30
0.0
 10
74.65535636705806
 20
-59.84065177510362
 30
0.0
 10
76.24243303332806
 20
-57.25182733130618
 30
0.0
 10
76.24243303332806
 20
-57.25182733130618
 30
0.0
 10
76.79181386652418
 20
-56.35552483153042
 30
0.0
 10
76.79181386652418
 20
-56.35552483153042
 30
0.0
  0
SPLINE
  5
CE
330
B0
100
AcDbEntity
  8
Calque 1
 62
     1
370
    13
100
AcDbSpline
210
0.0
220
0.0
230
1.0
 70
    11
 71
     3
 72
    32
 73
    28
 74
     0
 42
0.0000000001
 43
0.0000000001
 12
1.0
 22
0.0
 32
0.0
 13
1.0
 23
0.0
 33
0.0
 40
0.0
 40
0.0
 40
0.0
 40
0.0
 40
1.0
 40
1.0
 40
1.0
 40
2.0
 40
2.0
 40
2.0
 40
3.0
 40
3.0
 40
3.0
 40
4.0
 40
4.0
 40
4.0
 40
5.0
 40
5.0
 40
5.0
 40
6.0
 40
6.0
 40
6.0
 40
7.0
 40
7.0
 40
7.0
 40
8.0
 40
8.0
 40
8.0
 40
9.0
 40
9.0
 40
9.0
 40
9.0
 10
50.71074109526646
 20
-68.76190788398436
 30
0.0
 10
50.71074109526646
 20
-68.76190788398436
 30
0.0
 10
57.59308276021255
 20
-63.93107482963627
 30
0.0
 10
57.59308276021255
 20
-63.93107482963627
 30
0.0
 10
59.82616609298759
 20
-62.36368316336169
 30
0.0
 10
61.62614414809332
 20
-58.94410233088328
 30
0.0
 10
61.5931947036572
 20
-56.33202983153625
 30
0.0
 10
61.5931947036572
 20
-56.33202983153625
 30
0.0
 10
61.40784525925893
 20
-41.66554165291433
 30
0.0
 10
61.40784525925893
 20
-41.66554165291433
 30
0.0
 10
61.37486053704497
 20
-39.05343394177697
 30
0.0
 10
59.472788593076
 20
-37.72526092010593
 30
0.0
 10
57.18114414920444
 20
-38.71392061710534
 30
0.0
 10
57.18114414920444
 20
-38.71392061710534
 30
0.0
 10
52.14407720601928
 20
-40.88692583944513
 30
0.0
 10
52.14407720601928
 20
-40.88692583944513
 30
0.0
 10
49.85239748437019
 20
-41.87555025866767
 30
0.0
 10
47.4155849849793
 20
-44.98062962389494
 30
0.0
 10
46.72914998515109
 20
-47.78687011145037
 30
0.0
 10
46.72914998515109
 20
-47.78687011145037
 30
0.0
 10
45.55503498544432
 20
-52.58658816580588
 30
0.0
 10
45.55503498544432
 20
-52.58658816580588
 30
0.0
 10
45.55503498544432
 20
-52.58658816580588
 30
0.0
 10
45.55489387433328
 20
-69.63330427265524
 30
0.0
 10
45.55489387433328
 20
-69.63330427265524
 30
0.0
 10
46.96145415175952
 20
-70.25045371694561
 30
0.0
 10
49.00403748458219
 20
-69.95987066146242
 30
0.0
 10
50.71074109526646
 20
-68.76190788398436
 30
0.0
  0
SPLINE
  5
CF
330
B0
100
AcDbEntity
  8
Calque 1
 62
     1
370
    13
100
AcDbSpline
210
0.0
220
0.0
230
1.0
 70
    11
 71
     3
 72
    20
 73
    16
 74
     0
 42
0.0000000001
 43
0.0000000001
 12
1.0
 22
0.0
 32
0.0
 13
1.0
 23
0.0
 33
0.0
 40
0.0
 40
0.0
 40
0.0
 40
0.0
 40
1.0
 40
1.0
 40
1.0
 40
2.0
 40
2.0
 40
2.0
 40
3.0
 40
3.0
 40
3.0
 40
4.0
 40
4.0
 40
4.0
 40
5.0
 40
5.0
 40
5.0
 40
5.0
 10
50.63831581750693
 20
-126.1461170363048
 30
0.0
 10
52.01340831716313
 20
-123.4432042592028
 30
0.0
 10
51.7311860950114
 20
-120.4270953710679
 30
0.0
 10
50.01093581766372
 20
-119.4436920379805
 30
0.0
 10
50.01093581766372
 20
-119.4436920379805
 30
0.0
 10
45.55454109655552
 20
-116.8957898163954
 30
0.0
 10
45.55454109655552
 20
-116.8957898163954
 30
0.0
 10
45.55454109655552
 20
-116.8957898163954
 30
0.0
 10
45.55447054100016
 20
-134.986269534095
 30
0.0
 10
45.55447054100016
 20
-134.986269534095
 30
0.0
 10
46.20432248528209
 20
-134.4348073120104
 30
0.0
 10
46.80559692957608
 20
-133.6796159233104
 30
0.0
 10
47.27821331834697
 20
-132.7506462013206
 30
0.0
 10
47.27821331834697
 20
-132.7506462013206
 30
0.0
 10
50.63831581750693
 20
-126.1461170363048
 30
0.0
 10
50.63831581750693
 20
-126.1461170363048
 30
0.0
  0
ENDBLK
  5
B3
330
B0
100
AcDbEntity
  8
0
100
AcDbBlockEnd
  0
ENDSEC
  0
SECTION
  2
ENTITIES
  0
POLYLINE
  5
41
330
1F
100
AcDbEntity
  8
Calque 1
 62
     7
370
    13
100
AcDb2dPolyline
 66
     1
 10
0.0
 20
0.0
 30
0.0
  0
VERTEX
  5
42
330
41
100
AcDbEntity
  8
Calque 1
 62
     7
370
    13
100
AcDbVertex
100
AcDb2dVertex
 10
210.0034896665546
 20
-54.8836301096761
 30
0.0
  0
VERTEX
  5
43
330
41
100
AcDbEntity
  8
Calque 1
 62
     7
370
    13
100
AcDbVertex
100
AcDb2dVertex
 10
37.23346582085829
 20
-154.6324639736274
 30
0.0
  0
VERTEX
  5
44
330
41
100
AcDbEntity
  8
Calque 1
 62
     7
370
    13
100
AcDbVertex
100
AcDb2dVertex
 10
210.0049360554432
 20
-254.3837320042452
 30
0.0
  0
SEQEND
  5
45
330
41
100
AcDbEntity
  8
Calque 1
 62
     7
370
    13
  0
POLYLINE
  5
46
330
1F
100
AcDbEntity
  8
Calque 1
 62
     7
370
    13
100
AcDb2dPolyline
 66
     1
 10
0.0
 20
0.0
 30
0.0
  0
VERTEX
  5
47
330
46
100
AcDbEntity
  8
Calque 1
 62
     7
370
    13
100
AcDbVertex
100
AcDb2dVertex
 10
37.23173720974764
 20
44.86745836166715
 30
0.0
  0
VERTEX
  5
48
330
46
100
AcDbEntity
  8
Calque 1
 62
     7
370
    13
100
AcDbVertex
100
AcDb2dVertex
 10
37.23491220974685
 20
-354.1325305904193
 30
0.0
  0
SEQEND
  5
49
330
46
100
AcDbEntity
  8
Calque 1
 62
     7
370
    13
  0
SPLINE
  5
4A
330
1F
100
AcDbEntity
  8
Calque 1
 62
     1
370
    13
100
AcDbSpline
210
0.0
220
0.0
230
1.0
 70
    11
 71
     3
 72
   131
 73
   127
 74
     0
 42
0.0000000001
 43
0.0000000001
 12
1.0
 22
0.0
 32
0.0
 13
1.0
 23
0.0
 33
0.0
 40
0.0
 40
0.0
 40
0.0
 40
0.0
 40
1.0
 40
1.0
 40
1.0
 40
2.0
 40
2.0
 40
2.0
 40
3.0
 40
3.0
 40
3.0
 40
4.0
 40
4.0
 40
4.0
 40
5.0
 40
5.0
 40
5.0
 40
6.0
 40
6.0
 40
6.0
 40
7.0
 40
7.0
 40
7.0
 40
8.0
 40
8.0
 40
8.0
 40
9.0
 40
9.0
 40
9.0
 40
10.0
 40
10.0
 40
10.0
 40
11.0
 40
11.0
 40
11.0
 40
12.0
 40
12.0
 40
12.0
 40
13.0
 40
13.0
 40
13.0
 40
14.0
 40
14.0
 40
14.0
 40
15.0
 40
15.0
 40
15.0
 40
16.0
 40
16.0
 40
16.0
 40
17.0
 40
17.0
 40
17.0
 40
18.0
 40
18.0
 40
18.0
 40
19.0
 40
19.0
 40
19.0
 40
20.0
 40
20.0
 40
20.0
 40
21.0
 40
21.0
 40
21.0
 40
22.0
 40
22.0
 40
22.0
 40
23.0
 40
23.0
 40
23.0
 40
24.0
 40
24.0
 40
24.0
 40
25.0
 40
25.0
 40
25.0
 40
26.0
 40
26.0
 40
26.0
 40
27.0
 40
27.0
 40
27.0
 40
28.0
 40
28.0
 40
28.0
 40
29.0
 40
29.0
 40
29.0
 40
30.0
 40
30.0
 40
30.0
 40
31.0
 40
31.0
 40
31.0
 40
32.0
 40
32.0
 40
32.0
 40
33.0
 40
33.0
 40
33.0
 40
34.0
 40
34.0
 40
34.0
 40
35.0
 40
35.0
 40
35.0
 40
36.0
 40
36.0
 40
36.0
 40
37.0
 40
37.0
 40
37.0
 40
38.0
 40
38.0
 40
38.0
 40
39.0
 40
39.0
 40
39.0
 40
40.0
 40
40.0
 40
40.0
 40
41.0
 40
41.0
 40
41.0
 40
42.0
 40
42.0
 40
42.0
 40
42.0
 10
28.92801860071222
 20
-164.6295511933504
 30
0.0
 10
28.92801860071222
 20
-164.6295511933504
 30
0.0
 10
28.90007860071948
 20
-343.7268561485762
 30
0.0
 10
28.90007860071948
 20
-343.7268561485762
 30
0.0
 10
28.90007860071948
 20
-343.7268561485762
 30
0.0
 10
37.23491220974685
 20
-354.1325305904193
 30
0.0
 10
37.23491220974685
 20
-354.1325305904193
 30
0.0
 10
37.23491220974685
 20
-354.1325305904193
 30
0.0
 10
210.004900777665
 20
-254.3837320042452
 30
0.0
 10
210.004900777665
 20
-254.3837320042452
 30
0.0
 10
210.004900777665
 20
-254.3837320042452
 30
0.0
 10
210.0044068887765
 20
-183.6323495219332
 30
0.0
 10
210.0044068887765
 20
-183.6323495219332
 30
0.0
 10
210.0046538332211
 20
-184.0825997995982
 30
0.0
 10
210.176597722067
 20
-184.5218434105996
 30
0.0
 10
210.4967788330976
 20
-184.8904256327302
 30
0.0
 10
210.4967788330976
 20
-184.8904256327302
 30
0.0
 10
211.4249018884211
 20
-185.9583192435741
 30
0.0
 10
211.4249018884211
 20
-185.9583192435741
 30
0.0
 10
211.5935296661571
 20
-186.1525234101919
 30
0.0
 10
211.8065016105482
 20
-186.3062639657095
 30
0.0
 10
212.0435329993776
 20
-186.4209167434582
 30
0.0
 10
212.3052235548676
 20
-186.5475639656489
 30
0.0
 10
212.597499943684
 20
-186.6190014656308
 30
0.0
 10
212.8971493880532
 20
-186.6420025767365
 30
0.0
 10
213.372270499046
 20
-186.6785503545053
 30
0.0
 10
214.2786624432635
 20
-186.3412242434783
 30
0.0
 10
214.2786624432635
 20
-186.3412242434783
 30
0.0
 10
214.2786624432635
 20
-186.3412242434783
 30
0.0
 10
218.2047616089487
 20
-185.0583831326881
 30
0.0
 10
218.2047616089487
 20
-184.4126586884048
 30
0.0
 10
218.2047616089487
 20
-184.4126586884048
 30
0.0
 10
218.2047616089487
 20
-184.1633506329114
 30
0.0
 10
218.2047616089487
 20
-184.1633506329114
 30
0.0
 10
218.2047616089487
 20
-184.1633506329114
 30
0.0
 10
218.2047616089487
 20
-124.5017139811604
 30
0.0
 10
218.2047616089487
 20
-124.5017139811604
 30
0.0
 10
218.2047616089487
 20
-124.5017139811604
 30
0.0
 10
218.2047616089487
 20
-124.2524059256673
 30
0.0
 10
218.2047616089487
 20
-124.2524059256673
 30
0.0
 10
218.2047616089487
 20
-123.6066462036065
 30
0.0
 10
214.2786624432635
 20
-122.9261731482211
 30
0.0
 10
214.2786624432635
 20
-122.9261731482211
 30
0.0
 10
214.2786624432635
 20
-122.9261731482211
 30
0.0
 10
213.372270499046
 20
-122.5888470371942
 30
0.0
 10
212.8971493880532
 20
-122.6253948149629
 30
0.0
 10
212.597499943684
 20
-122.6484312038458
 30
0.0
 10
212.3052235548676
 20
-122.7198334260502
 30
0.0
 10
212.0435329993776
 20
-122.8465159260188
 30
0.0
 10
211.8065016105482
 20
-122.96113342599
 30
0.0
 10
211.5935296661571
 20
-123.114909259285
 30
0.0
 10
211.4249018884211
 20
-123.3091134259029
 30
0.0
 10
211.4249018884211
 20
-123.3091134259029
 30
0.0
 10
210.4967788330976
 20
-124.3769717589693
 30
0.0
 10
210.4967788330976
 20
-124.3769717589693
 30
0.0
 10
210.1763860554006
 20
-124.7458009255438
 30
0.0
 10
210.0043010554433
 20
-125.1854678698783
 30
0.0
 10
210.0043010554433
 20
-125.6360356475436
 30
0.0
 10
210.0043010554433
 20
-125.6360356475436
 30
0.0
 10
210.0043010554433
 20
-110.1514195403036
 30
0.0
 10
210.0043010554433
 20
-110.1514195403036
 30
0.0
 10
210.0043010554433
 20
-110.1514195403036
 30
0.0
 10
210.0034896665546
 20
-54.8836301096761
 30
0.0
 10
210.0034896665546
 20
-54.8836301096761
 30
0.0
 10
210.0034896665546
 20
-54.8836301096761
 30
0.0
 10
148.8142546818518
 20
-19.55554777254282
 30
0.0
 10
148.8142546818518
 20
-19.55554777254282
 30
0.0
 10
149.1843185706478
 20
-19.74036804560544
 30
0.0
 10
149.6122380149858
 20
-19.79991693297511
 30
0.0
 10
150.0538452370977
 20
-19.71422721293901
 30
0.0
 10
150.0538452370977
 20
-19.71422721293901
 30
0.0
 10
151.4427313478615
 20
-19.44445805315473
 30
0.0
 10
151.4427313478615
 20
-19.44445805315473
 30
0.0
 10
151.6952144033535
 20
-19.39549249884839
 30
0.0
 10
151.934856347738
 20
-19.28792900746383
 30
0.0
 10
152.1526613476839
 20
-19.13997556092272
 30
0.0
 10
152.3931852365128
 20
-18.97667473175554
 30
0.0
 10
152.6011830142383
 20
-18.75922251508099
 30
0.0
 10
152.7709749586401
 20
-18.51129029918405
 30
0.0
 10
153.0401796807951
 20
-18.11804892032758
 30
0.0
 10
153.2012227363105
 20
-17.16442005576779
 30
0.0
 10
153.2012227363105
 20
-17.16442005576779
 30
0.0
 10
153.2012227363105
 20
-17.16442005576779
 30
0.0
 10
154.6360757915075
 20
-12.98340377354551
 30
0.0
 10
154.0768877360917
 20
-12.66054155956019
 30
0.0
 10
154.0768877360917
 20
-12.66054155956019
 30
0.0
 10
153.8609524583678
 20
-12.53590517385104
 30
0.0
 10
153.8609524583678
 20
-12.53590517385104
 30
0.0
 10
153.8609524583678
 20
-12.53590517385104
 30
0.0
 10
102.1924841379519
 20
17.29491239843473
 30
0.0
 10
102.1924841379519
 20
17.29491239843473
 30
0.0
 10
102.1924841379519
 20
17.29491239843473
 30
0.0
 10
101.9765841380058
 20
17.41958406192076
 30
0.0
 10
101.9765841380058
 20
17.41958406192076
 30
0.0
 10
101.4173255270346
 20
17.7424487610563
 30
0.0
 10
98.28218941670707
 20
14.54313996863829
 30
0.0
 10
98.28218941670707
 20
14.54313996863829
 30
0.0
 10
98.28218941670707
 20
14.54313996863829
 30
0.0
 10
97.5368758057824
 20
13.92680431756584
 30
0.0
 10
97.3309241391671
 20
13.49704805088188
 30
0.0
 10
97.20106663919968
 20
13.22600889113
 30
0.0
 10
97.11678802810954
 20
12.93718973183172
 30
0.0
 10
97.09562136144834
 20
12.64720640589648
 30
0.0
 10
97.07639497256419
 20
12.38466919037214
 30
0.0
 10
97.10302969477972
 20
12.12333141926164
 30
0.0
 10
97.18688497253642
 20
11.88019698102007
 30
0.0
 10
97.18688497253642
 20
11.88019698102007
 30
0.0
 10
97.64768330575455
 20
10.54246368181516
 30
0.0
 10
97.64768330575455
 20
10.54246368181516
 30
0.0
 10
97.79383913905149
 20
10.118215429629
 30
0.0
 10
98.0585635834297
 20
9.7782412013121
 30
0.0
 10
98.40238080556581
 20
9.550099818243583
 30
0.0
 10
98.40238080556581
 20
9.550099818243583
 30
0.0
 10
37.23173720974764
 20
44.86742308389027
 30
0.0
 10
37.23173720974764
 20
44.86742308389027
 30
0.0
 10
37.23173720974764
 20
44.86742308389027
 30
0.0
 10
28.90007860071948
 20
34.32236640847263
 30
0.0
 10
28.90007860071948
 20
34.32236640847263
 30
0.0
 10
28.90007860071948
 20
34.32236640847263
 30
0.0
 10
28.90007860071948
 20
-144.9411645316063
 30
0.0
 10
28.90007860071948
 20
-144.9411645316063
 30
0.0
 10
28.90007860071948
 20
-144.9411645316063
 30
0.0
 10
37.2335010986358
 20
-154.6324639736274
 30
0.0
 10
37.2335010986358
 20
-154.6324639736274
 30
0.0
 10
37.2335010986358
 20
-154.6324639736274
 30
0.0
 10
28.92801860071222
 20
-164.6295511933504
 30
0.0
 10
28.92801860071222
 20
-164.6295511933504
 30
0.0
  0
POLYLINE
  5
4B
330
1F
100
AcDbEntity
  8
Calque 1
 62
     1
370
    13
100
AcDb2dPolyline
 66
     1
 10
0.0
 20
0.0
 30
0.0
  0
VERTEX
  5
4C
330
4B
100
AcDbEntity
  8
Calque 1
 62
     1
370
    13
100
AcDbVertex
100
AcDb2dVertex
 10
37.23297193196948
 20
-85.99019871301046
 30
0.0
  0
VERTEX
  5
4D
330
4B
100
AcDbEntity
  8
Calque 1
 62
     1
370
    13
100
AcDbVertex
100
AcDb2dVertex
 10
37.2325133208582
 20
-23.71324544424889
 30
0.0
  0
SEQEND
  5
4E
330
4B
100
AcDbEntity
  8
Calque 1
 62
     1
370
    13
  0
POLYLINE
  5
4F
330
1F
100
AcDbEntity
  8
Calque 1
 62
     1
370
    13
100
AcDb2dPolyline
 66
     1
 10
0.0
 20
0.0
 30
0.0
  0
VERTEX
  5
50
330
4F
100
AcDbEntity
  8
Calque 1
 62
     1
370
    13
100
AcDbVertex
100
AcDb2dVertex
 10
37.23438304308021
 20
-285.4902653298024
 30
0.0
  0
VERTEX
  5
51
330
4F
100
AcDbEntity
  8
Calque 1
 62
     1
370
    13
100
AcDbVertex
100
AcDb2dVertex
 10
37.23392443196924
 20
-223.2133459009267
 30
0.0
  0
SEQEND
  5
52
330
4F
100
AcDbEntity
  8
Calque 1
 62
     1
370
    13
  0
POLYLINE
  5
53
330
1F
100
AcDbEntity
  8
Calque 1
 62
     7
370
    13
100
AcDb2dPolyline
 66
     1
 10
0.0
 20
0.0
 30
0.0
  0
VERTEX
  5
54
330
53
100
AcDbEntity
  8
Calque 1
 62
     7
370
    13
100
AcDbVertex
100
AcDb2dVertex
 10
98.40238080556581
 20
9.550099818243583
 30
0.0
  0
VERTEX
  5
55
330
53
100
AcDbEntity
  8
Calque 1
 62
     7
370
    13
100
AcDbVertex
100
AcDb2dVertex
 10
148.8142546818518
 20
-19.55554777254282
 30
0.0
  0
SEQEND
  5
56
330
53
100
AcDbEntity
  8
Calque 1
 62
     7
370
    13
  0
POLYLINE
  5
57
330
1F
100
AcDbEntity
  8
Calque 1
 62
     7
370
    13
100
AcDb2dPolyline
 66
     1
 10
0.0
 20
0.0
 30
0.0
  0
VERTEX
  5
58
330
57
100
AcDbEntity
  8
Calque 1
 62
     7
370
    13
100
AcDbVertex
100
AcDb2dVertex
 10
210.0043010554433
 20
-125.6360356475436
 30
0.0
  0
VERTEX
  5
59
330
57
100
AcDbEntity
  8
Calque 1
 62
     7
370
    13
100
AcDbVertex
100
AcDb2dVertex
 10
210.0044068887765
 20
-183.6323495219332
 30
0.0
  0
SEQEND
  5
5A
330
57
100
AcDbEntity
  8
Calque 1
 62
     7
370
    13
  0
SPLINE
  5
5B
330
1F
100
AcDbEntity
  8
Calque 1
 62
     7
370
    13
100
AcDbSpline
210
0.0
220
0.0
230
1.0
 70
    11
 71
     3
 72
    17
 73
    13
 74
     0
 42
0.0000000001
 43
0.0000000001
 12
1.0
 22
0.0
 32
0.0
 13
1.0
 23
0.0
 33
0.0
 40
0.0
 40
0.0
 40
0.0
 40
0.0
 40
1.0
 40
1.0
 40
1.0
 40
2.0
 40
2.0
 40
2.0
 40
3.0
 40
3.0
 40
3.0
 40
4.0
 40
4.0
 40
4.0
 40
4.0
 10
57.23173248252542
 20
44.86745836166715
 30
0.0
 10
57.23173248252542
 20
33.82177475457712
 30
0.0
 10
48.27742109587503
 20
24.86746359413174
 30
0.0
 10
37.23173720974764
 20
24.86746359413174
 30
0.0
 10
26.1860180458424
 20
24.86746359413174
 30
0.0
 10
17.23174193696985
 20
33.82177475457712
 30
0.0
 10
17.23174193696985
 20
44.86745836166715
 30
0.0
 10
17.23174193696985
 20
55.91314196875717
 30
0.0
 10
26.1860180458424
 20
64.86745312920254
 30
0.0
 10
37.23173720974764
 20
64.86745312920254
 30
0.0
 10
48.27742109587503
 20
64.86745312920254
 30
0.0
 10
57.23173248252542
 20
55.91314196875717
 30
0.0
 10
57.23173248252542
 20
44.86745836166715
 30
0.0
  0
INSERT
  5
5D
330
1F
100
AcDbEntity
  8
Calque 1
100
AcDbBlockReference
  2
block 2
 10
0.0
 20
0.0
 30
0.0
  0
INSERT
  5
87
330
1F
100
AcDbEntity
  8
Calque 1
100
AcDbBlockReference
  2
block 3
 10
0.0
 20
0.0
 30
0.0
  0
INSERT
  5
B1
330
1F
100
AcDbEntity
  8
Calque 1
100
AcDbBlockReference
  2
block 4
 10
0.0
 20
0.0
 30
0.0
  0
ENDSEC
  0
SECTION
  2
OBJECTS
  0
DICTIONARY
  5
C
330
0
100
AcDbDictionary
281
     1
  3
ACAD_GROUP
350
D
  3
ACAD_LAYOUT
350
1A
  3
ACAD_MATERIAL
350
3B
  3
ACAD_MLEADERSTYLE
350
D1
  3
ACAD_MLINESTYLE
350
17
  3
ACAD_PLOTSETTINGS
350
19
  3
ACAD_PLOTSTYLENAME
350
E
  3
ACAD_TABLESTYLE
350
D0
  3
ACAD_VISUALSTYLE
350
2A
  0
SUN
  5
3F
330
29
100
AcDbSun
 90
        1
290
     0
 63
     7
421
 16777215
 40
1.0
291
     1
 91
  2455826
 92
 54000000
292
     0
 70
     2
 71
   256
280
     1
  0
DICTIONARY
  5
D
102
{ACAD_REACTORS
330
C
102
}
330
C
100
AcDbDictionary
281
     1
  0
DICTIONARY
  5
1A
102
{ACAD_REACTORS
330
C
102
}
330
C
100
AcDbDictionary
281
     1
  3
Layout1
350
1E
  3
Layout2
350
26
  3
Model
350
22
  0
DICTIONARY
  5
3B
102
{ACAD_REACTORS
330
C
102
}
330
C
100
AcDbDictionary
281
     1
  3
ByBlock
350
3D
  3
ByLayer
350
3C
  3
Global
350
3E
  0
DICTIONARY
  5
D1
102
{ACAD_REACTORS
330
C
102
}
330
C
100
AcDbDictionary
281
     1
  0
DICTIONARY
  5
17
102
{ACAD_REACTORS
330
C
102
}
330
C
100
AcDbDictionary
281
     1
  3
Standard
350
18
  0
DICTIONARY
  5
19
102
{ACAD_REACTORS
330
C
102
}
330
C
100
AcDbDictionary
281
     1
  0
ACDBDICTIONARYWDFLT
  5
E
102
{ACAD_REACTORS
330
C
102
}
330
C
100
AcDbDictionary
281
     1
  3
Normal
350
F
100
AcDbDictionaryWithDefault
340
F
  0
DICTIONARY
  5
D0
102
{ACAD_REACTORS
330
C
102
}
330
C
100
AcDbDictionary
281
     1
  0
DICTIONARY
  5
2A
102
{ACAD_REACTORS
330
C
102
}
330
C
100
AcDbDictionary
281
     1
  3
2dWireframe
350
2F
  3
3D Hidden
350
31
  3
3dWireframe
350
30
  3
Basic
350
32
  3
Brighten
350
36
  3
ColorChange
350
3A
  3
Conceptual
350
34
  3
Dim
350
35
  3
Facepattern
350
39
  3
Flat
350
2B
  3
FlatWithEdges
350
2C
  3
Gouraud
350
2D
  3
GouraudWithEdges
350
2E
  3
Linepattern
350
38
  3
Realistic
350
33
  3
Thicken
350
37
  0
LAYOUT
  5
1E
102
{ACAD_REACTORS
330
1A
102
}
330
1A
100
AcDbPlotSettings
  1

  2
none_device
  4

  6

 40
0.0
 41
0.0
 42
0.0
 43
0.0
 44
0.0
 45
0.0
 46
0.0
 47
0.0
 48
0.0
 49
0.0
140
0.0
141
0.0
142
1.0
143
1.0
 70
   688
 72
     0
 73
     0
 74
     5
  7

 75
    16
 76
     0
 77
     2
 78
   300
147
1.0
148
0.0
149
0.0
100
AcDbLayout
  1
Layout1
 70
     1
 71
     1
 10
0.0
 20
0.0
 11
12.0
 21
9.0
 12
0.0
 22
0.0
 32
0.0
 14
1.000000000000000E+20
 24
1.000000000000000E+20
 34
1.000000000000000E+20
 15
-1.000000000000000E+20
 25
-1.000000000000000E+20
 35
-1.000000000000000E+20
146
0.0
 13
0.0
 23
0.0
 33
0.0
 16
1.0
 26
0.0
 36
0.0
 17
0.0
 27
1.0
 37
0.0
 76
     0
330
1B
  0
LAYOUT
  5
26
102
{ACAD_REACTORS
330
1A
102
}
330
1A
100
AcDbPlotSettings
  1

  2
none_device
  4

  6

 40
0.0
 41
0.0
 42
0.0
 43
0.0
 44
0.0
 45
0.0
 46
0.0
 47
0.0
 48
0.0
 49
0.0
140
0.0
141
0.0
142
1.0
143
1.0
 70
   688
 72
     0
 73
     0
 74
     5
  7

 75
    16
 76
     0
 77
     2
 78
   300
147
1.0
148
0.0
149
0.0
100
AcDbLayout
  1
Layout2
 70
     1
 71
     2
 10
0.0
 20
0.0
 11
0.0
 21
0.0
 12
0.0
 22
0.0
 32
0.0
 14
0.0
 24
0.0
 34
0.0
 15
0.0
 25
0.0
 35
0.0
146
0.0
 13
0.0
 23
0.0
 33
0.0
 16
1.0
 26
0.0
 36
0.0
 17
0.0
 27
1.0
 37
0.0
 76
     0
330
23
  0
LAYOUT
  5
22
102
{ACAD_REACTORS
330
1A
102
}
330
1A
100
AcDbPlotSettings
  1

  2
none_device
  4

  6

 40
0.0
 41
0.0
 42
0.0
 43
0.0
 44
0.0
 45
0.0
 46
0.0
 47
0.0
 48
0.0
 49
0.0
140
0.0
141
0.0
142
1.0
143
1.0
 70
  1712
 72
     0
 73
     0
 74
     0
  7

 75
     0
 76
     0
 77
     2
 78
   300
147
1.0
148
0.0
149
0.0
100
AcDbLayout
  1
Model
 70
     1
 71
     0
 10
0.0
 20
0.0
 11
12.0
 21
9.0
 12
0.0
 22
0.0
 32
0.0
 14
1.000000000000000E+20
 24
1.000000000000000E+20
 34
1.000000000000000E+20
 15
-1.000000000000000E+20
 25
-1.000000000000000E+20
 35
-1.000000000000000E+20
146
0.0
 13
0.0
 23
0.0
 33
0.0
 16
1.0
 26
0.0
 36
0.0
 17
0.0
 27
1.0
 37
0.0
 76
     0
330
1F
331
29
  0
MATERIAL
  5
3D
102
{ACAD_REACTORS
330
3B
102
}
330
3B
100
AcDbMaterial
  1
ByBlock
 72
     1
 94
      127
  0
MATERIAL
  5
3C
102
{ACAD_REACTORS
330
3B
102
}
330
3B
100
AcDbMaterial
  1
ByLayer
 72
     1
 94
      127
  0
MATERIAL
  5
3E
102
{ACAD_REACTORS
330
3B
102
}
330
3B
100
AcDbMaterial
  1
Global
 72
     1
 94
      127
  0
MLINESTYLE
  5
18
102
{ACAD_REACTORS
330
17
102
}
330
17
100
AcDbMlineStyle
  2
Standard
 70
     0
  3

 62
   256
 51
90.0
 52
90.0
 71
     2
 49
0.5
 62
   256
  6
BYLAYER
 49
-0.5
 62
   256
  6
BYLAYER
  0
ACDBPLACEHOLDER
  5
F
102
{ACAD_REACTORS
330
E
102
}
330
E
  0
VISUALSTYLE
  5
2F
102
{ACAD_REACTORS
330
2A
102
}
330
2A
100
AcDbVisualStyle
  2
2dWireframe
 70
     4
177
     2
291
     0
 71
     0
176
     1
 72
     2
176
     1
 73
     0
176
     1
 90
        0
176
     1
 40
-0.6
176
     1
 41
-30.0
176
     1
 62
     5
 63
     7
421
 16777215
176
     1
 74
     1
176
     1
 91
        4
176
     1
 64
     7
176
     1
 65
   257
176
     1
 75
     1
176
     1
175
     1
176
     1
 42
1.0
176
     1
 92
        0
176
     1
 66
   257
176
     1
 43
1.0
176
     1
 76
     1
176
     1
 77
     6
176
     1
 78
     2
176
     1
 67
     7
176
     1
 79
     5
176
     1
170
     0
176
     1
171
     0
176
     1
290
     0
176
     1
 93
        1
176
     1
 44
0.0
176
     1
173
     0
176
     1
  0
VISUALSTYLE
  5
31
102
{ACAD_REACTORS
330
2A
102
}
330
2A
100
AcDbVisualStyle
  2
3D Hidden
 70
     6
177
     2
291
     0
 71
     1
176
     1
 72
     2
176
     1
 73
     2
176
     1
 90
        0
176
     1
 40
-0.6
176
     1
 41
-30.0
176
     1
 62
     5
 63
     7
421
 16777215
176
     1
 74
     2
176
     1
 91
        2
176
     1
 64
     7
176
     1
 65
   257
176
     1
 75
     2
176
     1
175
     1
176
     1
 42
40.0
176
     1
 92
        0
176
     1
 66
   257
176
     1
 43
1.0
176
     1
 76
     1
176
     1
 77
     6
176
     1
 78
     2
176
     1
 67
     7
176
     1
 79
     3
176
     1
170
     0
176
     1
171
     0
176
     1
290
     0
176
     1
 93
        1
176
     1
 44
0.0
176
     1
173
     0
176
     1
  0
VISUALSTYLE
  5
30
102
{ACAD_REACTORS
330
2A
102
}
330
2A
100
AcDbVisualStyle
  2
3dWireframe
 70
     5
177
     2
291
     0
 71
     0
176
     1
 72
     2
176
     1
 73
     0
176
     1
 90
        0
176
     1
 40
-0.6
176
     1
 41
-30.0
176
     1
 62
     5
 63
     7
421
 16777215
176
     1
 74
     1
176
     1
 91
        4
176
     1
 64
     7
176
     1
 65
   257
176
     1
 75
     1
176
     1
175
     1
176
     1
 42
1.0
176
     1
 92
        0
176
     1
 66
   257
176
     1
 43
1.0
176
     1
 76
     1
176
     1
 77
     6
176
     1
 78
     2
176
     1
 67
     7
176
     1
 79
     5
176
     1
170
     0
176
     1
171
     0
176
     1
290
     0
176
     1
 93
        1
176
     1
 44
0.0
176
     1
173
     0
176
     1
  0
VISUALSTYLE
  5
32
102
{ACAD_REACTORS
330
2A
102
}
330
2A
100
AcDbVisualStyle
  2
Basic
 70
     7
177
     2
291
     1
 71
     1
176
     1
 72
     0
176
     1
 73
     1
176
     1
 90
        0
176
     1
 40
-0.6
176
     1
 41
-30.0
176
     1
 62
     5
 63
     7
421
 16777215
176
     1
 74
     0
176
     1
 91
        4
176
     1
 64
     7
176
     1
 65
   257
176
     1
 75
     1
176
     1
175
     1
176
     1
 42
1.0
176
     1
 92
        8
176
     1
 66
     7
176
     1
 43
1.0
176
     1
 76
     1
176
     1
 77
     6
176
     1
 78
     2
176
     1
 67
     7
176
     1
 79
     5
176
     1
170
     0
176
     1
171
     0
176
     1
290
     0
176
     1
 93
        1
176
     1
 44
0.0
176
     1
173
     0
176
     1
  0
VISUALSTYLE
  5
36
102
{ACAD_REACTORS
330
2A
102
}
330
2A
100
AcDbVisualStyle
  2
Brighten
 70
    12
177
     2
291
     1
 71
     2
176
     1
 72
     2
176
     1
 73
     0
176
     1
 90
        0
176
     1
 40
-0.6
176
     1
 41
-30.0
176
     1
 62
     5
 63
     7
421
 16777215
176
     1
 74
     1
176
     1
 91
        4
176
     1
 64
     7
176
     1
 65
   257
176
     1
 75
     1
176
     1
175
     1
176
     1
 42
1.0
176
     1
 92
        8
176
     1
 66
     7
176
     1
 43
1.0
176
     1
 76
     1
176
     1
 77
     6
176
     1
 78
     2
176
     1
 67
     7
176
     1
 79
     5
176
     1
170
     0
176
     1
171
     0
176
     1
290
     0
176
     1
 93
        1
176
     1
 44
50.0
176
     1
173
     0
176
     1
  0
VISUALSTYLE
  5
3A
102
{ACAD_REACTORS
330
2A
102
}
330
2A
100
AcDbVisualStyle
  2
ColorChange
 70
    16
177
     2
291
     1
 71
     2
176
     1
 72
     2
176
     1
 73
     3
176
     1
 90
        0
176
     1
 40
-0.6
176
     1
 41
-30.0
176
     1
 62
     5
 63
     8
421
  8421504
176
     1
 74
     1
176
     1
 91
        4
176
     1
 64
     7
176
     1
 65
   257
176
     1
 75
     1
176
     1
175
     1
176
     1
 42
1.0
176
     1
 92
        8
176
     1
 66
     8
424
  8421504
176
     1
 43
1.0
176
     1
 76
     1
176
     1
 77
     6
176
     1
 78
     2
176
     1
 67
     7
176
     1
 79
     5
176
     1
170
     0
176
     1
171
     0
176
     1
290
     0
176
     1
 93
        1
176
     1
 44
0.0
176
     1
173
     0
176
     1
  0
VISUALSTYLE
  5
34
102
{ACAD_REACTORS
330
2A
102
}
330
2A
100
AcDbVisualStyle
  2
Conceptual
 70
     9
177
     2
291
     0
 71
     3
176
     1
 72
     2
176
     1
 73
     0
176
     1
 90
        0
176
     1
 40
-0.6
176
     1
 41
-30.0
176
     1
 62
     5
 63
     7
421
 16777215
176
     1
 74
     2
176
     1
 91
        2
176
     1
 64
     7
176
     1
 65
   257
176
     1
 75
     1
176
     1
175
     1
176
     1
 42
40.0
176
     1
 92
        8
176
     1
 66
     7
176
     1
 43
1.0
176
     1
 76
     1
176
     1
 77
     6
176
     1
 78
     2
176
     1
 67
     7
176
     1
 79
     3
176
     1
170
     0
176
     1
171
     0
176
     1
290
     0
176
     1
 93
        1
176
     1
 44
0.0
176
     1
173
     0
176
     1
  0
VISUALSTYLE
  5
35
102
{ACAD_REACTORS
330
2A
102
}
330
2A
100
AcDbVisualStyle
  2
Dim
 70
    11
177
     2
291
     1
 71
     2
176
     1
 72
     2
176
     1
 73
     0
176
     1
 90
        0
176
     1
 40
-0.6
176
     1
 41
-30.0
176
     1
 62
     5
 63
     7
421
 16777215
176
     1
 74
     1
176
     1
 91
        4
176
     1
 64
     7
176
     1
 65
   257
176
     1
 75
     1
176
     1
175
     1
176
     1
 42
1.0
176
     1
 92
        8
176
     1
 66
     7
176
     1
 43
1.0
176
     1
 76
     1
176
     1
 77
     6
176
     1
 78
     2
176
     1
 67
     7
176
     1
 79
     5
176
     1
170
     0
176
     1
171
     0
176
     1
290
     0
176
     1
 93
        1
176
     1
 44
-50.0
176
     1
173
     0
176
     1
  0
VISUALSTYLE
  5
39
102
{ACAD_REACTORS
330
2A
102
}
330
2A
100
AcDbVisualStyle
  2
Facepattern
 70
    15
177
     2
291
     1
 71
     2
176
     1
 72
     2
176
     1
 73
     0
176
     1
 90
        0
176
     1
 40
-0.6
176
     1
 41
-30.0
176
     1
 62
     5
 63
     7
421
 16777215
176
     1
 74
     1
176
     1
 91
        4
176
     1
 64
     7
176
     1
 65
   257
176
     1
 75
     1
176
     1
175
     1
176
     1
 42
1.0
176
     1
 92
        8
176
     1
 66
     7
176
     1
 43
1.0
176
     1
 76
     1
176
     1
 77
     6
176
     1
 78
     2
176
     1
 67
     7
176
     1
 79
     5
176
     1
170
     0
176
     1
171
     0
176
     1
290
     0
176
     1
 93
        1
176
     1
 44
0.0
176
     1
173
     0
176
     1
  0
VISUALSTYLE
  5
2B
102
{ACAD_REACTORS
330
2A
102
}
330
2A
100
AcDbVisualStyle
  2
Flat
 70
     0
177
     2
291
     1
 71
     2
176
     1
 72
     1
176
     1
 73
     1
176
     1
 90
        2
176
     1
 40
-0.6
176
     1
 41
30.0
176
     1
 62
     5
 63
     7
421
 16777215
176
     1
 74
     0
176
     1
 91
        4
176
     1
 64
     7
176
     1
 65
   257
176
     1
 75
     1
176
     1
175
     1
176
     1
 42
1.0
176
     1
 92
        8
176
     1
 66
     7
176
     1
 43
1.0
176
     1
 76
     1
176
     1
 77
     6
176
     1
 78
     2
176
     1
 67
     7
176
     1
 79
     5
176
     1
170
     0
176
     1
171
     0
176
     1
290
     0
176
     1
 93
       13
176
     1
 44
0.0
176
     1
173
     0
176
     1
  0
VISUALSTYLE
  5
2C
102
{ACAD_REACTORS
330
2A
102
}
330
2A
100
AcDbVisualStyle
  2
FlatWithEdges
 70
     1
177
     2
291
     1
 71
     2
176
     1
 72
     1
176
     1
 73
     1
176
     1
 90
        2
176
     1
 40
-0.6
176
     1
 41
30.0
176
     1
 62
     5
 63
     7
421
 16777215
176
     1
 74
     1
176
     1
 91
        4
176
     1
 64
     7
176
     1
 65
   257
176
     1
 75
     1
176
     1
175
     1
176
     1
 42
1.0
176
     1
 92
        0
176
     1
 66
   257
176
     1
 43
1.0
176
     1
 76
     1
176
     1
 77
     6
176
     1
 78
     2
176
     1
 67
     7
176
     1
 79
     5
176
     1
170
     0
176
     1
171
     0
176
     1
290
     0
176
     1
 93
       13
176
     1
 44
0.0
176
     1
173
     0
176
     1
  0
VISUALSTYLE
  5
2D
102
{ACAD_REACTORS
330
2A
102
}
330
2A
100
AcDbVisualStyle
  2
Gouraud
 70
     2
177
     2
291
     1
 71
     2
176
     1
 72
     2
176
     1
 73
     1
176
     1
 90
        2
176
     1
 40
-0.6
176
     1
 41
30.0
176
     1
 62
     5
 63
     7
421
 16777215
176
     1
 74
     0
176
     1
 91
        4
176
     1
 64
     7
176
     1
 65
   257
176
     1
 75
     1
176
     1
175
     1
176
     1
 42
1.0
176
     1
 92
        0
176
     1
 66
     7
176
     1
 43
1.0
176
     1
 76
     1
176
     1
 77
     6
176
     1
 78
     2
176
     1
 67
     7
176
     1
 79
     5
176
     1
170
     0
176
     1
171
     0
176
     1
290
     0
176
     1
 93
       13
176
     1
 44
0.0
176
     1
173
     0
176
     1
  0
VISUALSTYLE
  5
2E
102
{ACAD_REACTORS
330
2A
102
}
330
2A
100
AcDbVisualStyle
  2
GouraudWithEdges
 70
     3
177
     2
291
     1
 71
     2
176
     1
 72
     2
176
     1
 73
     1
176
     1
 90
        2
176
     1
 40
-0.6
176
     1
 41
30.0
176
     1
 62
     5
 63
     7
421
 16777215
176
     1
 74
     1
176
     1
 91
        4
176
     1
 64
     7
176
     1
 65
   257
176
     1
 75
     1
176
     1
175
     1
176
     1
 42
1.0
176
     1
 92
        0
176
     1
 66
   257
176
     1
 43
1.0
176
     1
 76
     1
176
     1
 77
     6
176
     1
 78
     2
176
     1
 67
     7
176
     1
 79
     5
176
     1
170
     0
176
     1
171
     0
176
     1
290
     0
176
     1
 93
       13
176
     1
 44
0.0
176
     1
173
     0
176
     1
  0
VISUALSTYLE
  5
38
102
{ACAD_REACTORS
330
2A
102
}
330
2A
100
AcDbVisualStyle
  2
Linepattern
 70
    14
177
     2
291
     1
 71
     2
176
     1
 72
     2
176
     1
 73
     0
176
     1
 90
        0
176
     1
 40
-0.6
176
     1
 41
-30.0
176
     1
 62
     5
 63
     7
421
 16777215
176
     1
 74
     1
176
     1
 91
        4
176
     1
 64
     7
176
     1
 65
   257
176
     1
 75
     7
176
     1
175
     7
176
     1
 42
1.0
176
     1
 92
        8
176
     1
 66
     7
176
     1
 43
1.0
176
     1
 76
     1
176
     1
 77
     6
176
     1
 78
     2
176
     1
 67
     7
176
     1
 79
     5
176
     1
170
     0
176
     1
171
     0
176
     1
290
     0
176
     1
 93
        1
176
     1
 44
0.0
176
     1
173
     0
176
     1
  0
VISUALSTYLE
  5
33
102
{ACAD_REACTORS
330
2A
102
}
330
2A
100
AcDbVisualStyle
  2
Realistic
 70
     8
177
     2
291
     0
 71
     2
176
     1
 72
     2
176
     1
 73
     0
176
     1
 90
        0
176
     1
 40
-0.6
176
     1
 41
-30.0
176
     1
 62
     5
 63
     7
421
 16777215
176
     1
 74
     1
176
     1
 91
        0
176
     1
 64
     7
176
     1
 65
   257
176
     1
 75
     1
176
     1
175
     1
176
     1
 42
1.0
176
     1
 92
        8
176
     1
 66
     8
424
  7895160
176
     1
 43
1.0
176
     1
 76
     1
176
     1
 77
     6
176
     1
 78
     2
176
     1
 67
     7
176
     1
 79
     5
176
     1
170
     0
176
     1
171
     0
176
     1
290
     0
176
     1
 93
       13
176
     1
 44
0.0
176
     1
173
     0
176
     1
  0
VISUALSTYLE
  5
37
102
{ACAD_REACTORS
330
2A
102
}
330
2A
100
AcDbVisualStyle
  2
Thicken
 70
    13
177
     2
291
     1
 71
     2
176
     1
 72
     2
176
     1
 73
     0
176
     1
 90
        0
176
     1
 40
-0.6
176
     1
 41
-30.0
176
     1
 62
     5
 63
     7
421
 16777215
176
     1
 74
     1
176
     1
 91
        4
176
     1
 64
     7
176
     1
 65
   257
176
     1
 75
     1
176
     1
175
     1
176
     1
 42
1.0
176
     1
 92
       12
176
     1
 66
     7
176
     1
 43
1.0
176
     1
 76
     1
176
     1
 77
     6
176
     1
 78
     2
176
     1
 67
     7
176
     1
 79
     5
176
     1
170
     0
176
     1
171
     0
176
     1
290
     0
176
     1
 93
        1
176
     1
 44
0.0
176
     1
173
     0
176
     1
  0
ENDSEC
  0
EOF
