  0
SECTION
  2
HEADER
  9
$ACADVER
  1
AC1024
  9
$ACADMAINTVER
 70
     6
  9
$DWGCODEPAGE
  3
ANSI_1252
  9
$INSBASE
 10
0.0
 20
0.0
 30
0.0
  9
$EXTMIN
 10
1.000000000000000E+20
 20
1.000000000000000E+20
 30
1.000000000000000E+20
  9
$EXTMAX
 10
-1.000000000000000E+20
 20
-1.000000000000000E+20
 30
-1.000000000000000E+20
  9
$LIMMIN
 10
0.0
 20
0.0
  9
$LIMMAX
 10
12.0
 20
9.0
  9
$ORTHOMODE
 70
     0
  9
$REGENMODE
 70
     1
  9
$FILLMODE
 70
     1
  9
$QTEXTMODE
 70
     0
  9
$MIRRTEXT
 70
     1
  9
$LTSCALE
 40
1.0
  9
$ATTMODE
 70
     1
  9
$TEXTSIZE
 40
0.2
  9
$TRACEWID
 40
0.05
  9
$TEXTSTYLE
  7
Standard
  9
$CLAYER
  8
0
  9
$CELTYPE
  6
ByLayer
  9
$CECOLOR
 62
   256
  9
$CELTSCALE
 40
1.0
  9
$DISPSILH
 70
     0
  9
$DIMSCALE
 40
1.0
  9
$DIMASZ
 40
0.18
  9
$DIMEXO
 40
0.0625
  9
$DIMDLI
 40
0.38
  9
$DIMRND
 40
0.0
  9
$DIMDLE
 40
0.0
  9
$DIMEXE
 40
0.18
  9
$DIMTP
 40
0.0
  9
$DIMTM
 40
0.0
  9
$DIMTXT
 40
0.18
  9
$DIMCEN
 40
0.09
  9
$DIMTSZ
 40
0.0
  9
$DIMTOL
 70
     0
  9
$DIMLIM
 70
     0
  9
$DIMTIH
 70
     1
  9
$DIMTOH
 70
     1
  9
$DIMSE1
 70
     0
  9
$DIMSE2
 70
     0
  9
$DIMTAD
 70
     0
  9
$DIMZIN
 70
     0
  9
$DIMBLK
  1

  9
$DIMASO
 70
     1
  9
$DIMSHO
 70
     1
  9
$DIMPOST
  1

  9
$DIMAPOST
  1

  9
$DIMALT
 70
     0
  9
$DIMALTD
 70
     2
  9
$DIMALTF
 40
25.4
  9
$DIMLFAC
 40
1.0
  9
$DIMTOFL
 70
     0
  9
$DIMTVP
 40
0.0
  9
$DIMTIX
 70
     0
  9
$DIMSOXD
 70
     0
  9
$DIMSAH
 70
     0
  9
$DIMBLK1
  1

  9
$DIMBLK2
  1

  9
$DIMSTYLE
  2
Standard
  9
$DIMCLRD
 70
     0
  9
$DIMCLRE
 70
     0
  9
$DIMCLRT
 70
     0
  9
$DIMTFAC
 40
1.0
  9
$DIMGAP
 40
0.09
  9
$DIMJUST
 70
     0
  9
$DIMSD1
 70
     0
  9
$DIMSD2
 70
     0
  9
$DIMTOLJ
 70
     1
  9
$DIMTZIN
 70
     0
  9
$DIMALTZ
 70
     0
  9
$DIMALTTZ
 70
     0
  9
$DIMUPT
 70
     0
  9
$DIMDEC
 70
     4
  9
$DIMTDEC
 70
     4
  9
$DIMALTU
 70
     2
  9
$DIMALTTD
 70
     2
  9
$DIMTXSTY
  7
Standard
  9
$DIMAUNIT
 70
     0
  9
$DIMADEC
 70
     0
  9
$DIMALTRND
 40
0.0
  9
$DIMAZIN
 70
     0
  9
$DIMDSEP
 70
    46
  9
$DIMATFIT
 70
     3
  9
$DIMFRAC
 70
     0
  9
$DIMLDRBLK
  1

  9
$DIMLUNIT
 70
     2
  9
$DIMLWD
 70
    -2
  9
$DIMLWE
 70
    -2
  9
$DIMTMOVE
 70
     0
  9
$DIMFXL
 40
1.0
  9
$DIMFXLON
 70
     0
  9
$DIMJOGANG
 40
0.7853981633974483
  9
$DIMTFILL
 70
     0
  9
$DIMTFILLCLR
 70
     0
  9
$DIMARCSYM
 70
     0
  9
$DIMLTYPE
  6

  9
$DIMLTEX1
  6

  9
$DIMLTEX2
  6

  9
$DIMTXTDIRECTION
 70
     0
  9
$LUNITS
 70
     2
  9
$LUPREC
 70
     4
  9
$SKETCHINC
 40
0.1
  9
$FILLETRAD
 40
0.5
  9
$AUNITS
 70
     0
  9
$AUPREC
 70
     0
  9
$MENU
  1
.
  9
$ELEVATION
 40
0.0
  9
$PELEVATION
 40
0.0
  9
$THICKNESS
 40
0.0
  9
$LIMCHECK
 70
     0
  9
$CHAMFERA
 40
0.5
  9
$CHAMFERB
 40
0.5
  9
$CHAMFERC
 40
1.0
  9
$CHAMFERD
 40
0.0
  9
$SKPOLY
 70
     0
  9
$TDCREATE
 40
2458106.788427176
  9
$TDUCREATE
 40
2458106.746760509
  9
$TDUPDATE
 40
2458106.788427222
  9
$TDUUPDATE
 40
2458106.746760556
  9
$TDINDWG
 40
0.0000000116
  9
$TDUSRTIMER
 40
0.0000000116
  9
$USRTIMER
 70
     1
  9
$ANGBASE
 50
0.0
  9
$ANGDIR
 70
     0
  9
$PDMODE
 70
     0
  9
$PDSIZE
 40
0.0
  9
$PLINEWID
 40
0.0
  9
$SPLFRAME
 70
     0
  9
$SPLINETYPE
 70
     6
  9
$SPLINESEGS
 70
     8
  9
$HANDSEED
  5
B8
  9
$SURFTAB1
 70
     6
  9
$SURFTAB2
 70
     6
  9
$SURFTYPE
 70
     6
  9
$SURFU
 70
     6
  9
$SURFV
 70
     6
  9
$UCSBASE
  2

  9
$UCSNAME
  2

  9
$UCSORG
 10
0.0
 20
0.0
 30
0.0
  9
$UCSXDIR
 10
1.0
 20
0.0
 30
0.0
  9
$UCSYDIR
 10
0.0
 20
1.0
 30
0.0
  9
$UCSORTHOREF
  2

  9
$UCSORTHOVIEW
 70
     0
  9
$UCSORGTOP
 10
0.0
 20
0.0
 30
0.0
  9
$UCSORGBOTTOM
 10
0.0
 20
0.0
 30
0.0
  9
$UCSORGLEFT
 10
0.0
 20
0.0
 30
0.0
  9
$UCSORGRIGHT
 10
0.0
 20
0.0
 30
0.0
  9
$UCSORGFRONT
 10
0.0
 20
0.0
 30
0.0
  9
$UCSORGBACK
 10
0.0
 20
0.0
 30
0.0
  9
$PUCSBASE
  2

  9
$PUCSNAME
  2

  9
$PUCSORG
 10
0.0
 20
0.0
 30
0.0
  9
$PUCSXDIR
 10
1.0
 20
0.0
 30
0.0
  9
$PUCSYDIR
 10
0.0
 20
1.0
 30
0.0
  9
$PUCSORTHOREF
  2

  9
$PUCSORTHOVIEW
 70
     0
  9
$PUCSORGTOP
 10
0.0
 20
0.0
 30
0.0
  9
$PUCSORGBOTTOM
 10
0.0
 20
0.0
 30
0.0
  9
$PUCSORGLEFT
 10
0.0
 20
0.0
 30
0.0
  9
$PUCSORGRIGHT
 10
0.0
 20
0.0
 30
0.0
  9
$PUCSORGFRONT
 10
0.0
 20
0.0
 30
0.0
  9
$PUCSORGBACK
 10
0.0
 20
0.0
 30
0.0
  9
$USERI1
 70
     0
  9
$USERI2
 70
     0
  9
$USERI3
 70
     0
  9
$USERI4
 70
     0
  9
$USERI5
 70
     0
  9
$USERR1
 40
0.0
  9
$USERR2
 40
0.0
  9
$USERR3
 40
0.0
  9
$USERR4
 40
0.0
  9
$USERR5
 40
0.0
  9
$WORLDVIEW
 70
     1
  9
$SHADEDGE
 70
     3
  9
$SHADEDIF
 70
    70
  9
$TILEMODE
 70
     1
  9
$MAXACTVP
 70
    64
  9
$PINSBASE
 10
0.0
 20
0.0
 30
0.0
  9
$PLIMCHECK
 70
     0
  9
$PEXTMIN
 10
1.000000000000000E+20
 20
1.000000000000000E+20
 30
1.000000000000000E+20
  9
$PEXTMAX
 10
-1.000000000000000E+20
 20
-1.000000000000000E+20
 30
-1.000000000000000E+20
  9
$PLIMMIN
 10
0.0
 20
0.0
  9
$PLIMMAX
 10
12.0
 20
9.0
  9
$UNITMODE
 70
     0
  9
$VISRETAIN
 70
     1
  9
$PLINEGEN
 70
     0
  9
$PSLTSCALE
 70
     1
  9
$TREEDEPTH
 70
  3020
  9
$CMLSTYLE
  2
Standard
  9
$CMLJUST
 70
     0
  9
$CMLSCALE
 40
1.0
  9
$PROXYGRAPHICS
 70
     1
  9
$MEASUREMENT
 70
     0
  9
$CELWEIGHT
370
    -1
  9
$ENDCAPS
280
     0
  9
$JOINSTYLE
280
     0
  9
$LWDISPLAY
290
     1
  9
$INSUNITS
 70
     1
  9
$HYPERLINKBASE
  1

  9
$STYLESHEET
  1

  9
$XEDIT
290
     1
  9
$CEPSNTYPE
380
     0
  9
$PSTYLEMODE
290
     1
  9
$FINGERPRINTGUID
  2
{5CE5A0ED-9E2F-4AF4-BBF3-8A3F78EBB0BD}
  9
$VERSIONGUID
  2
{FAEB1C32-E019-11D5-929B-00C0DF256EC4}
  9
$EXTNAMES
290
     1
  9
$PSVPSCALE
 40
0.0
  9
$OLESTARTUP
290
     0
  9
$SORTENTS
280
   127
  9
$INDEXCTL
280
     0
  9
$HIDETEXT
280
     1
  9
$XCLIPFRAME
280
     2
  9
$HALOGAP
280
     0
  9
$OBSCOLOR
 70
   257
  9
$OBSLTYPE
280
     0
  9
$INTERSECTIONDISPLAY
280
     0
  9
$INTERSECTIONCOLOR
 70
   257
  9
$DIMASSOC
280
     2
  9
$PROJECTNAME
  1

  9
$CAMERADISPLAY
290
     0
  9
$LENSLENGTH
 40
50.0
  9
$CAMERAHEIGHT
 40
0.0
  9
$STEPSPERSEC
 40
2.0
  9
$STEPSIZE
 40
6.0
  9
$3DDWFPREC
 40
2.0
  9
$PSOLWIDTH
 40
0.25
  9
$PSOLHEIGHT
 40
4.0
  9
$LOFTANG1
 40
1.570796326794897
  9
$LOFTANG2
 40
1.570796326794897
  9
$LOFTMAG1
 40
0.0
  9
$LOFTMAG2
 40
0.0
  9
$LOFTPARAM
 70
     7
  9
$LOFTNORMALS
280
     1
  9
$LATITUDE
 40
37.795
  9
$LONGITUDE
 40
-122.394
  9
$NORTHDIRECTION
 40
0.0
  9
$TIMEZONE
 70
 -8000
  9
$LIGHTGLYPHDISPLAY
280
     1
  9
$TILEMODELIGHTSYNCH
280
     1
  9
$CMATERIAL
347
3C
  9
$SOLIDHIST
280
     1
  9
$SHOWHIST
280
     1
  9
$DWFFRAME
280
     2
  9
$DGNFRAME
280
     2
  9
$REALWORLDSCALE
290
     1
  9
$INTERFERECOLOR
 62
   256
  9
$CSHADOW
280
     0
  9
$SHADOWPLANELOCATION
 40
0.0
  0
ENDSEC
  0
SECTION
  2
CLASSES
  0
CLASS
  1
ACDBDICTIONARYWDFLT
  2
AcDbDictionaryWithDefault
  3
ObjectDBX Classes
 90
        0
 91
        4
280
     0
281
     0
  0
CLASS
  1
VISUALSTYLE
  2
AcDbVisualStyle
  3
ObjectDBX Classes
 90
     4095
 91
        4
280
     0
281
     0
  0
CLASS
  1
MATERIAL
  2
AcDbMaterial
  3
ObjectDBX Classes
 90
     1153
 91
        4
280
     0
281
     0
  0
CLASS
  1
SUN
  2
AcDbSun
  3
SCENEOE
 90
     1024
 91
        4
280
     0
281
     0
  0
ENDSEC
  0
SECTION
  2
TABLES
  0
TABLE
  2
VPORT
  5
8
330
0
100
AcDbSymbolTable
 70
     1
  0
VPORT
  5
29
330
8
100
AcDbSymbolTableRecord
100
AcDbViewportTableRecord
  2
*Active
 70
     0
 10
0.0
 20
0.0
 11
1.0
 21
1.0
 12
0.0
 22
0.0
 13
0.0
 23
0.0
 14
0.5
 24
0.5
 15
0.5
 25
0.5
 16
0.0
 26
0.0
 36
1.0
 17
105.0007777515277
 27
-148.5000416295416
 37
0.0
 40
297.0000832590831
 41
0.7070757462376333
 42
50.0
 43
0.0
 44
0.0
 50
0.0
 51
0.0
 71
     0
 72
   100
 73
     1
 74
     3
 75
     0
 76
     0
 77
     0
 78
     0
281
     0
 65
     1
110
0.0
120
0.0
130
0.0
111
1.0
121
0.0
131
0.0
112
0.0
122
1.0
132
0.0
 79
     0
146
0.0
 60
     3
 61
     5
292
     1
282
     1
141
0.0
142
0.0
 63
   250
361
3F
  0
ENDTAB
  0
TABLE
  2
LTYPE
  5
5
330
0
100
AcDbSymbolTable
 70
     1
  0
LTYPE
  5
14
330
5
100
AcDbSymbolTableRecord
100
AcDbLinetypeTableRecord
  2
ByBlock
 70
     0
  3

 72
    65
 73
     0
 40
0.0
  0
LTYPE
  5
15
330
5
100
AcDbSymbolTableRecord
100
AcDbLinetypeTableRecord
  2
ByLayer
 70
     0
  3

 72
    65
 73
     0
 40
0.0
  0
LTYPE
  5
16
330
5
100
AcDbSymbolTableRecord
100
AcDbLinetypeTableRecord
  2
Continuous
 70
     0
  3
Solid line
 72
    65
 73
     0
 40
0.0
  0
ENDTAB
  0
TABLE
  2
LAYER
  5
2
330
0
100
AcDbSymbolTable
 70
     2
  0
LAYER
  5
10
330
2
100
AcDbSymbolTableRecord
100
AcDbLayerTableRecord
  2
0
 70
     0
 62
     7
  6
Continuous
370
    -3
390
F
347
3E
  0
LAYER
  5
40
330
2
100
AcDbSymbolTableRecord
100
AcDbLayerTableRecord
  2
Calque 1
 70
     0
 62
     7
  6
Continuous
370
    -3
390
F
347
3E
  0
ENDTAB
  0
TABLE
  2
STYLE
  5
3
330
0
100
AcDbSymbolTable
 70
     1
  0
STYLE
  5
11
330
3
100
AcDbSymbolTableRecord
100
AcDbTextStyleTableRecord
  2
Standard
 70
     0
 40
0.0
 41
1.0
 50
0.0
 71
     0
 42
0.2
  3
txt
  4

  0
ENDTAB
  0
TABLE
  2
VIEW
  5
6
330
0
100
AcDbSymbolTable
 70
     0
  0
ENDTAB
  0
TABLE
  2
UCS
  5
7
330
0
100
AcDbSymbolTable
 70
     0
  0
ENDTAB
  0
TABLE
  2
APPID
  5
9
330
0
100
AcDbSymbolTable
 70
     1
  0
APPID
  5
12
330
9
100
AcDbSymbolTableRecord
100
AcDbRegAppTableRecord
  2
ACAD
 70
     0
  0
ENDTAB
  0
TABLE
  2
DIMSTYLE
  5
A
330
0
100
AcDbSymbolTable
 70
     1
100
AcDbDimStyleTable
  0
DIMSTYLE
105
27
330
A
100
AcDbSymbolTableRecord
100
AcDbDimStyleTableRecord
  2
Standard
 70
     0
178
     0
340
11
  0
ENDTAB
  0
TABLE
  2
BLOCK_RECORD
  5
1
330
0
100
AcDbSymbolTable
 70
     3
  0
BLOCK_RECORD
  5
1F
330
1
100
AcDbSymbolTableRecord
100
AcDbBlockTableRecord
  2
*Model_Space
340
22
 70
     0
280
     1
281
     0
  0
BLOCK_RECORD
  5
1B
330
1
100
AcDbSymbolTableRecord
100
AcDbBlockTableRecord
  2
*Paper_Space
340
1E
 70
     0
280
     1
281
     0
  0
BLOCK_RECORD
  5
23
330
1
100
AcDbSymbolTableRecord
100
AcDbBlockTableRecord
  2
*Paper_Space0
340
26
 70
     0
280
     1
281
     0
  0
BLOCK_RECORD
  5
5B
330
1
100
AcDbSymbolTableRecord
100
AcDbBlockTableRecord
  2
block 2
340
0
102
{BLKREFS
331
5C
102
}
 70
     0
280
     1
281
     0
  0
BLOCK_RECORD
  5
7B
330
1
100
AcDbSymbolTableRecord
100
AcDbBlockTableRecord
  2
block 3
340
0
102
{BLKREFS
331
7C
102
}
 70
     0
280
     1
281
     0
  0
ENDTAB
  0
ENDSEC
  0
SECTION
  2
BLOCKS
  0
BLOCK
  5
20
330
1F
100
AcDbEntity
  8
0
100
AcDbBlockBegin
  2
*Model_Space
 70
     0
 10
0.0
 20
0.0
 30
0.0
  3
*Model_Space
  1

  0
ENDBLK
  5
21
330
1F
100
AcDbEntity
  8
0
100
AcDbBlockEnd
  0
BLOCK
  5
1C
330
1B
100
AcDbEntity
 67
     1
  8
0
100
AcDbBlockBegin
  2
*Paper_Space
 70
     0
 10
0.0
 20
0.0
 30
0.0
  3
*Paper_Space
  1

  0
ENDBLK
  5
1D
330
1B
100
AcDbEntity
 67
     1
  8
0
100
AcDbBlockEnd
  0
BLOCK
  5
24
330
23
100
AcDbEntity
  8
0
100
AcDbBlockBegin
  2
*Paper_Space0
 70
     0
 10
0.0
 20
0.0
 30
0.0
  3
*Paper_Space0
  1

  0
ENDBLK
  5
25
330
23
100
AcDbEntity
  8
0
100
AcDbBlockEnd
  0
BLOCK
  5
5D
330
5B
100
AcDbEntity
  8
0
100
AcDbBlockBegin
  2
block 2
 70
     0
 10
0.0
 20
0.0
 30
0.0
  3
block 2
  1

  0
SPLINE
  5
5F
330
5B
100
AcDbEntity
  8
Calque 1
 62
     1
370
    13
100
AcDbSpline
210
0.0
220
0.0
230
1.0
 70
    11
 71
     3
 72
    32
 73
    28
 74
     0
 42
0.0000000001
 43
0.0000000001
 12
1.0
 22
0.0
 32
0.0
 13
1.0
 23
0.0
 33
0.0
 40
0.0
 40
0.0
 40
0.0
 40
0.0
 40
1.0
 40
1.0
 40
1.0
 40
2.0
 40
2.0
 40
2.0
 40
3.0
 40
3.0
 40
3.0
 40
4.0
 40
4.0
 40
4.0
 40
5.0
 40
5.0
 40
5.0
 40
6.0
 40
6.0
 40
6.0
 40
7.0
 40
7.0
 40
7.0
 40
8.0
 40
8.0
 40
8.0
 40
9.0
 40
9.0
 40
9.0
 40
9.0
 10
152.4270253931608
 20
-84.35505803446665
 30
0.0
 10
152.4270253931608
 20
-84.35505803446665
 30
0.0
 10
156.4247384477168
 20
-87.9199127557979
 30
0.0
 10
156.4247384477168
 20
-87.9199127557979
 30
0.0
 10
158.2182959472685
 20
-89.5191602553981
 30
0.0
 10
160.9026526132643
 20
-90.50214025515234
 30
0.0
 10
162.3899637240037
 20
-90.10424219969612
 30
0.0
 10
163.8772395569656
 20
-89.70641469979557
 30
0.0
 10
165.9836756675493
 20
-88.06314053353985
 30
0.0
 10
167.0709015006112
 20
-86.45270997838672
 30
0.0
 10
168.1582331670063
 20
-84.84224414545608
 30
0.0
 10
168.5233934446925
 20
-82.24629359054966
 30
0.0
 10
167.8823256670752
 20
-80.68412303538454
 30
0.0
 10
167.2412578894572
 20
-79.12181136910839
 30
0.0
 10
165.8129665009256
 20
-76.51803973087053
 30
0.0
 10
164.708278167869
 20
-74.89787603683105
 30
0.0
 10
163.9361887236171
 20
-73.76557931489207
 30
0.0
 10
162.6166234461693
 20
-72.76148556514292
 30
0.0
 10
161.3403087242657
 20
-72.24351606527253
 30
0.0
 10
161.3403087242657
 20
-72.24351606527253
 30
0.0
 10
152.3494495598469
 20
-77.4343059250858
 30
0.0
 10
152.3494495598469
 20
-77.4343059250858
 30
0.0
 10
152.3494495598469
 20
-77.4343059250858
 30
0.0
 10
151.7042190044534
 20
-78.24759275821573
 30
0.0
 10
151.7042190044534
 20
-78.24759275821573
 30
0.0
 10
150.3082067825799
 20
-80.00749525777604
 30
0.0
 10
150.6334678936092
 20
-82.75581053486644
 30
0.0
 10
152.4270253931608
 20
-84.35505803446665
 30
0.0
  0
SPLINE
  5
60
330
5B
100
AcDbEntity
  8
Calque 1
 62
     1
370
    13
100
AcDbSpline
210
0.0
220
0.0
230
1.0
 70
    11
 71
     3
 72
    32
 73
    28
 74
     0
 42
0.0000000001
 43
0.0000000001
 12
1.0
 22
0.0
 32
0.0
 13
1.0
 23
0.0
 33
0.0
 40
0.0
 40
0.0
 40
0.0
 40
0.0
 40
1.0
 40
1.0
 40
1.0
 40
2.0
 40
2.0
 40
2.0
 40
3.0
 40
3.0
 40
3.0
 40
4.0
 40
4.0
 40
4.0
 40
5.0
 40
5.0
 40
5.0
 40
6.0
 40
6.0
 40
6.0
 40
7.0
 40
7.0
 40
7.0
 40
8.0
 40
8.0
 40
8.0
 40
9.0
 40
9.0
 40
9.0
 40
9.0
 10
182.5717443895178
 20
-65.41311387253553
 30
0.0
 10
182.1932491213962
 20
-63.94972109512373
 30
0.0
 10
180.4424130549527
 20
-63.60445748409874
 30
0.0
 10
178.3531581644574
 20
-64.70526526160155
 30
0.0
 10
178.3531581644574
 20
-64.70526526160155
 30
0.0
 10
170.4487487219892
 20
-68.8701244272268
 30
0.0
 10
170.4487487219892
 20
-68.8701244272268
 30
0.0
 10
168.0854551114683
 20
-70.11535942691557
 30
0.0
 10
166.9387156673108
 20
-72.28800134303901
 30
0.0
 10
167.9002467781821
 20
-73.69833634268646
 30
0.0
 10
168.8619190001635
 20
-75.10854081455625
 30
0.0
 10
172.1311812215685
 20
-76.34602175869126
 30
0.0
 10
175.1651759430322
 20
-76.44818973088788
 30
0.0
 10
175.1651759430322
 20
-76.44818973088788
 30
0.0
 10
177.1334289980955
 20
-76.51455075864908
 30
0.0
 10
177.1334289980955
 20
-76.51455075864908
 30
0.0
 10
179.8658330696624
 20
-76.60655520307053
 30
0.0
 10
182.1443894004205
 20
-75.36705284226942
 30
0.0
 10
182.5717443895178
 20
-73.67277759269297
 30
0.0
 10
182.6189460549802
 20
-73.48573128718421
 30
0.0
 10
182.6499904986327
 20
-73.29469859278753
 30
0.0
 10
182.6499904986327
 20
-73.09770395394769
 30
0.0
 10
182.6499904986327
 20
-73.09770395394769
 30
0.0
 10
182.6499904986327
 20
-66.04388053904468
 30
0.0
 10
182.6499904986327
 20
-66.04388053904468
 30
0.0
 10
182.6499904986327
 20
-65.81415165021313
 30
0.0
 10
182.6214154993617
 20
-65.60502498359862
 30
0.0
 10
182.5717443895178
 20
-65.41311387253553
 30
0.0
  0
SPLINE
  5
61
330
5B
100
AcDbEntity
  8
Calque 1
 62
     1
370
    13
100
AcDbSpline
210
0.0
220
0.0
230
1.0
 70
    11
 71
     3
 72
    32
 73
    28
 74
     0
 42
0.0000000001
 43
0.0000000001
 12
1.0
 22
0.0
 32
0.0
 13
1.0
 23
0.0
 33
0.0
 40
0.0
 40
0.0
 40
0.0
 40
0.0
 40
1.0
 40
1.0
 40
1.0
 40
2.0
 40
2.0
 40
2.0
 40
3.0
 40
3.0
 40
3.0
 40
4.0
 40
4.0
 40
4.0
 40
5.0
 40
5.0
 40
5.0
 40
6.0
 40
6.0
 40
6.0
 40
7.0
 40
7.0
 40
7.0
 40
8.0
 40
8.0
 40
8.0
 40
9.0
 40
9.0
 40
9.0
 40
9.0
 10
134.1819584532775
 20
-156.6520305163925
 30
0.0
 10
134.1819584532775
 20
-156.6520305163925
 30
0.0
 10
125.6449831776345
 20
-154.5904324613524
 30
0.0
 10
125.6449831776345
 20
-154.5904324613524
 30
0.0
 10
122.7959498450138
 20
-153.9024452393024
 30
0.0
 10
118.8764476237709
 20
-154.5865166280201
 30
0.0
 10
116.9351115131449
 20
-156.1106224609723
 30
0.0
 10
116.9351115131449
 20
-156.1106224609723
 30
0.0
 10
103.1175115165995
 20
-166.9585744027051
 30
0.0
 10
103.1175115165995
 20
-166.9585744027051
 30
0.0
 10
101.1760342948627
 20
-168.4827860689904
 30
0.0
 10
101.7191356836155
 20
-170.5639985684699
 30
0.0
 10
104.3242937385206
 20
-171.5834557904376
 30
0.0
 10
104.3242937385206
 20
-171.5834557904376
 30
0.0
 10
115.3396034579884
 20
-175.8942238449152
 30
0.0
 10
115.3396034579884
 20
-175.8942238449152
 30
0.0
 10
117.9447615128929
 20
-176.9136457891047
 30
0.0
 10
121.3182695676046
 20
-177.7507874555625
 30
0.0
 10
122.8364840116698
 20
-177.7543152333395
 30
0.0
 10
124.3545220668456
 20
-177.7579488444497
 30
0.0
 10
126.6205548440567
 20
-176.283584678151
 30
0.0
 10
127.8722809548553
 20
-174.4780327341581
 30
0.0
 10
127.8722809548553
 20
-174.4780327341581
 30
0.0
 10
137.0865542858854
 20
-161.1857541263704
 30
0.0
 10
137.0865542858854
 20
-161.1857541263704
 30
0.0
 10
138.3381745633502
 20
-159.3803080157107
 30
0.0
 10
137.0309565081214
 20
-157.3400177384425
 30
0.0
 10
134.1819584532775
 20
-156.6520305163925
 30
0.0
  0
SPLINE
  5
62
330
5B
100
AcDbEntity
  8
Calque 1
 62
     1
370
    13
100
AcDbSpline
210
0.0
220
0.0
230
1.0
 70
    11
 71
     3
 72
    32
 73
    28
 74
     0
 42
0.0000000001
 43
0.0000000001
 12
1.0
 22
0.0
 32
0.0
 13
1.0
 23
0.0
 33
0.0
 40
0.0
 40
0.0
 40
0.0
 40
0.0
 40
1.0
 40
1.0
 40
1.0
 40
2.0
 40
2.0
 40
2.0
 40
3.0
 40
3.0
 40
3.0
 40
4.0
 40
4.0
 40
4.0
 40
5.0
 40
5.0
 40
5.0
 40
6.0
 40
6.0
 40
6.0
 40
7.0
 40
7.0
 40
7.0
 40
8.0
 40
8.0
 40
8.0
 40
9.0
 40
9.0
 40
9.0
 40
9.0
 10
136.3847028971721
 20
-188.4995735639862
 30
0.0
 10
136.1346540083456
 20
-187.1122043976665
 30
0.0
 10
134.0835687310808
 20
-184.8918916204434
 30
0.0
 10
131.8266023427556
 20
-183.5653413429973
 30
0.0
 10
131.8266023427556
 20
-183.5653413429973
 30
0.0
 10
130.1733445653916
 20
-182.5936149543517
 30
0.0
 10
130.1733445653916
 20
-182.5936149543517
 30
0.0
 10
127.9164487326222
 20
-181.2670646769055
 30
0.0
 10
124.8659440111625
 20
-180.1790627327331
 30
0.0
 10
123.3943667893085
 20
-180.1756407882893
 30
0.0
 10
121.9227895674538
 20
-180.1721130105123
 30
0.0
 10
119.6517826235771
 20
-181.6337066212585
 30
0.0
 10
118.3475984572362
 20
-183.4231366208108
 30
0.0
 10
118.3475984572362
 20
-183.4231366208108
 30
0.0
 10
115.4535506801823
 20
-187.3945324531512
 30
0.0
 10
115.4535506801823
 20
-187.3945324531512
 30
0.0
 10
115.3237637357705
 20
-187.5726499531066
 30
0.0
 10
115.2058301246887
 20
-187.7573291197275
 30
0.0
 10
115.0947051247164
 20
-187.9446188419028
 30
0.0
 10
115.0947051247164
 20
-187.9446188419028
 30
0.0
 10
124.1671617891146
 20
-193.1825221739264
 30
0.0
 10
124.1671617891146
 20
-193.1825221739264
 30
0.0
 10
124.1671617891146
 20
-193.1825221739264
 30
0.0
 10
131.4950970650611
 20
-191.9329127297944
 30
0.0
 10
131.4950970650611
 20
-191.9329127297944
 30
0.0
 10
134.4344767865483
 20
-191.4319330076976
 30
0.0
 10
136.634751785998
 20
-189.8868368969726
 30
0.0
 10
136.3847028971721
 20
-188.4995735639862
 30
0.0
  0
SPLINE
  5
63
330
5B
100
AcDbEntity
  8
Calque 1
 62
     1
370
    13
100
AcDbSpline
210
0.0
220
0.0
230
1.0
 70
    11
 71
     3
 72
    26
 73
    22
 74
     0
 42
0.0000000001
 43
0.0000000001
 12
1.0
 22
0.0
 32
0.0
 13
1.0
 23
0.0
 33
0.0
 40
0.0
 40
0.0
 40
0.0
 40
0.0
 40
1.0
 40
1.0
 40
1.0
 40
2.0
 40
2.0
 40
2.0
 40
3.0
 40
3.0
 40
3.0
 40
4.0
 40
4.0
 40
4.0
 40
5.0
 40
5.0
 40
5.0
 40
6.0
 40
6.0
 40
6.0
 40
7.0
 40
7.0
 40
7.0
 40
7.0
 10
112.461183736486
 20
-177.5789846778274
 30
0.0
 10
112.461183736486
 20
-177.5789846778274
 30
0.0
 10
101.149681794869
 20
-173.1520821789343
 30
0.0
 10
101.149681794869
 20
-173.1520821789343
 30
0.0
 10
98.5445942955202
 20
-172.1326955125224
 30
0.0
 10
93.94994596333558
 20
-171.5168866237873
 30
0.0
 10
90.93958735297737
 20
-171.7837630126093
 30
0.0
 10
90.93958735297737
 20
-171.7837630126093
 30
0.0
 10
89.83518124214221
 20
-171.8818352348071
 30
0.0
 10
89.83518124214221
 20
-171.8818352348071
 30
0.0
 10
89.1342117978733
 20
-171.9439594014585
 30
0.0
 10
88.5147340202506
 20
-172.0884219014223
 30
0.0
 10
87.98426207593839
 20
-172.2926096791488
 30
0.0
 10
87.98426207593839
 20
-172.2926096791488
 30
0.0
 10
112.2088770698822
 20
-186.2784846756525
 30
0.0
 10
112.2088770698822
 20
-186.2784846756525
 30
0.0
 10
112.2088770698822
 20
-186.2784846756525
 30
0.0
 10
114.8266292914497
 20
-182.6862543987729
 30
0.0
 10
114.8266292914497
 20
-182.6862543987729
 30
0.0
 10
116.1307781800131
 20
-180.8967185658868
 30
0.0
 10
115.0663417913905
 20
-178.5983007886837
 30
0.0
 10
112.461183736486
 20
-177.5789846778274
 30
0.0
  0
SPLINE
  5
64
330
5B
100
AcDbEntity
  8
Calque 1
 62
     1
370
    13
100
AcDbSpline
210
0.0
220
0.0
230
1.0
 70
    11
 71
     3
 72
    44
 73
    40
 74
     0
 42
0.0000000001
 43
0.0000000001
 12
1.0
 22
0.0
 32
0.0
 13
1.0
 23
0.0
 33
0.0
 40
0.0
 40
0.0
 40
0.0
 40
0.0
 40
1.0
 40
1.0
 40
1.0
 40
2.0
 40
2.0
 40
2.0
 40
3.0
 40
3.0
 40
3.0
 40
4.0
 40
4.0
 40
4.0
 40
5.0
 40
5.0
 40
5.0
 40
6.0
 40
6.0
 40
6.0
 40
7.0
 40
7.0
 40
7.0
 40
8.0
 40
8.0
 40
8.0
 40
9.0
 40
9.0
 40
9.0
 40
10.0
 40
10.0
 40
10.0
 40
11.0
 40
11.0
 40
11.0
 40
12.0
 40
12.0
 40
12.0
 40
13.0
 40
13.0
 40
13.0
 40
13.0
 10
99.3854401286433
 20
-166.1349794029109
 30
0.0
 10
99.3854401286433
 20
-166.1349794029109
 30
0.0
 10
114.1904298471647
 20
-154.5117630169277
 30
0.0
 10
114.1904298471647
 20
-154.5117630169277
 30
0.0
 10
116.1317659577901
 20
-152.9875513506417
 30
0.0
 10
116.6256195687778
 20
-150.2849913513175
 30
0.0
 10
115.287992069113
 20
-148.505933018429
 30
0.0
 10
115.287992069113
 20
-148.505933018429
 30
0.0
 10
111.5285098478304
 20
-143.5059782974568
 30
0.0
 10
111.5285098478304
 20
-143.5059782974568
 30
0.0
 10
110.1908470703867
 20
-141.7269552423459
 30
0.0
 10
106.6233817935011
 20
-140.4357532982245
 30
0.0
 10
103.600852349812
 20
-140.6367307981743
 30
0.0
 10
103.600852349812
 20
-140.6367307981743
 30
0.0
 10
79.79741874465178
 20
-142.2195741311121
 30
0.0
 10
79.79741874465178
 20
-142.2195741311121
 30
0.0
 10
76.77492457874088
 20
-142.4206221866169
 30
0.0
 10
72.95423541302888
 20
-143.016322742024
 30
0.0
 10
71.30697485788554
 20
-143.5434432974475
 30
0.0
 10
69.6600318027418
 20
-144.0704580195378
 30
0.0
 10
69.07325652511066
 20
-146.0450963523776
 30
0.0
 10
70.00353152487767
 20
-147.9312227407949
 30
0.0
 10
70.00353152487767
 20
-147.9312227407949
 30
0.0
 10
79.15000096703602
 20
-166.477314958381
 30
0.0
 10
79.15000096703602
 20
-166.477314958381
 30
0.0
 10
79.32370874477073
 20
-166.8295282916258
 30
0.0
 10
79.50045041139263
 20
-167.171511069318
 30
0.0
 10
79.67500485579359
 20
-167.4953610692376
 30
0.0
 10
79.67500485579359
 20
-167.4953610692376
 30
0.0
 10
83.8924984658507
 20
-169.9303038464061
 30
0.0
 10
83.8924984658507
 20
-169.9303038464061
 30
0.0
 10
84.91220263226163
 20
-169.8628880130897
 30
0.0
 10
86.15394513195159
 20
-169.7666149575582
 30
0.0
 10
87.45121485384992
 20
-169.651538846476
 30
0.0
 10
87.45121485384992
 20
-169.651538846476
 30
0.0
 10
90.38219846422786
 20
-169.3916474576523
 30
0.0
 10
90.38219846422786
 20
-169.3916474576523
 30
0.0
 10
93.39269818569743
 20
-169.124629957719
 30
0.0
 10
97.44420985135115
 20
-167.6591557914187
 30
0.0
 10
99.3854401286433
 20
-166.1349794029109
 30
0.0
  0
SPLINE
  5
65
330
5B
100
AcDbEntity
  8
Calque 1
 62
     1
370
    13
100
AcDbSpline
210
0.0
220
0.0
230
1.0
 70
    11
 71
     3
 72
    26
 73
    22
 74
     0
 42
0.0000000001
 43
0.0000000001
 12
1.0
 22
0.0
 32
0.0
 13
1.0
 23
0.0
 33
0.0
 40
0.0
 40
0.0
 40
0.0
 40
0.0
 40
1.0
 40
1.0
 40
1.0
 40
2.0
 40
2.0
 40
2.0
 40
3.0
 40
3.0
 40
3.0
 40
4.0
 40
4.0
 40
4.0
 40
5.0
 40
5.0
 40
5.0
 40
6.0
 40
6.0
 40
6.0
 40
7.0
 40
7.0
 40
7.0
 40
7.0
 10
177.1334289980955
 20
-78.93769664693228
 30
0.0
 10
177.1334289980955
 20
-78.93769664693228
 30
0.0
 10
176.3828237205057
 20
-78.91243775804963
 30
0.0
 10
176.3828237205057
 20
-78.91243775804963
 30
0.0
 10
173.3487937212644
 20
-78.81023803585288
 30
0.0
 10
171.2198503884629
 20
-79.58811303565838
 30
0.0
 10
171.651862055022
 20
-80.64111942428414
 30
0.0
 10
172.0837678882467
 20
-81.69398470179856
 30
0.0
 10
174.7352456653614
 20
-82.8042116459655
 30
0.0
 10
177.5436037202154
 20
-83.10820025700075
 30
0.0
 10
180.0596844536058
 20
-83.38054470137708
 30
0.0
 10
182.1604760666768
 20
-82.78773692374743
 30
0.0
 10
182.5717443895178
 20
-81.76436386844784
 30
0.0
 10
182.6195467745017
 20
-81.64547775736631
 30
0.0
 10
182.6499904986327
 20
-81.52211136850835
 30
0.0
 10
182.6499904986327
 20
-81.39221859076308
 30
0.0
 10
182.6499904986327
 20
-81.26814664634959
 30
0.0
 10
182.6189460549802
 20
-81.14619136860236
 30
0.0
 10
182.5717443895178
 20
-81.02578831307689
 30
0.0
 10
182.1443894004205
 20
-79.9353874800161
 30
0.0
 10
179.8658330696624
 20
-79.0297716469091
 30
0.0
 10
177.1334289980955
 20
-78.93769664693228
 30
0.0
  0
SPLINE
  5
66
330
5B
100
AcDbEntity
  8
Calque 1
 62
     1
370
    13
100
AcDbSpline
210
0.0
220
0.0
230
1.0
 70
    11
 71
     3
 72
    29
 73
    25
 74
     0
 42
0.0000000001
 43
0.0000000001
 12
1.0
 22
0.0
 32
0.0
 13
1.0
 23
0.0
 33
0.0
 40
0.0
 40
0.0
 40
0.0
 40
0.0
 40
1.0
 40
1.0
 40
1.0
 40
2.0
 40
2.0
 40
2.0
 40
3.0
 40
3.0
 40
3.0
 40
4.0
 40
4.0
 40
4.0
 40
5.0
 40
5.0
 40
5.0
 40
6.0
 40
6.0
 40
6.0
 40
7.0
 40
7.0
 40
7.0
 40
8.0
 40
8.0
 40
8.0
 40
8.0
 10
177.3630167758163
 20
-85.54081470083698
 30
0.0
 10
174.4552106654317
 20
-85.22617220091577
 30
0.0
 10
171.3105848328846
 20
-86.10254275625219
 30
0.0
 10
170.3749828886743
 20
-87.48846553368355
 30
0.0
 10
169.439380944464
 20
-88.87442358889243
 30
0.0
 10
170.5116489997511
 20
-91.09995747722505
 30
0.0
 10
172.7577145547451
 20
-92.43412775466926
 30
0.0
 10
172.7577145547451
 20
-92.43412775466926
 30
0.0
 10
178.5659528250474
 20
-95.88401219825121
 30
0.0
 10
178.5659528250474
 20
-95.88401219825121
 30
0.0
 10
180.5429547190543
 20
-97.05833886462437
 30
0.0
 10
182.2021038433925
 20
-96.78751136469197
 30
0.0
 10
182.5717443895178
 20
-95.35512775393892
 30
0.0
 10
182.6220857771224
 20
-95.16004164287662
 30
0.0
 10
182.6499904986327
 20
-94.9447766429304
 30
0.0
 10
182.6499904986327
 20
-94.70728664298971
 30
0.0
 10
182.6499904986327
 20
-94.70728664298971
 30
0.0
 10
182.6499904986327
 20
-89.71558692201545
 30
0.0
 10
182.6499904986327
 20
-89.71558692201545
 30
0.0
 10
182.6499904986327
 20
-89.51358636651057
 30
0.0
 10
182.6192635549721
 20
-89.31331442211601
 30
0.0
 10
182.5717443895178
 20
-89.11498275549913
 30
0.0
 10
182.1533852335243
 20
-87.36806247815808
 30
0.0
 10
179.9744189973853
 20
-85.82346025632182
 30
0.0
 10
177.3630167758163
 20
-85.54081470083698
 30
0.0
  0
SPLINE
  5
67
330
5B
100
AcDbEntity
  8
Calque 1
 62
     1
370
    13
100
AcDbSpline
210
0.0
220
0.0
230
1.0
 70
    11
 71
     3
 72
    35
 73
    31
 74
     0
 42
0.0000000001
 43
0.0000000001
 12
1.0
 22
0.0
 32
0.0
 13
1.0
 23
0.0
 33
0.0
 40
0.0
 40
0.0
 40
0.0
 40
0.0
 40
1.0
 40
1.0
 40
1.0
 40
2.0
 40
2.0
 40
2.0
 40
3.0
 40
3.0
 40
3.0
 40
4.0
 40
4.0
 40
4.0
 40
5.0
 40
5.0
 40
5.0
 40
6.0
 40
6.0
 40
6.0
 40
7.0
 40
7.0
 40
7.0
 40
8.0
 40
8.0
 40
8.0
 40
9.0
 40
9.0
 40
9.0
 40
10.0
 40
10.0
 40
10.0
 40
10.0
 10
177.2262448314057
 20
-210.4593552251629
 30
0.0
 10
177.2262448314057
 20
-210.4593552251629
 30
0.0
 10
170.2938087220277
 20
-211.3326566138336
 30
0.0
 10
170.2938087220277
 20
-211.3326566138336
 30
0.0
 10
167.3107903894402
 20
-211.7084707804064
 30
0.0
 10
163.8878228902959
 20
-213.5052032799572
 30
0.0
 10
162.6872495572625
 20
-215.3252896683909
 30
0.0
 10
162.6872495572625
 20
-215.3252896683909
 30
0.0
 10
162.6412120572742
 20
-215.3951396683735
 30
0.0
 10
162.6412120572742
 20
-215.3951396683735
 30
0.0
 10
162.6412120572742
 20
-215.3951396683735
 30
0.0
 10
179.5094216898664
 20
-225.1338524437164
 30
0.0
 10
179.5094216898664
 20
-225.1338524437164
 30
0.0
 10
179.5094216898664
 20
-225.1338524437164
 30
0.0
 10
182.5717443895178
 20
-226.9018335543855
 30
0.0
 10
182.5717443895178
 20
-226.9018335543855
 30
0.0
 10
182.5717443895178
 20
-226.9018335543855
 30
0.0
 10
182.5717443895178
 20
-222.1918621666741
 30
0.0
 10
182.5717443895178
 20
-222.1918621666741
 30
0.0
 10
182.6189813327571
 20
-221.9982577222785
 30
0.0
 10
182.6499904986327
 20
-221.8026071667714
 30
0.0
 10
182.6499904986327
 20
-221.6046988334877
 30
0.0
 10
182.6499904986327
 20
-221.6046988334877
 30
0.0
 10
182.6499904986327
 20
-213.3787677244329
 30
0.0
 10
182.6499904986327
 20
-213.3787677244329
 30
0.0
 10
182.6499904986327
 20
-213.1798010578159
 30
0.0
 10
182.6190518883109
 20
-212.9897243911973
 30
0.0
 10
182.5717443895178
 20
-212.8052568912435
 30
0.0
 10
182.1480582892158
 20
-211.1526341138787
 30
0.0
 10
179.9097891796521
 20
-210.1212882808029
 30
0.0
 10
177.2262448314057
 20
-210.4593552251629
 30
0.0
  0
SPLINE
  5
68
330
5B
100
AcDbEntity
  8
Calque 1
 62
     1
370
    13
100
AcDbSpline
210
0.0
220
0.0
230
1.0
 70
    11
 71
     3
 72
    20
 73
    16
 74
     0
 42
0.0000000001
 43
0.0000000001
 12
1.0
 22
0.0
 32
0.0
 13
1.0
 23
0.0
 33
0.0
 40
0.0
 40
0.0
 40
0.0
 40
0.0
 40
1.0
 40
1.0
 40
1.0
 40
2.0
 40
2.0
 40
2.0
 40
3.0
 40
3.0
 40
3.0
 40
4.0
 40
4.0
 40
4.0
 40
5.0
 40
5.0
 40
5.0
 40
5.0
 10
158.1753628917238
 20
-208.2242963368327
 30
0.0
 10
158.1753628917238
 20
-208.2242963368327
 30
0.0
 10
154.3500170593471
 20
-204.8796455043359
 30
0.0
 10
154.3500170593471
 20
-204.8796455043359
 30
0.0
 10
152.5333526153566
 20
-203.2914752269548
 30
0.0
 10
149.4358226161311
 20
-201.5566905051664
 30
0.0
 10
147.466546505512
 20
-201.0247016164106
 30
0.0
 10
145.5641711726542
 20
-200.5107043943168
 30
0.0
 10
142.2666126457014
 20
-201.0949396719485
 30
0.0
 10
139.998748951824
 20
-202.3227121716413
 30
0.0
 10
139.998748951824
 20
-202.3227121716413
 30
0.0
 10
159.6720226135719
 20
-213.6808866132465
 30
0.0
 10
159.6720226135719
 20
-213.6808866132465
 30
0.0
 10
160.3451226134034
 20
-211.9081782803565
 30
0.0
 10
159.7600053913279
 20
-209.6096899475977
 30
0.0
 10
158.1753628917238
 20
-208.2242963368327
 30
0.0
  0
SPLINE
  5
69
330
5B
100
AcDbEntity
  8
Calque 1
 62
     1
370
    13
100
AcDbSpline
210
0.0
220
0.0
230
1.0
 70
    11
 71
     3
 72
    41
 73
    37
 74
     0
 42
0.0000000001
 43
0.0000000001
 12
1.0
 22
0.0
 32
0.0
 13
1.0
 23
0.0
 33
0.0
 40
0.0
 40
0.0
 40
0.0
 40
0.0
 40
1.0
 40
1.0
 40
1.0
 40
2.0
 40
2.0
 40
2.0
 40
3.0
 40
3.0
 40
3.0
 40
4.0
 40
4.0
 40
4.0
 40
5.0
 40
5.0
 40
5.0
 40
6.0
 40
6.0
 40
6.0
 40
7.0
 40
7.0
 40
7.0
 40
8.0
 40
8.0
 40
8.0
 40
9.0
 40
9.0
 40
9.0
 40
10.0
 40
10.0
 40
10.0
 40
11.0
 40
11.0
 40
11.0
 40
12.0
 40
12.0
 40
12.0
 40
12.0
 10
177.6364901090813
 20
-125.3159799686709
 30
0.0
 10
177.6364901090813
 20
-125.3159799686709
 30
0.0
 10
164.696283723427
 20
-121.4120352474248
 30
0.0
 10
164.696283723427
 20
-121.4120352474248
 30
0.0
 10
161.9389373352275
 20
-120.5801499698549
 30
0.0
 10
157.5977951140906
 20
-120.7820799698044
 30
0.0
 10
155.049328448061
 20
-121.8608038584238
 30
0.0
 10
155.049328448061
 20
-121.8608038584238
 30
0.0
 10
139.0989398409374
 20
-128.6124413567359
 30
0.0
 10
139.0989398409374
 20
-128.6124413567359
 30
0.0
 10
136.5504731749085
 20
-129.6911652453549
 30
0.0
 10
136.3046223416363
 20
-131.6643219115284
 30
0.0
 10
138.5524165077409
 20
-132.9972574667508
 30
0.0
 10
138.5524165077409
 20
-132.9972574667508
 30
0.0
 10
167.3352026116563
 20
-150.0640819069287
 30
0.0
 10
167.3352026116563
 20
-150.0640819069287
 30
0.0
 10
169.5832437222055
 20
-151.3968763510394
 30
0.0
 10
173.6868253878463
 20
-152.5713794063017
 30
0.0
 10
176.4542612204876
 20
-152.6738260729427
 30
0.0
 10
179.2218019749819
 20
-152.7762727395838
 30
0.0
 10
181.7478671883144
 20
-152.8300713506815
 30
0.0
 10
182.0679777357033
 20
-152.7933119062463
 30
0.0
 10
182.282784119112
 20
-152.7686527395856
 30
0.0
 10
182.4709205032011
 20
-152.0152957953294
 30
0.0
 10
182.5717443895178
 20
-150.9247538511576
 30
0.0
 10
182.6212038327004
 20
-150.3900838512911
 30
0.0
 10
182.6499904986327
 20
-149.7757213514452
 30
0.0
 10
182.6499904986327
 20
-149.1238938516081
 30
0.0
 10
182.6499904986327
 20
-149.1238938516081
 30
0.0
 10
182.6499904986327
 20
-130.4310813562813
 30
0.0
 10
182.6499904986327
 20
-130.4310813562813
 30
0.0
 10
182.6499904986327
 20
-130.2225191341109
 30
0.0
 10
182.6196868882947
 20
-130.0100058008308
 30
0.0
 10
182.5717443895178
 20
-129.7964341342177
 30
0.0
 10
182.1641449554721
 20
-127.9810396902269
 30
0.0
 10
180.1036052858186
 20
-126.0603410795961
 30
0.0
 10
177.6364901090813
 20
-125.3159799686709
 30
0.0
  0
SPLINE
  5
6A
330
5B
100
AcDbEntity
  8
Calque 1
 62
     1
370
    13
100
AcDbSpline
210
0.0
220
0.0
230
1.0
 70
    11
 71
     3
 72
    35
 73
    31
 74
     0
 42
0.0000000001
 43
0.0000000001
 12
1.0
 22
0.0
 32
0.0
 13
1.0
 23
0.0
 33
0.0
 40
0.0
 40
0.0
 40
0.0
 40
0.0
 40
1.0
 40
1.0
 40
1.0
 40
2.0
 40
2.0
 40
2.0
 40
3.0
 40
3.0
 40
3.0
 40
4.0
 40
4.0
 40
4.0
 40
5.0
 40
5.0
 40
5.0
 40
6.0
 40
6.0
 40
6.0
 40
7.0
 40
7.0
 40
7.0
 40
8.0
 40
8.0
 40
8.0
 40
9.0
 40
9.0
 40
9.0
 40
10.0
 40
10.0
 40
10.0
 40
10.0
 10
182.5717443895178
 20
-155.2246210723047
 30
0.0
 10
182.3022574519485
 20
-155.440979683362
 30
0.0
 10
180.8882535991339
 20
-156.6199630164008
 30
0.0
 10
179.2037750309974
 20
-158.0334024604915
 30
0.0
 10
179.2037750309974
 20
-158.0334024604915
 30
0.0
 10
154.9269851147585
 20
-178.403003010955
 30
0.0
 10
154.9269851147585
 20
-178.403003010955
 30
0.0
 10
153.062519281891
 20
-179.9673960661192
 30
0.0
 10
153.4285967817997
 20
-182.0147418989407
 30
0.0
 10
155.7405259478884
 20
-182.9525310653733
 30
0.0
 10
158.0524198361989
 20
-183.8903555095827
 30
0.0
 10
161.6126178908649
 20
-183.4561213430251
 30
0.0
 10
163.6519203903548
 20
-181.9872957878368
 30
0.0
 10
163.6519203903548
 20
-181.9872957878368
 30
0.0
 10
178.9419433710106
 20
-170.9761488461451
 30
0.0
 10
178.9419433710106
 20
-170.9761488461451
 30
0.0
 10
180.7228713811309
 20
-169.6936252353545
 30
0.0
 10
182.2206246762534
 20
-167.3785916248223
 30
0.0
 10
182.5717443895178
 20
-165.4928885697379
 30
0.0
 10
182.6227217745015
 20
-165.2192741253621
 30
0.0
 10
182.6499904986327
 20
-164.9544791254279
 30
0.0
 10
182.6499904986327
 20
-164.7033719032688
 30
0.0
 10
182.6499904986327
 20
-164.7033719032688
 30
0.0
 10
182.6499904986327
 20
-158.7851013491927
 30
0.0
 10
182.6499904986327
 20
-158.7851013491927
 30
0.0
 10
182.6499904986327
 20
-156.803689683021
 30
0.0
 10
182.6373257767335
 20
-155.1840516278704
 30
0.0
 10
182.6218035549073
 20
-155.1857802389811
 30
0.0
 10
182.6203218882785
 20
-155.18595662787
 30
0.0
 10
182.60053105545
 20
-155.2014788500883
 30
0.0
 10
182.5717443895178
 20
-155.2246210723047
 30
0.0
  0
SPLINE
  5
6B
330
5B
100
AcDbEntity
  8
Calque 1
 62
     1
370
    13
100
AcDbSpline
210
0.0
220
0.0
230
1.0
 70
    11
 71
     3
 72
    32
 73
    28
 74
     0
 42
0.0000000001
 43
0.0000000001
 12
1.0
 22
0.0
 32
0.0
 13
1.0
 23
0.0
 33
0.0
 40
0.0
 40
0.0
 40
0.0
 40
0.0
 40
1.0
 40
1.0
 40
1.0
 40
2.0
 40
2.0
 40
2.0
 40
3.0
 40
3.0
 40
3.0
 40
4.0
 40
4.0
 40
4.0
 40
5.0
 40
5.0
 40
5.0
 40
6.0
 40
6.0
 40
6.0
 40
7.0
 40
7.0
 40
7.0
 40
8.0
 40
8.0
 40
8.0
 40
9.0
 40
9.0
 40
9.0
 40
9.0
 10
178.9419433710106
 20
-174.5516574563623
 30
0.0
 10
178.9419433710106
 20
-174.5516574563623
 30
0.0
 10
166.1757984452794
 20
-183.745187454064
 30
0.0
 10
166.1757984452794
 20
-183.745187454064
 30
0.0
 10
164.1364606680113
 20
-185.2138013425853
 30
0.0
 10
163.1411687238158
 20
-187.3110299531722
 30
0.0
 10
163.9641640013883
 20
-188.4055230084545
 30
0.0
 10
164.7870887234045
 20
-189.500192452625
 30
0.0
 10
167.8544915004153
 20
-189.9593327302878
 30
0.0
 10
170.7805362219065
 20
-189.4259680081991
 30
0.0
 10
170.7805362219065
 20
-189.4259680081991
 30
0.0
 10
177.3299262202688
 20
-188.2323796751639
 30
0.0
 10
177.3299262202688
 20
-188.2323796751639
 30
0.0
 10
179.9586841784047
 20
-187.7531310641725
 30
0.0
 10
182.1520799557799
 20
-186.0434993979333
 30
0.0
 10
182.5717443895178
 20
-184.2642999539341
 30
0.0
 10
182.6191939967239
 20
-184.063181342873
 30
0.0
 10
182.6499904986327
 20
-183.8613218984788
 30
0.0
 10
182.6499904986327
 20
-183.6600974540852
 30
0.0
 10
182.6499904986327
 20
-183.6600974540852
 30
0.0
 10
182.6499904986327
 20
-175.4840138450177
 30
0.0
 10
182.6499904986327
 20
-175.4840138450177
 30
0.0
 10
182.6499904986327
 20
-175.2329066228586
 30
0.0
 10
182.6227217745015
 20
-175.0074110673595
 30
0.0
 10
182.5717443895178
 20
-174.8071391229647
 30
0.0
 10
182.2206246762534
 20
-173.4270724566429
 30
0.0
 10
180.7228713811309
 20
-173.2691338455717
 30
0.0
 10
178.9419433710106
 20
-174.5516574563623
 30
0.0
  0
SPLINE
  5
6C
330
5B
100
AcDbEntity
  8
Calque 1
 62
     1
370
    13
100
AcDbSpline
210
0.0
220
0.0
230
1.0
 70
    11
 71
     3
 72
    38
 73
    34
 74
     0
 42
0.0000000001
 43
0.0000000001
 12
1.0
 22
0.0
 32
0.0
 13
1.0
 23
0.0
 33
0.0
 40
0.0
 40
0.0
 40
0.0
 40
0.0
 40
1.0
 40
1.0
 40
1.0
 40
2.0
 40
2.0
 40
2.0
 40
3.0
 40
3.0
 40
3.0
 40
4.0
 40
4.0
 40
4.0
 40
5.0
 40
5.0
 40
5.0
 40
6.0
 40
6.0
 40
6.0
 40
7.0
 40
7.0
 40
7.0
 40
8.0
 40
8.0
 40
8.0
 40
9.0
 40
9.0
 40
9.0
 40
10.0
 40
10.0
 40
10.0
 40
11.0
 40
11.0
 40
11.0
 40
11.0
 10
177.1330762203184
 20
-103.0440958075723
 30
0.0
 10
177.1330762203184
 20
-103.0440958075723
 30
0.0
 10
156.3428940032929
 20
-102.3603419188545
 30
0.0
 10
156.3428940032929
 20
-102.3603419188545
 30
0.0
 10
153.308546504052
 20
-102.2605410855461
 30
0.0
 10
150.0001259493238
 20
-103.0662149742336
 30
0.0
 10
148.9904759495759
 20
-104.1507244184069
 30
0.0
 10
147.9808965053836
 20
-105.2352691403577
 30
0.0
 10
148.6754101163209
 20
-107.4051346953709
 30
0.0
 10
150.5336670603014
 20
-108.972632194979
 30
0.0
 10
150.5336670603014
 20
-108.972632194979
 30
0.0
 10
157.3197709474936
 20
-114.6965574713259
 30
0.0
 10
157.3197709474936
 20
-114.6965574713259
 30
0.0
 10
159.1780984470291
 20
-116.264054970934
 30
0.0
 10
162.9546551127517
 20
-118.2272633037767
 30
0.0
 10
165.7120015009513
 20
-119.0591485813463
 30
0.0
 10
165.7120015009513
 20
-119.0591485813463
 30
0.0
 10
177.6363842757481
 20
-122.6566705248913
 30
0.0
 10
177.6363842757481
 20
-122.6566705248913
 30
0.0
 10
180.1035700080417
 20
-123.400925802483
 30
0.0
 10
182.1641449554721
 20
-122.7235219137636
 30
0.0
 10
182.5717443895178
 20
-121.1540135808227
 30
0.0
 10
182.6196868882947
 20
-120.96936969198
 30
0.0
 10
182.6499904986327
 20
-120.7751655253618
 30
0.0
 10
182.6499904986327
 20
-120.5665680254139
 30
0.0
 10
182.6499904986327
 20
-120.5665680254139
 30
0.0
 10
182.6499904986327
 20
-106.8280608066263
 30
0.0
 10
182.6499904986327
 20
-106.8280608066263
 30
0.0
 10
182.6499904986327
 20
-106.6310696955645
 30
0.0
 10
182.6189460549802
 20
-106.4379944178349
 30
0.0
 10
182.5717443895178
 20
-106.2478119178825
 30
0.0
 10
182.1443551079539
 20
-104.5250921960908
 30
0.0
 10
179.8656919585549
 20
-103.13394830755
 30
0.0
 10
177.1330762203184
 20
-103.0440958075723
 30
0.0
  0
SPLINE
  5
6D
330
5B
100
AcDbEntity
  8
Calque 1
 62
     1
370
    13
100
AcDbSpline
210
0.0
220
0.0
230
1.0
 70
    11
 71
     3
 72
    41
 73
    37
 74
     0
 42
0.0000000001
 43
0.0000000001
 12
1.0
 22
0.0
 32
0.0
 13
1.0
 23
0.0
 33
0.0
 40
0.0
 40
0.0
 40
0.0
 40
0.0
 40
1.0
 40
1.0
 40
1.0
 40
2.0
 40
2.0
 40
2.0
 40
3.0
 40
3.0
 40
3.0
 40
4.0
 40
4.0
 40
4.0
 40
5.0
 40
5.0
 40
5.0
 40
6.0
 40
6.0
 40
6.0
 40
7.0
 40
7.0
 40
7.0
 40
8.0
 40
8.0
 40
8.0
 40
9.0
 40
9.0
 40
9.0
 40
10.0
 40
10.0
 40
10.0
 40
11.0
 40
11.0
 40
11.0
 40
12.0
 40
12.0
 40
12.0
 40
12.0
 10
177.3299262202688
 20
-190.7426757856479
 30
0.0
 10
177.3299262202688
 20
-190.7426757856479
 30
0.0
 10
170.8223051107847
 20
-191.9285735631287
 30
0.0
 10
170.8223051107847
 20
-191.9285735631287
 30
0.0
 10
167.8962603892935
 20
-192.4619735629956
 30
0.0
 10
163.8661270569681
 20
-194.1187591181372
 30
0.0
 10
161.8663709463566
 20
-195.6103035622084
 30
0.0
 10
161.8663709463566
 20
-195.6103035622084
 30
0.0
 10
158.1992812250514
 20
-198.3458130059688
 30
0.0
 10
158.1992812250514
 20
-198.3458130059688
 30
0.0
 10
156.199560392218
 20
-199.8375338389296
 30
0.0
 10
156.0497356700334
 20
-202.3574607827438
 30
0.0
 10
157.8662942806901
 20
-203.9456663379025
 30
0.0
 10
157.8662942806901
 20
-203.9456663379025
 30
0.0
 10
161.0507487243389
 20
-206.7297885594286
 30
0.0
 10
161.0507487243389
 20
-206.7297885594286
 30
0.0
 10
162.8673426127731
 20
-208.3180646701429
 30
0.0
 10
166.7941120562363
 20
-209.310075781006
 30
0.0
 10
169.777236222157
 20
-208.9344027255439
 30
0.0
 10
169.777236222157
 20
-208.9344027255439
 30
0.0
 10
177.2262448314057
 20
-207.9959080035565
 30
0.0
 10
177.2262448314057
 20
-207.9959080035565
 30
0.0
 10
179.9097891796521
 20
-207.6579821703078
 30
0.0
 10
182.1480582892158
 20
-206.0627210595952
 30
0.0
 10
182.5717443895178
 20
-204.3034535600351
 30
0.0
 10
182.6190518883109
 20
-204.1070974489731
 30
0.0
 10
182.6499904986327
 20
-203.9091891156893
 30
0.0
 10
182.6499904986327
 20
-203.7102224490723
 30
0.0
 10
182.6499904986327
 20
-203.7102224490723
 30
0.0
 10
182.6499904986327
 20
-193.3756680072116
 30
0.0
 10
182.6499904986327
 20
-193.3756680072116
 30
0.0
 10
182.6499904986327
 20
-193.1744082850398
 30
0.0
 10
182.6191939967239
 20
-192.9838024517539
 30
0.0
 10
182.5717443895178
 20
-192.7999699517999
 30
0.0
 10
182.1520799557799
 20
-191.1736643966507
 30
0.0
 10
179.9586841784047
 20
-190.2634624524341
 30
0.0
 10
177.3299262202688
 20
-190.7426757856479
 30
0.0
  0
SPLINE
  5
6E
330
5B
100
AcDbEntity
  8
Calque 1
 62
     1
370
    13
100
AcDbSpline
210
0.0
220
0.0
230
1.0
 70
    11
 71
     3
 72
    32
 73
    28
 74
     0
 42
0.0000000001
 43
0.0000000001
 12
1.0
 22
0.0
 32
0.0
 13
1.0
 23
0.0
 33
0.0
 40
0.0
 40
0.0
 40
0.0
 40
0.0
 40
1.0
 40
1.0
 40
1.0
 40
2.0
 40
2.0
 40
2.0
 40
3.0
 40
3.0
 40
3.0
 40
4.0
 40
4.0
 40
4.0
 40
5.0
 40
5.0
 40
5.0
 40
6.0
 40
6.0
 40
6.0
 40
7.0
 40
7.0
 40
7.0
 40
8.0
 40
8.0
 40
8.0
 40
9.0
 40
9.0
 40
9.0
 40
9.0
 10
144.1887400063316
 20
-184.5117382872056
 30
0.0
 10
141.6798691180701
 20
-185.3678593981024
 30
0.0
 10
139.8513195907497
 20
-187.3120177309498
 30
0.0
 10
140.1253362017921
 20
-188.8321724527922
 30
0.0
 10
140.3993069517233
 20
-190.352362452412
 30
0.0
 10
141.5830422014281
 20
-192.9726546739788
 30
0.0
 10
142.7557743122457
 20
-194.6550518957805
 30
0.0
 10
143.9284393952859
 20
-196.3374491175822
 30
0.0
 10
146.4192657002189
 20
-198.1279021726903
 30
0.0
 10
148.2908470608617
 20
-198.6336443947862
 30
0.0
 10
150.1625448381721
 20
-199.1394218946596
 30
0.0
 10
153.3299248373802
 20
-198.3327249504167
 30
0.0
 10
155.3296456702136
 20
-196.8410041174565
 30
0.0
 10
155.3296456702136
 20
-196.8410041174565
 30
0.0
 10
158.6733087249333
 20
-194.3468652291913
 30
0.0
 10
158.6733087249333
 20
-194.3468652291913
 30
0.0
 10
160.6729237244334
 20
-192.8550738406754
 30
0.0
 10
161.5351478908841
 20
-190.6052335634599
 30
0.0
 10
160.5893859466757
 20
-189.3471221748854
 30
0.0
 10
159.6435181691347
 20
-188.0891518974223
 30
0.0
 10
156.7587837254114
 20
-186.2035546756711
 30
0.0
 10
154.1788845593899
 20
-185.1570746759329
 30
0.0
 10
154.1788845593899
 20
-185.1570746759329
 30
0.0
 10
153.440979281797
 20
-184.8576721760076
 30
0.0
 10
153.440979281797
 20
-184.8576721760076
 30
0.0
 10
150.8612565046637
 20
-183.8113332873808
 30
0.0
 10
146.6977026168157
 20
-183.6556171763081
 30
0.0
 10
144.1887400063316
 20
-184.5117382872056
 30
0.0
  0
SPLINE
  5
6F
330
5B
100
AcDbEntity
  8
Calque 1
 62
     1
370
    13
100
AcDbSpline
210
0.0
220
0.0
230
1.0
 70
    11
 71
     3
 72
    23
 73
    19
 74
     0
 42
0.0000000001
 43
0.0000000001
 12
1.0
 22
0.0
 32
0.0
 13
1.0
 23
0.0
 33
0.0
 40
0.0
 40
0.0
 40
0.0
 40
0.0
 40
1.0
 40
1.0
 40
1.0
 40
2.0
 40
2.0
 40
2.0
 40
3.0
 40
3.0
 40
3.0
 40
4.0
 40
4.0
 40
4.0
 40
5.0
 40
5.0
 40
5.0
 40
6.0
 40
6.0
 40
6.0
 40
6.0
 10
61.79679152693021
 20
-144.066965519539
 30
0.0
 10
60.24890847176122
 20
-143.6679738529723
 30
0.0
 10
56.50491319491941
 20
-143.4729935752432
 30
0.0
 10
53.47652764012105
 20
-143.6335074640913
 30
0.0
 10
53.47652764012105
 20
-143.6335074640913
 30
0.0
 10
42.85089625388868
 20
-144.1969994083953
 30
0.0
 10
42.85089625388868
 20
-144.1969994083953
 30
0.0
 10
41.94072958744893
 20
-144.2452241306051
 30
0.0
 10
40.86045347660843
 20
-144.3253046861409
 30
0.0
 10
39.71635986578281
 20
-144.4256346861154
 30
0.0
 10
39.71635986578281
 20
-144.4256346861154
 30
0.0
 10
74.26776819047855
 20
-164.3735599589067
 30
0.0
 10
74.26776819047855
 20
-164.3735599589067
 30
0.0
 10
74.26776819047855
 20
-164.3735599589067
 30
0.0
 10
66.30236347024737
 20
-148.2218410740556
 30
0.0
 10
66.30236347024737
 20
-148.2218410740556
 30
0.0
 10
65.37219430381357
 20
-146.335573574527
 30
0.0
 10
63.34474513765358
 20
-144.4658866305506
 30
0.0
 10
61.79679152693021
 20
-144.066965519539
 30
0.0
  0
SPLINE
  5
70
330
5B
100
AcDbEntity
  8
Calque 1
 62
     1
370
    13
100
AcDbSpline
210
0.0
220
0.0
230
1.0
 70
    11
 71
     3
 72
    26
 73
    22
 74
     0
 42
0.0000000001
 43
0.0000000001
 12
1.0
 22
0.0
 32
0.0
 13
1.0
 23
0.0
 33
0.0
 40
0.0
 40
0.0
 40
0.0
 40
0.0
 40
1.0
 40
1.0
 40
1.0
 40
2.0
 40
2.0
 40
2.0
 40
3.0
 40
3.0
 40
3.0
 40
4.0
 40
4.0
 40
4.0
 40
5.0
 40
5.0
 40
5.0
 40
6.0
 40
6.0
 40
6.0
 40
7.0
 40
7.0
 40
7.0
 40
7.0
 10
63.53958430427196
 20
-141.9192896867424
 30
0.0
 10
64.89340430393378
 20
-142.2681516310997
 30
0.0
 10
67.42934735885541
 20
-142.0965252422541
 30
0.0
 10
69.17517402508503
 20
-141.5379016312824
 30
0.0
 10
70.92110652464912
 20
-140.9792074647557
 30
0.0
 10
73.22389874629481
 20
-139.0045691319152
 30
0.0
 10
74.29274485713879
 20
-137.1498046879348
 30
0.0
 10
74.29274485713879
 20
-137.1498046879348
 30
0.0
 10
86.38857763189299
 20
-116.1600913598487
 30
0.0
 10
86.38857763189299
 20
-116.1600913598487
 30
0.0
 10
86.54644568740916
 20
-115.8861241376952
 30
0.0
 10
86.64039040960765
 20
-115.6127919155413
 30
0.0
 10
86.68755679848486
 20
-115.3435871933863
 30
0.0
 10
86.68755679848486
 20
-115.3435871933863
 30
0.0
 10
61.03154597156586
 20
-130.1558794119053
 30
0.0
 10
61.03154597156586
 20
-130.1558794119053
 30
0.0
 10
61.03154597156586
 20
-130.1558794119053
 30
0.0
 10
61.06315486044662
 20
-137.6823580211351
 30
0.0
 10
61.06315486044662
 20
-137.6823580211351
 30
0.0
 10
61.07133930488889
 20
-139.663804965084
 30
0.0
 10
62.18572902683263
 20
-141.5703924646076
 30
0.0
 10
63.53958430427196
 20
-141.9192896867424
 30
0.0
  0
SPLINE
  5
71
330
5B
100
AcDbEntity
  8
Calque 1
 62
     1
370
    13
100
AcDbSpline
210
0.0
220
0.0
230
1.0
 70
    11
 71
     3
 72
    41
 73
    37
 74
     0
 42
0.0000000001
 43
0.0000000001
 12
1.0
 22
0.0
 32
0.0
 13
1.0
 23
0.0
 33
0.0
 40
0.0
 40
0.0
 40
0.0
 40
0.0
 40
1.0
 40
1.0
 40
1.0
 40
2.0
 40
2.0
 40
2.0
 40
3.0
 40
3.0
 40
3.0
 40
4.0
 40
4.0
 40
4.0
 40
5.0
 40
5.0
 40
5.0
 40
6.0
 40
6.0
 40
6.0
 40
7.0
 40
7.0
 40
7.0
 40
8.0
 40
8.0
 40
8.0
 40
9.0
 40
9.0
 40
9.0
 40
10.0
 40
10.0
 40
10.0
 40
11.0
 40
11.0
 40
11.0
 40
12.0
 40
12.0
 40
12.0
 40
12.0
 10
162.6054051128385
 20
-150.5080174623728
 30
0.0
 10
162.6054051128385
 20
-150.5080174623728
 30
0.0
 10
134.8116315086765
 20
-134.0276507998265
 30
0.0
 10
134.8116315086765
 20
-134.0276507998265
 30
0.0
 10
132.5636256759048
 20
-132.6947505223819
 30
0.0
 10
128.240686788097
 20
-131.5387683004485
 30
0.0
 10
125.2049987333002
 20
-131.4587583004687
 30
0.0
 10
125.2049987333002
 20
-131.4587583004687
 30
0.0
 10
123.9807187336062
 20
-131.4265496893656
 30
0.0
 10
123.9807187336062
 20
-131.4265496893656
 30
0.0
 10
120.945101234365
 20
-131.3465749671633
 30
0.0
 10
117.3031998463864
 20
-132.7155291334878
 30
0.0
 10
115.8875731800742
 20
-134.4687288552716
 30
0.0
 10
115.8875731800742
 20
-134.4687288552716
 30
0.0
 10
114.7996065136792
 20
-135.8161282993793
 30
0.0
 10
114.7996065136792
 20
-135.8161282993793
 30
0.0
 10
113.3840151251438
 20
-137.5692927433853
 30
0.0
 10
113.3203034584932
 20
-140.4592835759962
 30
0.0
 10
114.6579662359369
 20
-142.2382360755515
 30
0.0
 10
114.6579662359369
 20
-142.2382360755515
 30
0.0
 10
118.770014568242
 20
-147.7070677408506
 30
0.0
 10
118.770014568242
 20
-147.7070677408506
 30
0.0
 10
120.1075715123518
 20
-149.486055518184
 30
0.0
 10
123.5331848448287
 20
-151.5045441287905
 30
0.0
 10
126.3823592885615
 20
-152.1926019063961
 30
0.0
 10
126.3823592885615
 20
-152.1926019063961
 30
0.0
 10
136.8263453970615
 20
-154.7147866279876
 30
0.0
 10
136.8263453970615
 20
-154.7147866279876
 30
0.0
 10
139.6755127852376
 20
-155.4027738500383
 30
0.0
 10
144.4494251451557
 20
-155.6654521833059
 30
0.0
 10
147.4349728944094
 20
-155.2984221833977
 30
0.0
 10
147.4349728944094
 20
-155.2984221833977
 30
0.0
 10
161.2642145576185
 20
-153.5987388504889
 30
0.0
 10
161.2642145576185
 20
-153.5987388504889
 30
0.0
 10
164.2497728902053
 20
-153.2317794061364
 30
0.0
 10
164.8533756678326
 20
-151.8409530175955
 30
0.0
 10
162.6054051128385
 20
-150.5080174623728
 30
0.0
  0
SPLINE
  5
72
330
5B
100
AcDbEntity
  8
Calque 1
 62
     1
370
    13
100
AcDbSpline
210
0.0
220
0.0
230
1.0
 70
    11
 71
     3
 72
    38
 73
    34
 74
     0
 42
0.0000000001
 43
0.0000000001
 12
1.0
 22
0.0
 32
0.0
 13
1.0
 23
0.0
 33
0.0
 40
0.0
 40
0.0
 40
0.0
 40
0.0
 40
1.0
 40
1.0
 40
1.0
 40
2.0
 40
2.0
 40
2.0
 40
3.0
 40
3.0
 40
3.0
 40
4.0
 40
4.0
 40
4.0
 40
5.0
 40
5.0
 40
5.0
 40
6.0
 40
6.0
 40
6.0
 40
7.0
 40
7.0
 40
7.0
 40
8.0
 40
8.0
 40
8.0
 40
9.0
 40
9.0
 40
9.0
 40
10.0
 40
10.0
 40
10.0
 40
11.0
 40
11.0
 40
11.0
 40
11.0
 10
82.05576096630979
 20
-139.6372407984245
 30
0.0
 10
82.05576096630979
 20
-139.6372407984245
 30
0.0
 10
103.5219712387208
 20
-138.209760798781
 30
0.0
 10
103.5219712387208
 20
-138.209760798781
 30
0.0
 10
106.5446065157431
 20
-138.0087480210533
 30
0.0
 10
110.1757481815019
 20
-136.4099238547863
 30
0.0
 10
111.5914101255923
 20
-134.6567946885581
 30
0.0
 10
111.5914101255923
 20
-134.6567946885581
 30
0.0
 10
112.8836351252694
 20
-133.0563477445136
 30
0.0
 10
112.8836351252694
 20
-133.0563477445136
 30
0.0
 10
114.2992265138041
 20
-131.3032185782852
 30
0.0
 10
114.9179281803163
 20
-128.286263023484
 30
0.0
 10
114.2585159582592
 20
-126.3521588573008
 30
0.0
 10
114.2585159582592
 20
-126.3521588573008
 30
0.0
 10
113.4828987362303
 20
-124.077059691203
 30
0.0
 10
113.4828987362303
 20
-124.077059691203
 30
0.0
 10
112.8234159586176
 20
-122.142920247242
 30
0.0
 10
110.2597445703699
 20
-119.6193244145397
 30
0.0
 10
107.7858198487658
 20
-118.4691983037159
 30
0.0
 10
107.7858198487658
 20
-118.4691983037159
 30
0.0
 10
99.22125735090687
 20
-114.4873249713782
 30
0.0
 10
99.22125735090687
 20
-114.4873249713782
 30
0.0
 10
96.74726207374769
 20
-113.3372341383322
 30
0.0
 10
94.1525462410628
 20
-112.5061249718735
 30
0.0
 10
93.45531624123726
 20
-112.6406744162843
 30
0.0
 10
92.75776874141212
 20
-112.7750827495839
 30
0.0
 10
91.31293207510646
 20
-114.4026230269549
 30
0.0
 10
90.24408596426248
 20
-116.2574580264913
 30
0.0
 10
90.24408596426248
 20
-116.2574580264913
 30
0.0
 10
78.50367680053043
 20
-136.6303746880647
 30
0.0
 10
78.50367680053043
 20
-136.6303746880647
 30
0.0
 10
77.43483068968709
 20
-138.4850332987119
 30
0.0
 10
79.03344318928713
 20
-139.8381477428179
 30
0.0
 10
82.05576096630979
 20
-139.6372407984245
 30
0.0
  0
SPLINE
  5
73
330
5B
100
AcDbEntity
  8
Calque 1
 62
     1
370
    13
100
AcDbSpline
210
0.0
220
0.0
230
1.0
 70
    11
 71
     3
 72
    32
 73
    28
 74
     0
 42
0.0000000001
 43
0.0000000001
 12
1.0
 22
0.0
 32
0.0
 13
1.0
 23
0.0
 33
0.0
 40
0.0
 40
0.0
 40
0.0
 40
0.0
 40
1.0
 40
1.0
 40
1.0
 40
2.0
 40
2.0
 40
2.0
 40
3.0
 40
3.0
 40
3.0
 40
4.0
 40
4.0
 40
4.0
 40
5.0
 40
5.0
 40
5.0
 40
6.0
 40
6.0
 40
6.0
 40
7.0
 40
7.0
 40
7.0
 40
8.0
 40
8.0
 40
8.0
 40
9.0
 40
9.0
 40
9.0
 40
9.0
 10
128.7819184546278
 20
-98.01574247549605
 30
0.0
 10
128.7819184546278
 20
-98.01574247549605
 30
0.0
 10
134.3238456754644
 20
-102.1413374744646
 30
0.0
 10
134.3238456754644
 20
-102.1413374744646
 30
0.0
 10
136.3260359527421
 20
-103.6316471963143
 30
0.0
 10
139.3064437297745
 20
-104.878857751558
 30
0.0
 10
140.9472061182533
 20
-104.9128655293274
 30
0.0
 10
142.5878873678434
 20
-104.9468733070965
 30
0.0
 10
144.8200534783959
 20
-104.0188913628843
 30
0.0
 10
145.9075615336799
 20
-102.8505971965096
 30
0.0
 10
146.9949531722969
 20
-101.6821971968017
 30
0.0
 10
146.7894248390151
 20
-99.2711374751823
 30
0.0
 10
145.450675506016
 20
-97.4924319200713
 30
0.0
 10
145.450675506016
 20
-97.4924319200713
 30
0.0
 10
138.9696820631923
 20
-88.88137331111285
 30
0.0
 10
138.9696820631923
 20
-88.88137331111285
 30
0.0
 10
138.2543192855935
 20
-87.93095470023945
 30
0.0
 10
137.4232453969119
 20
-87.07448081156454
 30
0.0
 10
136.6820592859865
 20
-86.47969747838002
 30
0.0
 10
136.6820592859865
 20
-86.47969747838002
 30
0.0
 10
127.0836109550525
 20
-92.02127192143922
 30
0.0
 10
127.0836109550525
 20
-92.02127192143922
 30
0.0
 10
125.9064620664576
 20
-93.26241469890654
 30
0.0
 10
125.0717545666665
 20
-94.33722275419335
 30
0.0
 10
125.0928859555502
 20
-94.62889942078736
 30
0.0
 10
125.1198028999881
 20
-95.00129164291637
 30
0.0
 10
126.7797987329064
 20
-96.52539747586879
 30
0.0
 10
128.7819184546278
 20
-98.01574247549605
 30
0.0
  0
SPLINE
  5
74
330
5B
100
AcDbEntity
  8
Calque 1
 62
     1
370
    13
100
AcDbSpline
210
0.0
220
0.0
230
1.0
 70
    11
 71
     3
 72
    26
 73
    22
 74
     0
 42
0.0000000001
 43
0.0000000001
 12
1.0
 22
0.0
 32
0.0
 13
1.0
 23
0.0
 33
0.0
 40
0.0
 40
0.0
 40
0.0
 40
0.0
 40
1.0
 40
1.0
 40
1.0
 40
2.0
 40
2.0
 40
2.0
 40
3.0
 40
3.0
 40
3.0
 40
4.0
 40
4.0
 40
4.0
 40
5.0
 40
5.0
 40
5.0
 40
6.0
 40
6.0
 40
6.0
 40
7.0
 40
7.0
 40
7.0
 40
7.0
 10
163.1636406682549
 20
-92.50736442131752
 30
0.0
 10
161.5544801131014
 20
-92.93778858787674
 30
0.0
 10
158.8057062249001
 20
-94.61514108745723
 30
0.0
 10
157.0552934475596
 20
-96.23463803149703
 30
0.0
 10
157.0552934475596
 20
-96.23463803149703
 30
0.0
 10
156.3489617810698
 20
-96.8884058091112
 30
0.0
 10
156.3489617810698
 20
-96.8884058091112
 30
0.0
 10
154.598619559285
 20
-98.50790275315069
 30
0.0
 10
155.6492270590218
 20
-99.91460414168797
 30
0.0
 10
158.6833628915969
 20
-100.0144049749964
 30
0.0
 10
158.6833628915969
 20
-100.0144049749964
 30
0.0
 10
175.7816551095445
 20
-100.5765916415226
 30
0.0
 10
175.7816551095445
 20
-100.5765916415226
 30
0.0
 10
178.8158967754529
 20
-100.676392474831
 30
0.0
 10
179.4606678022213
 20
-99.66642497508349
 30
0.0
 10
177.2144620536314
 20
-98.33228997541678
 30
0.0
 10
177.2144620536314
 20
-98.33228997541678
 30
0.0
 10
170.1737231665018
 20
-94.15039164312901
 30
0.0
 10
170.1737231665018
 20
-94.15039164312901
 30
0.0
 10
167.9275870559528
 20
-92.81622136568478
 30
0.0
 10
164.7730481678523
 20
-92.07679914364758
 30
0.0
 10
163.1636406682549
 20
-92.50736442131752
 30
0.0
  0
SPLINE
  5
75
330
5B
100
AcDbEntity
  8
Calque 1
 62
     1
370
    13
100
AcDbSpline
210
0.0
220
0.0
230
1.0
 70
    11
 71
     3
 72
    26
 73
    22
 74
     0
 42
0.0000000001
 43
0.0000000001
 12
1.0
 22
0.0
 32
0.0
 13
1.0
 23
0.0
 33
0.0
 40
0.0
 40
0.0
 40
0.0
 40
0.0
 40
1.0
 40
1.0
 40
1.0
 40
2.0
 40
2.0
 40
2.0
 40
3.0
 40
3.0
 40
3.0
 40
4.0
 40
4.0
 40
4.0
 40
5.0
 40
5.0
 40
5.0
 40
6.0
 40
6.0
 40
6.0
 40
7.0
 40
7.0
 40
7.0
 40
7.0
 10
147.7847873387662
 20
-95.16815553176353
 30
0.0
 10
149.1235084495425
 20
-96.94675525354101
 30
0.0
 10
151.6508437266885
 20
-97.0769655312862
 30
0.0
 10
153.4012212262508
 20
-95.45746858724672
 30
0.0
 10
153.4012212262508
 20
-95.45746858724672
 30
0.0
 10
153.6170506706415
 20
-95.25772580951882
 30
0.0
 10
153.6170506706415
 20
-95.25772580951882
 30
0.0
 10
155.3674634479814
 20
-93.63812303214613
 30
0.0
 10
155.3319387257684
 20
-91.00453108835983
 30
0.0
 10
153.5384165039943
 20
-89.40524831098209
 30
0.0
 10
153.5384165039943
 20
-89.40524831098209
 30
0.0
 10
149.696490116066
 20
-85.97959970072735
 30
0.0
 10
149.696490116066
 20
-85.97959970072735
 30
0.0
 10
147.9029678942926
 20
-84.38038747890498
 30
0.0
 10
145.0197609783459
 20
-83.50913220134481
 30
0.0
 10
143.2894611204454
 20
-84.04366109010033
 30
0.0
 10
141.5592050069893
 20
-84.57818997885553
 30
0.0
 10
141.2386605348472
 20
-86.47080747838223
 30
0.0
 10
142.577533340068
 20
-88.24944247793755
 30
0.0
 10
142.577533340068
 20
-88.24944247793755
 30
0.0
 10
147.7847873387662
 20
-95.16815553176353
 30
0.0
 10
147.7847873387662
 20
-95.16815553176353
 30
0.0
  0
SPLINE
  5
76
330
5B
100
AcDbEntity
  8
Calque 1
 62
     1
370
    13
100
AcDbSpline
210
0.0
220
0.0
230
1.0
 70
    11
 71
     3
 72
    35
 73
    31
 74
     0
 42
0.0000000001
 43
0.0000000001
 12
1.0
 22
0.0
 32
0.0
 13
1.0
 23
0.0
 33
0.0
 40
0.0
 40
0.0
 40
0.0
 40
0.0
 40
1.0
 40
1.0
 40
1.0
 40
2.0
 40
2.0
 40
2.0
 40
3.0
 40
3.0
 40
3.0
 40
4.0
 40
4.0
 40
4.0
 40
5.0
 40
5.0
 40
5.0
 40
6.0
 40
6.0
 40
6.0
 40
7.0
 40
7.0
 40
7.0
 40
8.0
 40
8.0
 40
8.0
 40
9.0
 40
9.0
 40
9.0
 40
10.0
 40
10.0
 40
10.0
 40
10.0
 10
174.3888178876703
 20
-155.021068294578
 30
0.0
 10
172.413897332609
 20
-154.9479727390405
 30
0.0
 10
168.3553653891788
 20
-155.1884613500918
 30
0.0
 10
165.3697717788145
 20
-155.5554560722225
 30
0.0
 10
165.3697717788145
 20
-155.5554560722225
 30
0.0
 10
148.5430478941323
 20
-157.6237569050388
 30
0.0
 10
148.5430478941323
 20
-157.6237569050388
 30
0.0
 10
145.5574754504341
 20
-157.9907516271688
 30
0.0
 10
142.0906541457447
 20
-159.7681519045023
 30
0.0
 10
140.839030340503
 20
-161.5736685707177
 30
0.0
 10
140.839030340503
 20
-161.5736685707177
 30
0.0
 10
131.2676965095625
 20
-175.3807910672662
 30
0.0
 10
131.2676965095625
 20
-175.3807910672662
 30
0.0
 10
130.0161467876528
 20
-177.1863077334809
 30
0.0
 10
130.8386128985587
 20
-179.7488502328403
 30
0.0
 10
133.0954734535493
 20
-181.0754005102864
 30
0.0
 10
133.0954734535493
 20
-181.0754005102864
 30
0.0
 10
133.8351778978092
 20
-181.5100932879556
 30
0.0
 10
133.8351778978092
 20
-181.5100932879556
 30
0.0
 10
136.0921090083555
 20
-182.836502454291
 30
0.0
 10
140.1211346184601
 20
-183.1771446764279
 30
0.0
 10
142.7885441927931
 20
-182.2668016210999
 30
0.0
 10
145.4559742282371
 20
-181.3564585657719
 30
0.0
 10
149.1640073384217
 20
-179.3317610662784
 30
0.0
 10
151.0285790046218
 20
-177.7672269000028
 30
0.0
 10
151.0285790046218
 20
-177.7672269000028
 30
0.0
 10
174.5893720542873
 20
-157.9983716271669
 30
0.0
 10
174.5893720542873
 20
-157.9983716271669
 30
0.0
 10
176.453943720488
 20
-156.4339785720027
 30
0.0
 10
176.3635973316215
 20
-155.0942696834488
 30
0.0
 10
174.3888178876703
 20
-155.021068294578
 30
0.0
  0
SPLINE
  5
77
330
5B
100
AcDbEntity
  8
Calque 1
 62
     1
370
    13
100
AcDbSpline
210
0.0
220
0.0
230
1.0
 70
    11
 71
     3
 72
    17
 73
    13
 74
     0
 42
0.0000000001
 43
0.0000000001
 12
1.0
 22
0.0
 32
0.0
 13
1.0
 23
0.0
 33
0.0
 40
0.0
 40
0.0
 40
0.0
 40
0.0
 40
1.0
 40
1.0
 40
1.0
 40
2.0
 40
2.0
 40
2.0
 40
3.0
 40
3.0
 40
3.0
 40
4.0
 40
4.0
 40
4.0
 40
4.0
 10
132.4785709537035
 20
-194.2643152292118
 30
0.0
 10
132.4785709537035
 20
-194.2643152292118
 30
0.0
 10
127.5087434549459
 20
-195.1117227289997
 30
0.0
 10
127.5087434549459
 20
-195.1117227289997
 30
0.0
 10
127.5087434549459
 20
-195.1117227289997
 30
0.0
 10
137.2104145636322
 20
-200.7129166164887
 30
0.0
 10
137.2104145636322
 20
-200.7129166164887
 30
0.0
 10
139.4533756741826
 20
-199.3929632834849
 30
0.0
 10
140.5115925905845
 20
-197.2107857840305
 30
0.0
 10
139.560972896378
 20
-195.8468763399269
 30
0.0
 10
138.6048745632833
 20
-194.4752410624926
 30
0.0
 10
135.4177742863025
 20
-193.7631591182261
 30
0.0
 10
132.4785709537035
 20
-194.2643152292118
 30
0.0
  0
SPLINE
  5
78
330
5B
100
AcDbEntity
  8
Calque 1
 62
     1
370
    13
100
AcDbSpline
210
0.0
220
0.0
230
1.0
 70
    11
 71
     3
 72
    38
 73
    34
 74
     0
 42
0.0000000001
 43
0.0000000001
 12
1.0
 22
0.0
 32
0.0
 13
1.0
 23
0.0
 33
0.0
 40
0.0
 40
0.0
 40
0.0
 40
0.0
 40
1.0
 40
1.0
 40
1.0
 40
2.0
 40
2.0
 40
2.0
 40
3.0
 40
3.0
 40
3.0
 40
4.0
 40
4.0
 40
4.0
 40
5.0
 40
5.0
 40
5.0
 40
6.0
 40
6.0
 40
6.0
 40
7.0
 40
7.0
 40
7.0
 40
8.0
 40
8.0
 40
8.0
 40
9.0
 40
9.0
 40
9.0
 40
10.0
 40
10.0
 40
10.0
 40
11.0
 40
11.0
 40
11.0
 40
11.0
 10
153.4765392817875
 20
-115.3739966378231
 30
0.0
 10
153.4765392817875
 20
-115.3739966378231
 30
0.0
 10
147.3991659499737
 20
-110.2478180279936
 30
0.0
 10
147.3991659499737
 20
-110.2478180279936
 30
0.0
 10
145.5408313948828
 20
-108.6802852506077
 30
0.0
 10
142.619926645613
 20
-107.3687985842689
 30
0.0
 10
140.9083194238185
 20
-107.3333091398334
 30
0.0
 10
139.1966592853575
 20
-107.2978196953976
 30
0.0
 10
135.9591117861671
 20
-108.360809695132
 30
0.0
 10
133.7133990089502
 20
-109.6954033059093
 30
0.0
 10
133.7133990089502
 20
-109.6954033059093
 30
0.0
 10
120.0127095679314
 20
-117.8381141372072
 30
0.0
 10
120.0127095679314
 20
-117.8381141372072
 30
0.0
 10
117.7671731796034
 20
-119.1726371924292
 30
0.0
 10
116.4693390132616
 20
-121.8471513584272
 30
0.0
 10
117.1286806797636
 20
-123.7813966357214
 30
0.0
 10
117.1286806797636
 20
-123.7813966357214
 30
0.0
 10
117.6645501240736
 20
-125.3530921908838
 30
0.0
 10
117.6645501240736
 20
-125.3530921908838
 30
0.0
 10
118.3239623461313
 20
-127.2872669126226
 30
0.0
 10
121.3473384564866
 20
-128.9351624677661
 30
0.0
 10
124.3828501223946
 20
-129.0151724677463
 30
0.0
 10
124.3828501223946
 20
-129.0151724677463
 30
0.0
 10
125.4337751221316
 20
-129.0428655232948
 30
0.0
 10
125.4337751221316
 20
-129.0428655232948
 30
0.0
 10
128.4693573435953
 20
-129.1228755232749
 30
0.0
 10
133.038288175786
 20
-128.305665801257
 30
0.0
 10
135.5867548418156
 20
-127.2269066348601
 30
0.0
 10
135.5867548418156
 20
-127.2269066348601
 30
0.0
 10
152.2219203932124
 20
-120.1853916366203
 30
0.0
 10
152.2219203932124
 20
-120.1853916366203
 30
0.0
 10
154.7702106703532
 20
-119.1066677480013
 30
0.0
 10
155.3349726146562
 20
-116.9415999707647
 30
0.0
 10
153.4765392817875
 20
-115.3739966378231
 30
0.0
  0
SPLINE
  5
79
330
5B
100
AcDbEntity
  8
Calque 1
 62
     1
370
    13
100
AcDbSpline
210
0.0
220
0.0
230
1.0
 70
    11
 71
     3
 72
    32
 73
    28
 74
     0
 42
0.0000000001
 43
0.0000000001
 12
1.0
 22
0.0
 32
0.0
 13
1.0
 23
0.0
 33
0.0
 40
0.0
 40
0.0
 40
0.0
 40
0.0
 40
1.0
 40
1.0
 40
1.0
 40
2.0
 40
2.0
 40
2.0
 40
3.0
 40
3.0
 40
3.0
 40
4.0
 40
4.0
 40
4.0
 40
5.0
 40
5.0
 40
5.0
 40
6.0
 40
6.0
 40
6.0
 40
7.0
 40
7.0
 40
7.0
 40
8.0
 40
8.0
 40
8.0
 40
9.0
 40
9.0
 40
9.0
 40
9.0
 10
101.6489681836332
 20
-112.6591246940573
 30
0.0
 10
101.6489681836332
 20
-112.6591246940573
 30
0.0
 10
109.2738012372832
 20
-116.2040474709489
 30
0.0
 10
109.2738012372832
 20
-116.2040474709489
 30
0.0
 10
111.7477259588867
 20
-117.3542088595502
 30
0.0
 10
115.6091609579211
 20
-117.2032552484769
 30
0.0
 10
117.8548031795817
 20
-115.8686616376996
 30
0.0
 10
117.8548031795817
 20
-115.8686616376996
 30
0.0
 10
130.4636806764296
 20
-108.3749560840174
 30
0.0
 10
130.4636806764296
 20
-108.3749560840174
 30
0.0
 10
132.7093228980901
 20
-107.0403271954622
 30
0.0
 10
132.9085365091517
 20
-104.7289624738177
 30
0.0
 10
130.9064873429861
 20
-103.2386880297458
 30
0.0
 10
130.9064873429861
 20
-103.2386880297458
 30
0.0
 10
126.5061137329751
 20
-99.96293469723135
 30
0.0
 10
126.5061137329751
 20
-99.96293469723135
 30
0.0
 10
124.5040998445863
 20
-98.47258969760408
 30
0.0
 10
120.5966273455636
 20
-97.9148480310768
 30
0.0
 10
117.8230884573677
 20
-98.72344997531899
 30
0.0
 10
117.8230884573677
 20
-98.72344997531899
 30
0.0
 10
113.079391514109
 20
-100.1065152527511
 30
0.0
 10
113.079391514109
 20
-100.1065152527511
 30
0.0
 10
113.079391514109
 20
-100.1065152527511
 30
0.0
 10
98.31641762891107
 20
-108.6297674728427
 30
0.0
 10
98.31641762891107
 20
-108.6297674728427
 30
0.0
 10
98.48518651775775
 20
-110.1564133057942
 30
0.0
 10
99.7581498507732
 20
-111.7800377498326
 30
0.0
 10
101.6489681836332
 20
-112.6591246940573
 30
0.0
  0
SPLINE
  5
7A
330
5B
100
AcDbEntity
  8
Calque 1
 62
     1
370
    13
100
AcDbSpline
210
0.0
220
0.0
230
1.0
 70
    11
 71
     3
 72
    20
 73
    16
 74
     0
 42
0.0000000001
 43
0.0000000001
 12
1.0
 22
0.0
 32
0.0
 13
1.0
 23
0.0
 33
0.0
 40
0.0
 40
0.0
 40
0.0
 40
0.0
 40
1.0
 40
1.0
 40
1.0
 40
2.0
 40
2.0
 40
2.0
 40
3.0
 40
3.0
 40
3.0
 40
4.0
 40
4.0
 40
4.0
 40
5.0
 40
5.0
 40
5.0
 40
5.0
 10
44.516818753472
 20
-141.6808471868019
 30
0.0
 10
44.516818753472
 20
-141.6808471868019
 30
0.0
 10
51.9165795849557
 20
-141.2884877424557
 30
0.0
 10
51.9165795849557
 20
-141.2884877424557
 30
0.0
 10
54.94492986197591
 20
-141.1279385758288
 30
0.0
 10
57.41582069469155
 20
-139.3754796873781
 30
0.0
 10
57.40738930580537
 20
-137.3940327434291
 30
0.0
 10
57.40738930580537
 20
-137.3940327434291
 30
0.0
 10
57.38572875025441
 20
-132.2607280224904
 30
0.0
 10
57.38572875025441
 20
-132.2607280224904
 30
0.0
 10
57.38572875025441
 20
-132.2607280224904
 30
0.0
 10
41.71886764306006
 20
-141.3058444091179
 30
0.0
 10
41.71886764306006
 20
-141.3058444091179
 30
0.0
 10
42.52140180952621
 20
-141.5929349646016
 30
0.0
 10
43.47601847595427
 20
-141.73605690901
 30
0.0
 10
44.516818753472
 20
-141.6808471868019
 30
0.0
  0
ENDBLK
  5
5E
330
5B
100
AcDbEntity
  8
0
100
AcDbBlockEnd
  0
BLOCK
  5
7D
330
7B
100
AcDbEntity
  8
0
100
AcDbBlockBegin
  2
block 3
 70
     0
 10
0.0
 20
0.0
 30
0.0
  3
block 3
  1

  0
SPLINE
  5
7F
330
7B
100
AcDbEntity
  8
Calque 1
 62
     1
370
    13
100
AcDbSpline
210
0.0
220
0.0
230
1.0
 70
    11
 71
     3
 72
    35
 73
    31
 74
     0
 42
0.0000000001
 43
0.0000000001
 12
1.0
 22
0.0
 32
0.0
 13
1.0
 23
0.0
 33
0.0
 40
0.0
 40
0.0
 40
0.0
 40
0.0
 40
1.0
 40
1.0
 40
1.0
 40
2.0
 40
2.0
 40
2.0
 40
3.0
 40
3.0
 40
3.0
 40
4.0
 40
4.0
 40
4.0
 40
5.0
 40
5.0
 40
5.0
 40
6.0
 40
6.0
 40
6.0
 40
7.0
 40
7.0
 40
7.0
 40
8.0
 40
8.0
 40
8.0
 40
9.0
 40
9.0
 40
9.0
 40
10.0
 40
10.0
 40
10.0
 40
10.0
 10
167.8511401115272
 20
-240.069052439983
 30
0.0
 10
167.7071009448968
 20
-239.9313279955729
 30
0.0
 10
167.5531487227129
 20
-239.8066563289374
 30
0.0
 10
167.3817340005337
 20
-239.7077021622952
 30
0.0
 10
167.3817340005337
 20
-239.7077021622952
 30
0.0
 10
160.2578806689811
 20
-235.5947366077682
 30
0.0
 10
160.2578806689811
 20
-235.5947366077682
 30
0.0
 10
160.0855840023575
 20
-235.4952532744593
 30
0.0
 10
159.9054909468475
 20
-235.4269907744766
 30
0.0
 10
159.7220817802263
 20
-235.3757321633783
 30
0.0
 10
158.0790192806373
 20
-234.9163449412709
 30
0.0
 10
156.0667395589178
 20
-236.3390624409153
 30
0.0
 10
155.0177548369578
 20
-238.8321077180697
 30
0.0
 10
155.0177548369578
 20
-238.8321077180697
 30
0.0
 10
152.3077865043018
 20
-245.2724541053487
 30
0.0
 10
152.3077865043018
 20
-245.2724541053487
 30
0.0
 10
151.1417501157045
 20
-248.0436999379891
 30
0.0
 10
150.9863162268545
 20
-251.9064754925789
 30
0.0
 10
151.9622759488326
 20
-253.8562077143136
 30
0.0
 10
151.9622759488326
 20
-253.8562077143136
 30
0.0
 10
151.9997056710458
 20
-253.9310318809618
 30
0.0
 10
151.9997056710458
 20
-253.9310318809618
 30
0.0
 10
151.9997056710458
 20
-253.9310318809618
 30
0.0
 10
168.8677751112727
 20
-244.1920721611743
 30
0.0
 10
168.8677751112727
 20
-244.1920721611743
 30
0.0
 10
168.8677751112727
 20
-244.1920721611743
 30
0.0
 10
171.9300978882855
 20
-242.4240204949496
 30
0.0
 10
171.9300978882855
 20
-242.4240204949496
 30
0.0
 10
171.9300978882855
 20
-242.4240204949496
 30
0.0
 10
167.8511401115272
 20
-240.069052439983
 30
0.0
 10
167.8511401115272
 20
-240.069052439983
 30
0.0
  0
SPLINE
  5
80
330
7B
100
AcDbEntity
  8
Calque 1
 62
     1
370
    13
100
AcDbSpline
210
0.0
220
0.0
230
1.0
 70
    11
 71
     3
 72
    32
 73
    28
 74
     0
 42
0.0000000001
 43
0.0000000001
 12
1.0
 22
0.0
 32
0.0
 13
1.0
 23
0.0
 33
0.0
 40
0.0
 40
0.0
 40
0.0
 40
0.0
 40
1.0
 40
1.0
 40
1.0
 40
2.0
 40
2.0
 40
2.0
 40
3.0
 40
3.0
 40
3.0
 40
4.0
 40
4.0
 40
4.0
 40
5.0
 40
5.0
 40
5.0
 40
6.0
 40
6.0
 40
6.0
 40
7.0
 40
7.0
 40
7.0
 40
8.0
 40
8.0
 40
8.0
 40
9.0
 40
9.0
 40
9.0
 40
9.0
 10
33.40858736736014
 20
-197.2567527284637
 30
0.0
 10
33.40858736736014
 20
-197.2567527284637
 30
0.0
 10
38.49472569942203
 20
-195.5770366177727
 30
0.0
 10
38.49472569942203
 20
-195.5770366177727
 30
0.0
 10
40.77645708774037
 20
-194.8233974512944
 30
0.0
 10
42.96995875385878
 20
-192.9901524517523
 30
0.0
 10
43.36898569820365
 20
-191.5031588410132
 30
0.0
 10
43.76811847588108
 20
-190.016235785829
 30
0.0
 10
43.39823097597392
 20
-187.3703671753796
 30
0.0
 10
42.54718986507583
 20
-185.62358800915
 30
0.0
 10
41.6961487541771
 20
-183.8767030095864
 30
0.0
 10
39.63052903247154
 20
-182.2624977322124
 30
0.0
 10
37.95709236622267
 20
-182.0365788433799
 30
0.0
 10
36.28362042219692
 20
-181.8105893989917
 30
0.0
 10
33.31450153405028
 20
-181.7456430101189
 30
0.0
 10
31.35905431231704
 20
-181.8922574545268
 30
0.0
 10
29.99242847932518
 20
-181.9947746767235
 30
0.0
 10
28.46306625748547
 20
-182.6354896765631
 30
0.0
 10
27.3763343133127
 20
-183.4818388430184
 30
0.0
 10
27.3763343133127
 20
-183.4818388430184
 30
0.0
 10
27.37626375775702
 20
-193.8635596737562
 30
0.0
 10
27.37626375775702
 20
-193.8635596737562
 30
0.0
 10
27.37626375775702
 20
-193.8635596737562
 30
0.0
 10
27.75800459099543
 20
-194.8289360624041
 30
0.0
 10
27.75800459099543
 20
-194.8289360624041
 30
0.0
 10
28.58410431301078
 20
-196.9179096729925
 30
0.0
 10
31.12682070126429
 20
-198.010391894942
 30
0.0
 10
33.40858736736014
 20
-197.2567527284637
 30
0.0
  0
SPLINE
  5
81
330
7B
100
AcDbEntity
  8
Calque 1
 62
     1
370
    13
100
AcDbSpline
210
0.0
220
0.0
230
1.0
 70
    11
 71
     3
 72
    32
 73
    28
 74
     0
 42
0.0000000001
 43
0.0000000001
 12
1.0
 22
0.0
 32
0.0
 13
1.0
 23
0.0
 33
0.0
 40
0.0
 40
0.0
 40
0.0
 40
0.0
 40
1.0
 40
1.0
 40
1.0
 40
2.0
 40
2.0
 40
2.0
 40
3.0
 40
3.0
 40
3.0
 40
4.0
 40
4.0
 40
4.0
 40
5.0
 40
5.0
 40
5.0
 40
6.0
 40
6.0
 40
6.0
 40
7.0
 40
7.0
 40
7.0
 40
8.0
 40
8.0
 40
8.0
 40
9.0
 40
9.0
 40
9.0
 40
9.0
 10
31.91619625662199
 20
-178.5281685664789
 30
0.0
 10
33.61831375619697
 20
-178.4004630109556
 30
0.0
 10
36.3246484777421
 20
-176.1879113448419
 30
0.0
 10
37.93014014400785
 20
-173.6114694010417
 30
0.0
 10
37.93014014400785
 20
-173.6114694010417
 30
0.0
 10
38.97171653263614
 20
-171.9401141236819
 30
0.0
 10
38.97171653263614
 20
-171.9401141236819
 30
0.0
 10
40.41761153227444
 20
-169.6197888464839
 30
0.0
 10
40.483439865591
 20
-167.0267310693546
 30
0.0
 10
39.22984403257171
 20
-165.8094713474364
 30
0.0
 10
39.09141403260609
 20
-165.6750982919144
 30
0.0
 10
38.9415187548658
 20
-165.5526844030562
 30
0.0
 10
38.77091542157526
 20
-165.4542241253031
 30
0.0
 10
38.77091542157526
 20
-165.4542241253031
 30
0.0
 10
32.66214486754715
 20
-161.9272930150736
 30
0.0
 10
32.66214486754715
 20
-161.9272930150736
 30
0.0
 10
32.46317820092948
 20
-161.8124285706578
 30
0.0
 10
32.26780986764574
 20
-161.7325949595665
 30
0.0
 10
32.07674542324889
 20
-161.6796430151357
 30
0.0
 10
30.62016125694647
 20
-161.2757477374591
 30
0.0
 10
29.44572875723979
 20
-162.6193724593453
 30
0.0
 10
29.35446514615138
 20
-164.9791382920886
 30
0.0
 10
29.35446514615138
 20
-164.9791382920886
 30
0.0
 10
29.00913097957103
 20
-173.9070266231898
 30
0.0
 10
29.00913097957103
 20
-173.9070266231898
 30
0.0
 10
28.90590820181946
 20
-176.5762844003002
 30
0.0
 10
30.21407875704766
 20
-178.655697733114
 30
0.0
 10
31.91619625662199
 20
-178.5281685664789
 30
0.0
  0
SPLINE
  5
82
330
7B
100
AcDbEntity
  8
Calque 1
 62
     1
370
    13
100
AcDbSpline
210
0.0
220
0.0
230
1.0
 70
    11
 71
     3
 72
    32
 73
    28
 74
     0
 42
0.0000000001
 43
0.0000000001
 12
1.0
 22
0.0
 32
0.0
 13
1.0
 23
0.0
 33
0.0
 40
0.0
 40
0.0
 40
0.0
 40
0.0
 40
1.0
 40
1.0
 40
1.0
 40
2.0
 40
2.0
 40
2.0
 40
3.0
 40
3.0
 40
3.0
 40
4.0
 40
4.0
 40
4.0
 40
5.0
 40
5.0
 40
5.0
 40
6.0
 40
6.0
 40
6.0
 40
7.0
 40
7.0
 40
7.0
 40
8.0
 40
8.0
 40
8.0
 40
9.0
 40
9.0
 40
9.0
 40
9.0
 10
80.29060207786219
 20
-281.2617846519069
 30
0.0
 10
80.63985207777417
 20
-283.7052646512961
 30
0.0
 10
82.71379735503399
 20
-284.2755299289313
 30
0.0
 10
84.89925568782085
 20
-282.5291035404787
 30
0.0
 10
84.89925568782085
 20
-282.5291035404787
 30
0.0
 10
94.14012846328868
 20
-275.1449707645472
 30
0.0
 10
94.14012846328868
 20
-275.1449707645472
 30
0.0
 10
96.32555151829737
 20
-273.3985443760946
 30
0.0
 10
98.7372815176945
 20
-270.8955507656097
 30
0.0
 10
99.4994226286153
 20
-269.5825118770485
 30
0.0
 10
100.2616342950912
 20
-268.2697199329326
 30
0.0
 10
100.1177715173497
 20
-265.5700527113855
 30
0.0
 10
99.17998235091711
 20
-263.5832435452154
 30
0.0
 10
99.17998235091711
 20
-263.5832435452154
 30
0.0
 10
92.27569790819928
 20
-248.957288548872
 30
0.0
 10
92.27569790819928
 20
-248.957288548872
 30
0.0
 10
91.33794401954424
 20
-246.9706557715908
 30
0.0
 10
88.91739457570564
 20
-247.0825921604519
 30
0.0
 10
86.89707152065465
 20
-249.2059263265874
 30
0.0
 10
86.89707152065465
 20
-249.2059263265874
 30
0.0
 10
80.84319318883504
 20
-255.5683793805522
 30
0.0
 10
80.84319318883504
 20
-255.5683793805522
 30
0.0
 10
78.82287013378405
 20
-257.6916782689102
 30
0.0
 10
77.45557402301549
 20
-261.4281241013095
 30
0.0
 10
77.80478874514993
 20
-263.8713924340324
 30
0.0
 10
77.80478874514993
 20
-263.8713924340324
 30
0.0
 10
80.29060207786219
 20
-281.2617846519069
 30
0.0
 10
80.29060207786219
 20
-281.2617846519069
 30
0.0
  0
SPLINE
  5
83
330
7B
100
AcDbEntity
  8
Calque 1
 62
     1
370
    13
100
AcDbSpline
210
0.0
220
0.0
230
1.0
 70
    11
 71
     3
 72
    32
 73
    28
 74
     0
 42
0.0000000001
 43
0.0000000001
 12
1.0
 22
0.0
 32
0.0
 13
1.0
 23
0.0
 33
0.0
 40
0.0
 40
0.0
 40
0.0
 40
0.0
 40
1.0
 40
1.0
 40
1.0
 40
2.0
 40
2.0
 40
2.0
 40
3.0
 40
3.0
 40
3.0
 40
4.0
 40
4.0
 40
4.0
 40
5.0
 40
5.0
 40
5.0
 40
6.0
 40
6.0
 40
6.0
 40
7.0
 40
7.0
 40
7.0
 40
8.0
 40
8.0
 40
8.0
 40
9.0
 40
9.0
 40
9.0
 40
9.0
 10
115.5792454023735
 20
-263.222034378639
 30
0.0
 10
114.2526951249268
 20
-262.7449024343135
 30
0.0
 10
111.3043195701085
 20
-263.4110174341474
 30
0.0
 10
109.0270331817885
 20
-264.7023604893801
 30
0.0
 10
109.0270331817885
 20
-264.7023604893801
 30
0.0
 10
107.3588529044278
 20
-265.6482635446993
 30
0.0
 10
107.3588529044278
 20
-265.6482635446993
 30
0.0
 10
105.081566516109
 20
-266.9395360443763
 30
0.0
 10
102.614062350059
 20
-269.0373290994074
 30
0.0
 10
101.8753104057992
 20
-270.3100454879782
 30
0.0
 10
101.1364879059836
 20
-271.5826913209934
 30
0.0
 10
101.2667687392845
 20
-274.2802418758747
 30
0.0
 10
102.1643765168375
 20
-276.3044102087015
 30
0.0
 10
102.1643765168375
 20
-276.3044102087015
 30
0.0
 10
104.1566537385622
 20
-280.7964354853563
 30
0.0
 10
104.1566537385622
 20
-280.7964354853563
 30
0.0
 10
104.2460123496511
 20
-280.9979068741952
 30
0.0
 10
104.3470126274035
 20
-281.1923579852576
 30
0.0
 10
104.4536220718207
 20
-281.3822229852098
 30
0.0
 10
104.4536220718207
 20
-281.3822229852098
 30
0.0
 10
113.5260081806639
 20
-276.1442138198531
 30
0.0
 10
113.5260081806639
 20
-276.1442138198531
 30
0.0
 10
113.5260081806639
 20
-276.1442138198531
 30
0.0
 10
116.1077770689074
 20
-269.1732543771511
 30
0.0
 10
116.1077770689074
 20
-269.1732543771511
 30
0.0
 10
117.1436031797596
 20
-266.3771729889612
 30
0.0
 10
116.9056545687083
 20
-263.6991310451863
 30
0.0
 10
115.5792454023735
 20
-263.222034378639
 30
0.0
  0
SPLINE
  5
84
330
7B
100
AcDbEntity
  8
Calque 1
 62
     1
370
    13
100
AcDbSpline
210
0.0
220
0.0
230
1.0
 70
    11
 71
     3
 72
    26
 73
    22
 74
     0
 42
0.0000000001
 43
0.0000000001
 12
1.0
 22
0.0
 32
0.0
 13
1.0
 23
0.0
 33
0.0
 40
0.0
 40
0.0
 40
0.0
 40
0.0
 40
1.0
 40
1.0
 40
1.0
 40
2.0
 40
2.0
 40
2.0
 40
3.0
 40
3.0
 40
3.0
 40
4.0
 40
4.0
 40
4.0
 40
5.0
 40
5.0
 40
5.0
 40
6.0
 40
6.0
 40
6.0
 40
7.0
 40
7.0
 40
7.0
 40
7.0
 10
94.1599545743945
 20
-278.4800965970469
 30
0.0
 10
94.1599545743945
 20
-278.4800965970469
 30
0.0
 10
84.67040874343371
 20
-286.0627374284845
 30
0.0
 10
84.67040874343371
 20
-286.0627374284845
 30
0.0
 10
82.48505624398005
 20
-287.8091285391589
 30
0.0
 10
79.65440263357655
 20
-291.4802752049077
 30
0.0
 10
78.38038096722848
 20
-294.2207588153336
 30
0.0
 10
78.38038096722848
 20
-294.2207588153336
 30
0.0
 10
77.91305624512336
 20
-295.2262813150823
 30
0.0
 10
77.91305624512336
 20
-295.2262813150823
 30
0.0
 10
77.61644068964134
 20
-295.8643504815893
 30
0.0
 10
77.43176152302108
 20
-296.4730685369929
 30
0.0
 10
77.34335541193228
 20
-297.0345849257416
 30
0.0
 10
77.34335541193228
 20
-297.0345849257416
 30
0.0
 10
101.5677940169866
 20
-283.0483924292377
 30
0.0
 10
101.5677940169866
 20
-283.0483924292377
 30
0.0
 10
101.5677940169866
 20
-283.0483924292377
 30
0.0
 10
99.76573457299314
 20
-278.9852390969205
 30
0.0
 10
99.76573457299314
 20
-278.9852390969205
 30
0.0
 10
98.8679856843288
 20
-276.9610707640929
 30
0.0
 10
96.34530707384816
 20
-276.7336702085943
 30
0.0
 10
94.1599545743945
 20
-278.4800965970469
 30
0.0
  0
SPLINE
  5
85
330
7B
100
AcDbEntity
  8
Calque 1
 62
     1
370
    13
100
AcDbSpline
210
0.0
220
0.0
230
1.0
 70
    11
 71
     3
 72
    44
 73
    40
 74
     0
 42
0.0000000001
 43
0.0000000001
 12
1.0
 22
0.0
 32
0.0
 13
1.0
 23
0.0
 33
0.0
 40
0.0
 40
0.0
 40
0.0
 40
0.0
 40
1.0
 40
1.0
 40
1.0
 40
2.0
 40
2.0
 40
2.0
 40
3.0
 40
3.0
 40
3.0
 40
4.0
 40
4.0
 40
4.0
 40
5.0
 40
5.0
 40
5.0
 40
6.0
 40
6.0
 40
6.0
 40
7.0
 40
7.0
 40
7.0
 40
8.0
 40
8.0
 40
8.0
 40
9.0
 40
9.0
 40
9.0
 40
10.0
 40
10.0
 40
10.0
 40
11.0
 40
11.0
 40
11.0
 40
12.0
 40
12.0
 40
12.0
 40
13.0
 40
13.0
 40
13.0
 40
13.0
 10
77.71130263406239
 20
-284.0820313178683
 30
0.0
 10
77.71130263406239
 20
-284.0820313178683
 30
0.0
 10
75.04775985695062
 20
-265.4489441003045
 30
0.0
 10
75.04775985695062
 20
-265.4489441003045
 30
0.0
 10
74.69843930148232
 20
-263.0056052120266
 30
0.0
 10
72.60491485756123
 20
-261.2266174346932
 30
0.0
 10
70.39536180255787
 20
-261.4955046568485
 30
0.0
 10
70.39536180255787
 20
-261.4955046568485
 30
0.0
 10
64.18552041522163
 20
-262.2513310455485
 30
0.0
 10
64.18552041522163
 20
-262.2513310455485
 30
0.0
 10
61.9760026379958
 20
-262.5202888232589
 30
0.0
 10
59.07408791649925
 20
-264.9641921559815
 30
0.0
 10
57.73688375016654
 20
-267.682274377524
 30
0.0
 10
57.73688375016654
 20
-267.682274377524
 30
0.0
 10
47.20593791946635
 20
-289.0880890943944
 30
0.0
 10
47.20593791946635
 20
-289.0880890943944
 30
0.0
 10
45.86880430868996
 20
-291.8061360381594
 30
0.0
 10
44.47430903126073
 20
-295.4127949261471
 30
0.0
 10
44.10720847579685
 20
-297.1029532590576
 30
0.0
 10
43.7401431981105
 20
-298.7927235364128
 30
0.0
 10
45.15686347553421
 20
-300.2882190915945
 30
0.0
 10
47.25543264167653
 20
-300.4256613137825
 30
0.0
 10
47.25543264167653
 20
-300.4256613137825
 30
0.0
 10
67.89003985874002
 20
-301.7776468689999
 30
0.0
 10
67.89003985874002
 20
-301.7776468689999
 30
0.0
 10
68.28194069197527
 20
-301.8032938134381
 30
0.0
 10
68.66646846965696
 20
-301.8212502023226
 30
0.0
 10
69.03420402512003
 20
-301.8319746467642
 30
0.0
 10
69.03420402512003
 20
-301.8319746467642
 30
0.0
 10
73.25169763517714
 20
-299.3969965918175
 30
0.0
 10
73.25169763517714
 20
-299.3969965918175
 30
0.0
 10
73.70314735728684
 20
-298.4801624253797
 30
0.0
 10
74.24067485715173
 20
-297.3567063145499
 30
0.0
 10
74.78963235701505
 20
-296.1756768704003
 30
0.0
 10
74.78963235701505
 20
-296.1756768704003
 30
0.0
 10
76.03003430114966
 20
-293.5074068710675
 30
0.0
 10
76.03003430114966
 20
-293.5074068710675
 30
0.0
 10
77.30405596749709
 20
-290.7667468717527
 30
0.0
 10
78.0606584673082
 20
-286.5252996505911
 30
0.0
 10
77.71130263406239
 20
-284.0820313178683
 30
0.0
  0
SPLINE
  5
86
330
7B
100
AcDbEntity
  8
Calque 1
 62
     1
370
    13
100
AcDbSpline
210
0.0
220
0.0
230
1.0
 70
    11
 71
     3
 72
    26
 73
    22
 74
     0
 42
0.0000000001
 43
0.0000000001
 12
1.0
 22
0.0
 32
0.0
 13
1.0
 23
0.0
 33
0.0
 40
0.0
 40
0.0
 40
0.0
 40
0.0
 40
1.0
 40
1.0
 40
1.0
 40
2.0
 40
2.0
 40
2.0
 40
3.0
 40
3.0
 40
3.0
 40
4.0
 40
4.0
 40
4.0
 40
5.0
 40
5.0
 40
5.0
 40
6.0
 40
6.0
 40
6.0
 40
7.0
 40
7.0
 40
7.0
 40
7.0
 10
39.80466014353905
 20
-178.7505243997569
 30
0.0
 10
40.932420143257
 20
-178.9029243997184
 30
0.0
 10
43.21961958713
 20
-177.1618249557098
 30
0.0
 10
44.88705903115692
 20
-174.8816810673908
 30
0.0
 10
46.38096708633932
 20
-172.8388860679014
 30
0.0
 10
46.9179654195382
 20
-170.7231366239858
 30
0.0
 10
46.23738653081993
 20
-169.8553032908697
 30
0.0
 10
46.15825847528356
 20
-169.754444124228
 30
0.0
 10
46.06667736419555
 20
-169.6664260686945
 30
0.0
 10
45.95417653089027
 20
-169.6014444020442
 30
0.0
 10
45.84675569758436
 20
-169.539426068726
 30
0.0
 10
45.72557653094769
 20
-169.5053477354016
 30
0.0
 10
45.59772986431299
 20
-169.4860155131842
 30
0.0
 10
44.43973680904652
 20
-169.3108966243391
 30
0.0
 10
42.51614542063923
 20
-170.8313688461811
 30
0.0
 10
41.07021514322214
 20
-173.151694123379
 30
0.0
 10
41.07021514322214
 20
-173.151694123379
 30
0.0
 10
40.67302264332176
 20
-173.7890930121081
 30
0.0
 10
40.67302264332176
 20
-173.7890930121081
 30
0.0
 10
39.06753097705665
 20
-176.3655702336864
 30
0.0
 10
38.67668847715468
 20
-178.5981949553505
 30
0.0
 10
39.80466014353905
 20
-178.7505243997569
 30
0.0
  0
SPLINE
  5
87
330
7B
100
AcDbEntity
  8
Calque 1
 62
     1
370
    13
100
AcDbSpline
210
0.0
220
0.0
230
1.0
 70
    11
 71
     3
 72
    29
 73
    25
 74
     0
 42
0.0000000001
 43
0.0000000001
 12
1.0
 22
0.0
 32
0.0
 13
1.0
 23
0.0
 33
0.0
 40
0.0
 40
0.0
 40
0.0
 40
0.0
 40
1.0
 40
1.0
 40
1.0
 40
2.0
 40
2.0
 40
2.0
 40
3.0
 40
3.0
 40
3.0
 40
4.0
 40
4.0
 40
4.0
 40
5.0
 40
5.0
 40
5.0
 40
6.0
 40
6.0
 40
6.0
 40
7.0
 40
7.0
 40
7.0
 40
8.0
 40
8.0
 40
8.0
 40
8.0
 10
45.09618569777143
 20
-183.2800499541799
 30
0.0
 10
45.82862291981102
 20
-184.7832713426928
 30
0.0
 10
48.29217597475064
 20
-184.9674213426471
 30
0.0
 10
50.57062652973592
 20
-183.6893780096329
 30
0.0
 10
50.57062652973592
 20
-183.6893780096329
 30
0.0
 10
56.46243875048566
 20
-180.3842382882372
 30
0.0
 10
56.46243875048566
 20
-180.3842382882372
 30
0.0
 10
58.46794513887324
 20
-179.2592652329631
 30
0.0
 10
59.06297541650233
 20
-177.6869699555781
 30
0.0
 10
58.00728791676615
 20
-176.6506499558374
 30
0.0
 10
57.86353097235724
 20
-176.5095388447617
 30
0.0
 10
57.6910579168447
 20
-176.3777410670166
 30
0.0
 10
57.48538847245212
 20
-176.2589960670461
 30
0.0
 10
57.48538847245212
 20
-176.2589960670461
 30
0.0
 10
53.16241430686616
 20
-173.7631638454484
 30
0.0
 10
53.16241430686616
 20
-173.7631638454484
 30
0.0
 10
52.98747180690994
 20
-173.6621635676953
 30
0.0
 10
52.7987004180679
 20
-173.5886094010474
 30
0.0
 10
52.6031909736728
 20
-173.5305774566172
 30
0.0
 10
50.88114152965879
 20
-173.019437734523
 30
0.0
 10
48.45395986359842
 20
-174.1341802342445
 30
0.0
 10
46.90350153065319
 20
-176.2544099559365
 30
0.0
 10
45.17711291997348
 20
-178.6153399553462
 30
0.0
 10
44.36374847573249
 20
-181.7768285656669
 30
0.0
 10
45.09618569777143
 20
-183.2800499541799
 30
0.0
  0
SPLINE
  5
88
330
7B
100
AcDbEntity
  8
Calque 1
 62
     1
370
    13
100
AcDbSpline
210
0.0
220
0.0
230
1.0
 70
    11
 71
     3
 72
    20
 73
    16
 74
     0
 42
0.0000000001
 43
0.0000000001
 12
1.0
 22
0.0
 32
0.0
 13
1.0
 23
0.0
 33
0.0
 40
0.0
 40
0.0
 40
0.0
 40
0.0
 40
1.0
 40
1.0
 40
1.0
 40
2.0
 40
2.0
 40
2.0
 40
3.0
 40
3.0
 40
3.0
 40
4.0
 40
4.0
 40
4.0
 40
5.0
 40
5.0
 40
5.0
 40
5.0
 10
143.556671589823
 20
-254.21314826978
 30
0.0
 10
143.556671589823
 20
-254.21314826978
 30
0.0
 10
138.7474320632475
 20
-255.8536707693696
 30
0.0
 10
138.7474320632475
 20
-255.8536707693696
 30
0.0
 10
136.4636898415965
 20
-256.632851046953
 30
0.0
 10
133.4125853979145
 20
-258.4480338242768
 30
0.0
 10
131.9672548427204
 20
-259.8874729905834
 30
0.0
 10
130.5709251208473
 20
-261.2779466013472
 30
0.0
 10
129.428101510022
 20
-264.4258532672266
 30
0.0
 10
129.3574401211506
 20
-267.0037768776936
 30
0.0
 10
129.3574401211506
 20
-267.0037768776936
 30
0.0
 10
149.0305162273435
 20
-255.6453202138663
 30
0.0
 10
149.0305162273435
 20
-255.6453202138663
 30
0.0
 10
147.8318831720877
 20
-254.1760007697895
 30
0.0
 10
145.5487759504359
 20
-253.533486603283
 30
0.0
 10
143.556671589823
 20
-254.21314826978
 30
0.0
  0
SPLINE
  5
89
330
7B
100
AcDbEntity
  8
Calque 1
 62
     1
370
    13
100
AcDbSpline
210
0.0
220
0.0
230
1.0
 70
    11
 71
     3
 72
    41
 73
    37
 74
     0
 42
0.0000000001
 43
0.0000000001
 12
1.0
 22
0.0
 32
0.0
 13
1.0
 23
0.0
 33
0.0
 40
0.0
 40
0.0
 40
0.0
 40
0.0
 40
1.0
 40
1.0
 40
1.0
 40
2.0
 40
2.0
 40
2.0
 40
3.0
 40
3.0
 40
3.0
 40
4.0
 40
4.0
 40
4.0
 40
5.0
 40
5.0
 40
5.0
 40
6.0
 40
6.0
 40
6.0
 40
7.0
 40
7.0
 40
7.0
 40
8.0
 40
8.0
 40
8.0
 40
9.0
 40
9.0
 40
9.0
 40
10.0
 40
10.0
 40
10.0
 40
11.0
 40
11.0
 40
11.0
 40
12.0
 40
12.0
 40
12.0
 40
12.0
 10
67.20067680335652
 20
-213.738636335454
 30
0.0
 10
67.20067680335652
 20
-213.738636335454
 30
0.0
 10
65.07254485944433
 20
-230.9278746644904
 30
0.0
 10
65.07254485944433
 20
-230.9278746644904
 30
0.0
 10
64.73253763730663
 20
-233.6742849415813
 30
0.0
 10
66.31841485913232
 20
-234.8737646635039
 30
0.0
 10
68.59668902522935
 20
-233.5935693860463
 30
0.0
 10
68.59668902522935
 20
-233.5935693860463
 30
0.0
 10
97.76834207349279
 20
-217.2003741123669
 30
0.0
 10
97.76834207349279
 20
-217.2003741123669
 30
0.0
 10
100.0466162395898
 20
-215.9199318904647
 30
0.0
 10
103.1155712388224
 20
-212.9533882800949
 30
0.0
 10
104.5879951273427
 20
-210.6079099473478
 30
0.0
 10
106.0604895714194
 20
-208.2623963368232
 30
0.0
 10
107.3701065155368
 20
-206.1016324484745
 30
0.0
 10
107.4983412377267
 20
-205.8060399485482
 30
0.0
 10
107.5843837377051
 20
-205.6076730041535
 30
0.0
 10
107.0260070711779
 20
-205.0680641153996
 30
0.0
 10
106.131997626957
 20
-204.4354630044466
 30
0.0
 10
105.6937065159557
 20
-204.1253360600796
 30
0.0
 10
105.1760404049735
 20
-203.7932310601628
 30
0.0
 10
104.611525405115
 20
-203.4672996713554
 30
0.0
 10
104.611525405115
 20
-203.4672996713554
 30
0.0
 10
88.42308235360692
 20
-194.1209110625806
 30
0.0
 10
88.42308235360692
 20
-194.1209110625806
 30
0.0
 10
88.24246013142962
 20
-194.0166299514958
 30
0.0
 10
88.0432817981462
 20
-193.9365846737381
 30
0.0
 10
87.83436679819809
 20
-193.8713207848657
 30
0.0
 10
86.05834235419813
 20
-193.3165777294488
 30
0.0
 10
83.3647076326492
 20
-194.1407371736871
 30
0.0
 10
81.4865540220072
 20
-195.9051552288016
 30
0.0
 10
81.4865540220072
 20
-195.9051552288016
 30
0.0
 10
71.63551680224792
 20
-205.1597510598214
 30
0.0
 10
71.63551680224792
 20
-205.1597510598214
 30
0.0
 10
69.5364184694396
 20
-207.1317435593281
 30
0.0
 10
67.54071930327173
 20
-210.9922260583631
 30
0.0
 10
67.20067680335652
 20
-213.738636335454
 30
0.0
  0
SPLINE
  5
8A
330
7B
100
AcDbEntity
  8
Calque 1
 62
     1
370
    13
100
AcDbSpline
210
0.0
220
0.0
230
1.0
 70
    11
 71
     3
 72
    35
 73
    31
 74
     0
 42
0.0000000001
 43
0.0000000001
 12
1.0
 22
0.0
 32
0.0
 13
1.0
 23
0.0
 33
0.0
 40
0.0
 40
0.0
 40
0.0
 40
0.0
 40
1.0
 40
1.0
 40
1.0
 40
2.0
 40
2.0
 40
2.0
 40
3.0
 40
3.0
 40
3.0
 40
4.0
 40
4.0
 40
4.0
 40
5.0
 40
5.0
 40
5.0
 40
6.0
 40
6.0
 40
6.0
 40
7.0
 40
7.0
 40
7.0
 40
8.0
 40
8.0
 40
8.0
 40
9.0
 40
9.0
 40
9.0
 40
10.0
 40
10.0
 40
10.0
 40
10.0
 10
110.6043026258391
 20
-210.9065716139401
 30
0.0
 10
110.6043026258391
 20
-210.9065716139401
 30
0.0
 10
116.1065070689077
 20
-242.1156574394708
 30
0.0
 10
116.1065070689077
 20
-242.1156574394708
 30
0.0
 10
116.5290642910249
 20
-244.5125354944276
 30
0.0
 10
118.485146512758
 20
-245.2191846609176
 30
0.0
 10
120.4532584567106
 20
-243.685906605745
 30
0.0
 10
122.4213704006625
 20
-242.1526638283505
 30
0.0
 10
123.8253906780894
 20
-238.8522866069539
 30
0.0
 10
123.5730840114856
 20
-236.3517977186896
 30
0.0
 10
123.5730840114856
 20
-236.3517977186896
 30
0.0
 10
121.6821598452917
 20
-217.6046574455987
 30
0.0
 10
121.6821598452917
 20
-217.6046574455987
 30
0.0
 10
121.4618854009021
 20
-215.4211041128114
 30
0.0
 10
120.2058906789942
 20
-212.9664763356471
 30
0.0
 10
118.7483892904692
 20
-211.7195480026258
 30
0.0
 10
118.5368990127448
 20
-211.5385730026707
 30
0.0
 10
118.3212106794655
 20
-211.3825746693766
 30
0.0
 10
118.1037584572974
 20
-211.2570210582967
 30
0.0
 10
118.1037584572974
 20
-211.2570210582967
 30
0.0
 10
112.9783912363566
 20
-208.2979210590368
 30
0.0
 10
112.9783912363566
 20
-208.2979210590368
 30
0.0
 10
111.2624448478971
 20
-207.307215225951
 30
0.0
 10
109.8534856815822
 20
-206.5083499483731
 30
0.0
 10
109.847170959362
 20
-206.5226374483693
 30
0.0
 10
109.8466065149178
 20
-206.5240132817021
 30
0.0
 10
109.8501695704723
 20
-206.5489193928074
 30
0.0
 10
109.855778737137
 20
-206.5853966150204
 30
0.0
 10
109.9084131815682
 20
-206.9269913371574
 30
0.0
 10
110.2224559592681
 20
-208.7410452255922
 30
0.0
 10
110.6043026258391
 20
-210.9065716139401
 30
0.0
  0
SPLINE
  5
8B
330
7B
100
AcDbEntity
  8
Calque 1
 62
     1
370
    13
100
AcDbSpline
210
0.0
220
0.0
230
1.0
 70
    11
 71
     3
 72
    32
 73
    28
 74
     0
 42
0.0000000001
 43
0.0000000001
 12
1.0
 22
0.0
 32
0.0
 13
1.0
 23
0.0
 33
0.0
 40
0.0
 40
0.0
 40
0.0
 40
0.0
 40
1.0
 40
1.0
 40
1.0
 40
2.0
 40
2.0
 40
2.0
 40
3.0
 40
3.0
 40
3.0
 40
4.0
 40
4.0
 40
4.0
 40
5.0
 40
5.0
 40
5.0
 40
6.0
 40
6.0
 40
6.0
 40
7.0
 40
7.0
 40
7.0
 40
8.0
 40
8.0
 40
8.0
 40
9.0
 40
9.0
 40
9.0
 40
9.0
 10
126.3573473441231
 20
-235.0450029967943
 30
0.0
 10
126.6095481773937
 20
-237.5454566072804
 30
0.0
 10
127.9281609548414
 20
-239.4559952179138
 30
0.0
 10
129.2874842878348
 20
-239.2905424401777
 30
0.0
 10
130.6469840097176
 20
-239.1251954957741
 30
0.0
 10
132.5783012314562
 20
-236.6982960519364
 30
0.0
 10
133.5794492867623
 20
-233.8975932748587
 30
0.0
 10
133.5794492867623
 20
-233.8975932748587
 30
0.0
 10
135.8204348417575
 20
-227.6288379986485
 30
0.0
 10
135.8204348417575
 20
-227.6288379986485
 30
0.0
 10
136.7198065081993
 20
-225.1126504992777
 30
0.0
 10
136.3359137305168
 20
-222.3583027221885
 30
0.0
 10
135.0049184530718
 20
-221.1052360558345
 30
0.0
 10
134.854458730888
 20
-220.9636310558703
 30
0.0
 10
134.6950384531501
 20
-220.8360313336802
 30
0.0
 10
134.5207662309706
 20
-220.7353838337049
 30
0.0
 10
134.5207662309706
 20
-220.7353838337049
 30
0.0
 10
127.4400928994079
 20
-216.6473596680606
 30
0.0
 10
127.4400928994079
 20
-216.6473596680606
 30
0.0
 10
127.2226053994623
 20
-216.5218060569807
 30
0.0
 10
127.0136551217366
 20
-216.4326591125582
 30
0.0
 10
126.8147590106753
 20
-216.3766732792389
 30
0.0
 10
125.4440409554623
 20
-215.9907343904468
 30
0.0
 10
124.558357066795
 20
-217.2088407790312
 30
0.0
 10
124.778596233407
 20
-219.3924293895961
 30
0.0
 10
124.778596233407
 20
-219.3924293895961
 30
0.0
 10
126.3573473441231
 20
-235.0450029967943
 30
0.0
 10
126.3573473441231
 20
-235.0450029967943
 30
0.0
  0
SPLINE
  5
8C
330
7B
100
AcDbEntity
  8
Calque 1
 62
     1
370
    13
100
AcDbSpline
210
0.0
220
0.0
230
1.0
 70
    11
 71
     3
 72
    38
 73
    34
 74
     0
 42
0.0000000001
 43
0.0000000001
 12
1.0
 22
0.0
 32
0.0
 13
1.0
 23
0.0
 33
0.0
 40
0.0
 40
0.0
 40
0.0
 40
0.0
 40
1.0
 40
1.0
 40
1.0
 40
2.0
 40
2.0
 40
2.0
 40
3.0
 40
3.0
 40
3.0
 40
4.0
 40
4.0
 40
4.0
 40
5.0
 40
5.0
 40
5.0
 40
6.0
 40
6.0
 40
6.0
 40
7.0
 40
7.0
 40
7.0
 40
8.0
 40
8.0
 40
8.0
 40
9.0
 40
9.0
 40
9.0
 40
10.0
 40
10.0
 40
10.0
 40
11.0
 40
11.0
 40
11.0
 40
11.0
 10
48.8339015301705
 20
-210.1307074474673
 30
0.0
 10
49.26831208561766
 20
-211.5472866137797
 30
0.0
 10
51.49472791839403
 20
-212.0307685581035
 30
0.0
 10
53.78136291782286
 20
-211.2051980027542
 30
0.0
 10
53.78136291782286
 20
-211.2051980027542
 30
0.0
 10
62.13150708240148
 20
-208.1902180035082
 30
0.0
 10
62.13150708240148
 20
-208.1902180035082
 30
0.0
 10
64.41814208183031
 20
-207.3646474481588
 30
0.0
 10
68.00659763648828
 20
-205.075613559842
 30
0.0
 10
70.10573124707476
 20
-203.1036210603353
 30
0.0
 10
70.10573124707476
 20
-203.1036210603353
 30
0.0
 10
79.18344430036127
 20
-194.5756063402452
 30
0.0
 10
79.18344430036127
 20
-194.5756063402452
 30
0.0
 10
81.06159791100264
 20
-192.8110824517974
 30
0.0
 10
81.50521596644718
 20
-190.687818841217
 30
0.0
 10
80.34979818895825
 20
-189.5501105081679
 30
0.0
 10
80.21383763343695
 20
-189.4162666193126
 30
0.0
 10
80.06080263347496
 20
-189.2929355082325
 30
0.0
 10
79.88018041129769
 20
-189.1886543971476
 30
0.0
 10
79.88018041129769
 20
-189.1886543971476
 30
0.0
 10
67.98229124760603
 20
-182.3194007877536
 30
0.0
 10
67.98229124760603
 20
-182.3194007877536
 30
0.0
 10
67.81168791431486
 20
-182.2209052322224
 30
0.0
 10
67.62894902547164
 20
-182.1512668989068
 30
0.0
 10
67.44063624774121
 20
-182.0970096766981
 30
0.0
 10
65.73502624816743
 20
-181.6057666212654
 30
0.0
 10
63.39092374875319
 20
-182.8835982876125
 30
0.0
 10
61.94682791578122
 20
-185.2051935648096
 30
0.0
 10
61.94682791578122
 20
-185.2051935648096
 30
0.0
 10
50.95956402963899
 20
-202.8681066159495
 30
0.0
 10
50.95956402963899
 20
-202.8681066159495
 30
0.0
 10
49.35594208559589
 20
-205.446065504194
 30
0.0
 10
48.39949097472334
 20
-208.7140930033768
 30
0.0
 10
48.8339015301705
 20
-210.1307074474673
 30
0.0
  0
SPLINE
  5
8D
330
7B
100
AcDbEntity
  8
Calque 1
 62
     1
370
    13
100
AcDbSpline
210
0.0
220
0.0
230
1.0
 70
    11
 71
     3
 72
    41
 73
    37
 74
     0
 42
0.0000000001
 43
0.0000000001
 12
1.0
 22
0.0
 32
0.0
 13
1.0
 23
0.0
 33
0.0
 40
0.0
 40
0.0
 40
0.0
 40
0.0
 40
1.0
 40
1.0
 40
1.0
 40
2.0
 40
2.0
 40
2.0
 40
3.0
 40
3.0
 40
3.0
 40
4.0
 40
4.0
 40
4.0
 40
5.0
 40
5.0
 40
5.0
 40
6.0
 40
6.0
 40
6.0
 40
7.0
 40
7.0
 40
7.0
 40
8.0
 40
8.0
 40
8.0
 40
9.0
 40
9.0
 40
9.0
 40
10.0
 40
10.0
 40
10.0
 40
11.0
 40
11.0
 40
11.0
 40
12.0
 40
12.0
 40
12.0
 40
12.0
 10
152.3593273376229
 20
-231.1248304977741
 30
0.0
 10
152.2128892821033
 20
-230.9856596644761
 30
0.0
 10
152.0569615043648
 20
-230.8599649422848
 30
0.0
 10
151.8846648377411
 20
-230.7604816089766
 30
0.0
 10
151.8846648377411
 20
-230.7604816089766
 30
0.0
 10
142.9347021427568
 20
-225.5932043880463
 30
0.0
 10
142.9347021427568
 20
-225.5932043880463
 30
0.0
 10
142.7604027566888
 20
-225.4925568880716
 30
0.0
 10
142.5799428122897
 20
-225.4239416103105
 30
0.0
 10
142.3970098956685
 20
-225.373071054768
 30
0.0
 10
140.7787617849616
 20
-224.9233852215472
 30
0.0
 10
138.8937995632108
 20
-226.3677985545194
 30
0.0
 10
137.9944278967691
 20
-228.8839860538902
 30
0.0
 10
137.9944278967691
 20
-228.8839860538902
 30
0.0
 10
135.767659286215
 20
-235.1127010523329
 30
0.0
 10
135.767659286215
 20
-235.1127010523329
 30
0.0
 10
134.766546508687
 20
-237.9134391071881
 30
0.0
 10
134.1862623421657
 20
-242.2320388283308
 30
0.0
 10
134.4781506754261
 20
-244.7096324388227
 30
0.0
 10
134.4781506754261
 20
-244.7096324388227
 30
0.0
 10
135.0136320641814
 20
-249.2531985487978
 30
0.0
 10
135.0136320641814
 20
-249.2531985487978
 30
0.0
 10
135.3056262307743
 20
-251.7308627148453
 30
0.0
 10
137.4130148413594
 20
-253.1205954922754
 30
0.0
 10
139.6967429518991
 20
-252.3414857702477
 30
0.0
 10
139.6967429518991
 20
-252.3414857702477
 30
0.0
 10
143.7000722286764
 20
-250.9757066039228
 30
0.0
 10
143.7000722286764
 20
-250.9757066039228
 30
0.0
 10
145.9838708947718
 20
-250.1966321596733
 30
0.0
 10
148.8063612273998
 20
-247.2919657715103
 30
0.0
 10
149.9726092826636
 20
-244.5206846610917
 30
0.0
 10
149.9726092826636
 20
-244.5206846610917
 30
0.0
 10
152.8843312263805
 20
-237.6003841072665
 30
0.0
 10
152.8843312263805
 20
-237.6003841072665
 30
0.0
 10
153.9334217816737
 20
-235.1074093856677
 30
0.0
 10
153.6710256706281
 20
-232.3714060530182
 30
0.0
 10
152.3593273376229
 20
-231.1248304977741
 30
0.0
  0
SPLINE
  5
8E
330
7B
100
AcDbEntity
  8
Calque 1
 62
     1
370
    13
100
AcDbSpline
210
0.0
220
0.0
230
1.0
 70
    11
 71
     3
 72
    32
 73
    28
 74
     0
 42
0.0000000001
 43
0.0000000001
 12
1.0
 22
0.0
 32
0.0
 13
1.0
 23
0.0
 33
0.0
 40
0.0
 40
0.0
 40
0.0
 40
0.0
 40
1.0
 40
1.0
 40
1.0
 40
2.0
 40
2.0
 40
2.0
 40
3.0
 40
3.0
 40
3.0
 40
4.0
 40
4.0
 40
4.0
 40
5.0
 40
5.0
 40
5.0
 40
6.0
 40
6.0
 40
6.0
 40
7.0
 40
7.0
 40
7.0
 40
8.0
 40
8.0
 40
8.0
 40
9.0
 40
9.0
 40
9.0
 40
9.0
 10
128.4155940102751
 20
-242.6839471615515
 30
0.0
 10
126.8531765106654
 20
-242.8741296615039
 30
0.0
 10
123.7778715114344
 20
-244.4295974388929
 30
0.0
 10
121.5816181786502
 20
-246.140604938465
 30
0.0
 10
121.5816181786502
 20
-246.140604938465
 30
0.0
 10
120.9533915121405
 20
-246.62990771612
 30
0.0
 10
120.9533915121405
 20
-246.62990771612
 30
0.0
 10
118.7573498460233
 20
-248.3408799379146
 30
0.0
 10
116.540741235466
 20
-251.8687635481436
 30
0.0
 10
116.0276965133722
 20
-254.4696529919381
 30
0.0
 10
115.514687069056
 20
-257.0704718801769
 30
0.0
 10
116.2840954021972
 20
-259.6260999350936
 30
0.0
 10
117.7376104018336
 20
-260.1488460460739
 30
0.0
 10
119.1910901236925
 20
-260.6716979903873
 30
0.0
 10
122.0522237340877
 20
-260.9567071569833
 30
0.0
 10
124.0955479002444
 20
-260.7822938236931
 30
0.0
 10
126.138907344178
 20
-260.6079157681817
 30
0.0
 10
128.9348828990341
 20
-259.3459943796081
 30
0.0
 10
130.3086701209131
 20
-257.9780279910609
 30
0.0
 10
131.6825631761253
 20
-256.6099910469586
 30
0.0
 10
132.5676120647928
 20
-253.463636603301
 30
0.0
 10
132.2755826204216
 20
-250.985937159476
 30
0.0
 10
132.2755826204216
 20
-250.985937159476
 30
0.0
 10
131.7874440094318
 20
-246.8431971605114
 30
0.0
 10
131.7874440094318
 20
-246.8431971605114
 30
0.0
 10
131.495344009505
 20
-244.365568272242
 30
0.0
 10
129.9780115098848
 20
-242.4939410504879
 30
0.0
 10
128.4155940102751
 20
-242.6839471615515
 30
0.0
  0
SPLINE
  5
8F
330
7B
100
AcDbEntity
  8
Calque 1
 62
     1
370
    13
100
AcDbSpline
210
0.0
220
0.0
230
1.0
 70
    11
 71
     3
 72
    23
 73
    19
 74
     0
 42
0.0000000001
 43
0.0000000001
 12
1.0
 22
0.0
 32
0.0
 13
1.0
 23
0.0
 33
0.0
 40
0.0
 40
0.0
 40
0.0
 40
0.0
 40
1.0
 40
1.0
 40
1.0
 40
2.0
 40
2.0
 40
2.0
 40
3.0
 40
3.0
 40
3.0
 40
4.0
 40
4.0
 40
4.0
 40
5.0
 40
5.0
 40
5.0
 40
6.0
 40
6.0
 40
6.0
 40
6.0
 10
39.80547153242777
 20
-305.6007702013774
 30
0.0
 10
38.68603708826344
 20
-306.741794645537
 30
0.0
 10
36.64518236655109
 20
-309.886702700306
 30
0.0
 10
35.26998403356168
 20
-312.5895801996306
 30
0.0
 10
35.26998403356168
 20
-312.5895801996306
 30
0.0
 10
30.44514820143457
 20
-322.0734110305928
 30
0.0
 10
30.44514820143457
 20
-322.0734110305928
 30
0.0
 10
30.03183375709293
 20
-322.8857524192786
 30
0.0
 10
29.56108709054404
 20
-323.8613240857015
 30
0.0
 10
29.07587653511014
 20
-324.9023007521075
 30
0.0
 10
29.07587653511014
 20
-324.9023007521075
 30
0.0
 10
63.62700263758315
 20
-304.9538815904282
 30
0.0
 10
63.62700263758315
 20
-304.9538815904282
 30
0.0
 10
63.62700263758315
 20
-304.9538815904282
 30
0.0
 10
45.65653791985376
 20
-303.7762740907223
 30
0.0
 10
45.65653791985376
 20
-303.7762740907223
 30
0.0
 10
43.55789819815576
 20
-303.6386907574236
 30
0.0
 10
40.92494125437026
 20
-304.4596752016627
 30
0.0
 10
39.80547153242777
 20
-305.6007702013774
 30
0.0
  0
SPLINE
  5
90
330
7B
100
AcDbEntity
  8
Calque 1
 62
     1
370
    13
100
AcDbSpline
210
0.0
220
0.0
230
1.0
 70
    11
 71
     3
 72
    26
 73
    22
 74
     0
 42
0.0000000001
 43
0.0000000001
 12
1.0
 22
0.0
 32
0.0
 13
1.0
 23
0.0
 33
0.0
 40
0.0
 40
0.0
 40
0.0
 40
0.0
 40
1.0
 40
1.0
 40
1.0
 40
2.0
 40
2.0
 40
2.0
 40
3.0
 40
3.0
 40
3.0
 40
4.0
 40
4.0
 40
4.0
 40
5.0
 40
5.0
 40
5.0
 40
6.0
 40
6.0
 40
6.0
 40
7.0
 40
7.0
 40
7.0
 40
7.0
 10
38.81695292156351
 20
-303.0176607575792
 30
0.0
 10
39.79598181020766
 20
-302.0196171467173
 30
0.0
 10
40.91531042103878
 20
-299.7376035361768
 30
0.0
 10
41.30445958760826
 20
-297.94633909218
 30
0.0
 10
41.69360875417773
 20
-296.1550040926282
 30
0.0
 10
41.13491458765101
 20
-293.1733968711511
 30
0.0
 10
40.06306986569669
 20
-291.3203610382814
 30
0.0
 10
40.06306986569669
 20
-291.3203610382814
 30
0.0
 10
27.93333514650693
 20
-270.3502268768565
 30
0.0
 10
27.93333514650693
 20
-270.3502268768565
 30
0.0
 10
27.7750084798798
 20
-270.0765418769252
 30
0.0
 10
27.58524931326016
 20
-269.8584899325353
 30
0.0
 10
27.37569931331285
 20
-269.6830182659125
 30
0.0
 10
27.37569931331285
 20
-269.6830182659125
 30
0.0
 10
27.37552292442398
 20
-299.3079554807288
 30
0.0
 10
27.37552292442398
 20
-299.3079554807288
 30
0.0
 10
27.37552292442398
 20
-299.3079554807288
 30
0.0
 10
33.90946125612369
 20
-303.0438368686834
 30
0.0
 10
33.90946125612369
 20
-303.0438368686834
 30
0.0
 10
35.62953514458249
 20
-304.0274518684378
 30
0.0
 10
37.83785347736368
 20
-304.0156338128847
 30
0.0
 10
38.81695292156351
 20
-303.0176607575792
 30
0.0
  0
SPLINE
  5
91
330
7B
100
AcDbEntity
  8
Calque 1
 62
     1
370
    13
100
AcDbSpline
210
0.0
220
0.0
230
1.0
 70
    11
 71
     3
 72
    41
 73
    37
 74
     0
 42
0.0000000001
 43
0.0000000001
 12
1.0
 22
0.0
 32
0.0
 13
1.0
 23
0.0
 33
0.0
 40
0.0
 40
0.0
 40
0.0
 40
0.0
 40
1.0
 40
1.0
 40
1.0
 40
2.0
 40
2.0
 40
2.0
 40
3.0
 40
3.0
 40
3.0
 40
4.0
 40
4.0
 40
4.0
 40
5.0
 40
5.0
 40
5.0
 40
6.0
 40
6.0
 40
6.0
 40
7.0
 40
7.0
 40
7.0
 40
8.0
 40
8.0
 40
8.0
 40
9.0
 40
9.0
 40
9.0
 40
10.0
 40
10.0
 40
10.0
 40
11.0
 40
11.0
 40
11.0
 40
12.0
 40
12.0
 40
12.0
 40
12.0
 10
59.16147097203292
 20
-255.5735652138841
 30
0.0
 10
59.97197791627494
 20
-257.6760854911362
 30
0.0
 10
62.44290402676812
 20
-259.1762377129838
 30
0.0
 10
64.65238652621579
 20
-258.9072799352734
 30
0.0
 10
64.65238652621579
 20
-258.9072799352734
 30
0.0
 10
71.44455819118427
 20
-258.0805452132576
 30
0.0
 10
71.44455819118427
 20
-258.0805452132576
 30
0.0
 10
73.6539701350769
 20
-257.8116932688804
 30
0.0
 10
77.11482596754473
 20
-255.8543057693701
 30
0.0
 10
79.13532541148398
 20
-253.7308304921226
 30
0.0
 10
79.13532541148398
 20
-253.7308304921226
 30
0.0
 10
86.54157735407682
 20
-245.9471768829576
 30
0.0
 10
86.54157735407682
 20
-245.9471768829576
 30
0.0
 10
88.56197096468286
 20
-243.8237016057108
 30
0.0
 10
91.17644235291789
 20
-239.8207321622671
 30
0.0
 10
92.35136874151306
 20
-237.0516382740702
 30
0.0
 10
92.35136874151306
 20
-237.0516382740702
 30
0.0
 10
97.7939890179304
 20
-224.2253438328323
 30
0.0
 10
97.7939890179304
 20
-224.2253438328323
 30
0.0
 10
98.96898596208125
 20
-221.4562852224135
 30
0.0
 10
98.06626290675136
 20
-220.2381435560515
 30
0.0
 10
95.78795346287617
 20
-221.5184799446205
 30
0.0
 10
95.78795346287617
 20
-221.5184799446205
 30
0.0
 10
67.6186126365853
 20
-237.3484302184405
 30
0.0
 10
67.6186126365853
 20
-237.3484302184405
 30
0.0
 10
65.34030319271073
 20
-238.628801884787
 30
0.0
 10
62.17772097127925
 20
-241.7945591062183
 30
0.0
 10
60.59057374945388
 20
-244.3835246611264
 30
0.0
 10
60.59057374945388
 20
-244.3835246611264
 30
0.0
 10
59.95056430516919
 20
-245.4276763275323
 30
0.0
 10
59.95056430516919
 20
-245.4276763275323
 30
0.0
 10
58.36348763889887
 20
-248.0166418824404
 30
0.0
 10
57.72806430572507
 20
-251.8551110481474
 30
0.0
 10
58.53857124996645
 20
-253.957666603177
 30
0.0
 10
58.53857124996645
 20
-253.957666603177
 30
0.0
 10
59.16147097203292
 20
-255.5735652138841
 30
0.0
 10
59.16147097203292
 20
-255.5735652138841
 30
0.0
  0
SPLINE
  5
92
330
7B
100
AcDbEntity
  8
Calque 1
 62
     1
370
    13
100
AcDbSpline
210
0.0
220
0.0
230
1.0
 70
    11
 71
     3
 72
    38
 73
    34
 74
     0
 42
0.0000000001
 43
0.0000000001
 12
1.0
 22
0.0
 32
0.0
 13
1.0
 23
0.0
 33
0.0
 40
0.0
 40
0.0
 40
0.0
 40
0.0
 40
1.0
 40
1.0
 40
1.0
 40
2.0
 40
2.0
 40
2.0
 40
3.0
 40
3.0
 40
3.0
 40
4.0
 40
4.0
 40
4.0
 40
5.0
 40
5.0
 40
5.0
 40
6.0
 40
6.0
 40
6.0
 40
7.0
 40
7.0
 40
7.0
 40
8.0
 40
8.0
 40
8.0
 40
9.0
 40
9.0
 40
9.0
 40
10.0
 40
10.0
 40
10.0
 40
11.0
 40
11.0
 40
11.0
 40
11.0
 10
55.81346875064749
 20
-255.8529652138147
 30
0.0
 10
55.00299708418363
 20
-253.7504449365626
 30
0.0
 10
52.69956986253747
 20
-251.7061682704065
 30
0.0
 10
50.69487486303861
 20
-251.3101752149501
 30
0.0
 10
50.69487486303861
 20
-251.3101752149501
 30
0.0
 10
48.33680236362784
 20
-250.8443321595111
 30
0.0
 10
48.33680236362784
 20
-250.8443321595111
 30
0.0
 10
46.33203680857394
 20
-250.4484096596104
 30
0.0
 10
42.86472514277384
 20
-251.4068010482594
 30
0.0
 10
40.63171236555448
 20
-252.9742279923121
 30
0.0
 10
40.63171236555448
 20
-252.9742279923121
 30
0.0
 10
32.9010107008204
 20
-258.4004441020667
 30
0.0
 10
32.9010107008204
 20
-258.4004441020667
 30
0.0
 10
30.6679979236004
 20
-259.9678710461188
 30
0.0
 10
28.65092042410558
 20
-261.7994227123278
 30
0.0
 10
28.41879264638539
 20
-262.4705471566048
 30
0.0
 10
28.18641792422128
 20
-263.1418479897699
 30
0.0
 10
28.87352320182686
 20
-265.2068679892539
 30
0.0
 10
29.9454384793375
 20
-267.0599390999017
 30
0.0
 10
29.9454384793375
 20
-267.0599390999017
 30
0.0
 10
41.71869125417182
 20
-287.4138763170356
 30
0.0
 10
41.71869125417182
 20
-287.4138763170356
 30
0.0
 10
42.79046542056982
 20
-289.2668415943497
 30
0.0
 10
44.76157597563272
 20
-288.5589577056382
 30
0.0
 10
46.09874486418791
 20
-285.8411224285396
 30
0.0
 10
46.09874486418791
 20
-285.8411224285396
 30
0.0
 10
55.5955931951472
 20
-266.5370871555876
 30
0.0
 10
55.5955931951472
 20
-266.5370871555876
 30
0.0
 10
56.93283263925678
 20
-263.81893437849
 30
0.0
 10
57.36378597248201
 20
-259.8748435461422
 30
0.0
 10
56.55338486157383
 20
-257.7722879911126
 30
0.0
 10
56.55338486157383
 20
-257.7722879911126
 30
0.0
 10
55.81346875064749
 20
-255.8529652138147
 30
0.0
 10
55.81346875064749
 20
-255.8529652138147
 30
0.0
  0
SPLINE
  5
93
330
7B
100
AcDbEntity
  8
Calque 1
 62
     1
370
    13
100
AcDbSpline
210
0.0
220
0.0
230
1.0
 70
    11
 71
     3
 72
    32
 73
    28
 74
     0
 42
0.0000000001
 43
0.0000000001
 12
1.0
 22
0.0
 32
0.0
 13
1.0
 23
0.0
 33
0.0
 40
0.0
 40
0.0
 40
0.0
 40
0.0
 40
1.0
 40
1.0
 40
1.0
 40
2.0
 40
2.0
 40
2.0
 40
3.0
 40
3.0
 40
3.0
 40
4.0
 40
4.0
 40
4.0
 40
5.0
 40
5.0
 40
5.0
 40
6.0
 40
6.0
 40
6.0
 40
7.0
 40
7.0
 40
7.0
 40
8.0
 40
8.0
 40
8.0
 40
9.0
 40
9.0
 40
9.0
 40
9.0
 10
28.63892597966362
 20
-226.0656796657058
 30
0.0
 10
28.97487625735706
 20
-226.2285924434426
 30
0.0
 10
31.12480986793092
 20
-225.5530582769449
 30
0.0
 10
33.41656014513601
 20
-224.5643632771924
 30
0.0
 10
33.41656014513601
 20
-224.5643632771924
 30
0.0
 10
39.7603512546608
 20
-221.8276896667655
 30
0.0
 10
39.7603512546608
 20
-221.8276896667655
 30
0.0
 10
42.05213680964341
 20
-220.8388888336792
 30
0.0
 10
44.62244042011222
 20
-218.8813955008351
 30
0.0
 10
45.4722820865663
 20
-217.4774457789639
 30
0.0
 10
46.3220531974647
 20
-216.0735666126484
 30
0.0
 10
46.6344731973871
 20
-213.6764768910251
 30
0.0
 10
46.16647819750398
 20
-212.1505366136292
 30
0.0
 10
45.69830680873263
 20
-210.6245963362326
 30
0.0
 10
43.50752153150247
 20
-209.5970605031565
 30
0.0
 10
41.29772153205455
 20
-209.8671118919777
 30
0.0
 10
41.29772153205455
 20
-209.8671118919777
 30
0.0
 10
30.59984125695152
 20
-211.1742946694283
 30
0.0
 10
30.59984125695152
 20
-211.1742946694283
 30
0.0
 10
29.41905875724641
 20
-211.3186160582814
 30
0.0
 10
28.26180653531363
 20
-211.6100810582084
 30
0.0
 10
27.37608736886814
 20
-211.9546038359
 30
0.0
 10
27.37608736886814
 20
-211.9546038359
 30
0.0
 10
27.37605209109062
 20
-223.0378585553516
 30
0.0
 10
27.37605209109062
 20
-223.0378585553516
 30
0.0
 10
27.8623209798578
 20
-224.6778871660528
 30
0.0
 10
28.375789035285
 20
-225.9381857768489
 30
0.0
 10
28.63892597966362
 20
-226.0656796657058
 30
0.0
  0
SPLINE
  5
94
330
7B
100
AcDbEntity
  8
Calque 1
 62
     1
370
    13
100
AcDbSpline
210
0.0
220
0.0
230
1.0
 70
    11
 71
     3
 72
    26
 73
    22
 74
     0
 42
0.0000000001
 43
0.0000000001
 12
1.0
 22
0.0
 32
0.0
 13
1.0
 23
0.0
 33
0.0
 40
0.0
 40
0.0
 40
0.0
 40
0.0
 40
1.0
 40
1.0
 40
1.0
 40
2.0
 40
2.0
 40
2.0
 40
3.0
 40
3.0
 40
3.0
 40
4.0
 40
4.0
 40
4.0
 40
5.0
 40
5.0
 40
5.0
 40
6.0
 40
6.0
 40
6.0
 40
7.0
 40
7.0
 40
7.0
 40
7.0
 10
50.76497180746582
 20
-186.7852852310816
 30
0.0
 10
48.48645069692422
 20
-188.0634343974284
 30
0.0
 10
46.26881903081179
 20
-190.4256343968378
 30
0.0
 10
45.83701903091969
 20
-192.034689118658
 30
0.0
 10
45.40518375325006
 20
-193.6434616182555
 30
0.0
 10
45.48342986434138
 20
-196.8626646730068
 30
0.0
 10
46.01076208643191
 20
-199.1883168946475
 30
0.0
 10
46.01076208643191
 20
-199.1883168946475
 30
0.0
 10
46.22376930860116
 20
-200.1268821721906
 30
0.0
 10
46.22376930860116
 20
-200.1268821721906
 30
0.0
 10
46.75110153069104
 20
-202.4524638382756
 30
0.0
 10
48.49467041914465
 20
-202.2460182827718
 30
0.0
 10
50.09815125207638
 20
-199.6682710611938
 30
0.0
 10
50.09815125207638
 20
-199.6682710611938
 30
0.0
 10
59.1341659720397
 20
-185.1417993981592
 30
0.0
 10
59.1341659720397
 20
-185.1417993981592
 30
0.0
 10
60.73775263830593
 20
-182.5639816210255
 30
0.0
 10
60.18544374955451
 20
-181.500568287958
 30
0.0
 10
57.90695791679107
 20
-182.778788009861
 30
0.0
 10
57.90695791679107
 20
-182.778788009861
 30
0.0
 10
50.76497180746582
 20
-186.7852852310816
 30
0.0
 10
50.76497180746582
 20
-186.7852852310816
 30
0.0
  0
SPLINE
  5
95
330
7B
100
AcDbEntity
  8
Calque 1
 62
     1
370
    13
100
AcDbSpline
210
0.0
220
0.0
230
1.0
 70
    11
 71
     3
 72
    26
 73
    22
 74
     0
 42
0.0000000001
 43
0.0000000001
 12
1.0
 22
0.0
 32
0.0
 13
1.0
 23
0.0
 33
0.0
 40
0.0
 40
0.0
 40
0.0
 40
0.0
 40
1.0
 40
1.0
 40
1.0
 40
2.0
 40
2.0
 40
2.0
 40
3.0
 40
3.0
 40
3.0
 40
4.0
 40
4.0
 40
4.0
 40
5.0
 40
5.0
 40
5.0
 40
6.0
 40
6.0
 40
6.0
 40
7.0
 40
7.0
 40
7.0
 40
7.0
 10
43.44560903151753
 20
-201.6774816162472
 30
0.0
 10
42.91820625387196
 20
-199.351794116829
 30
0.0
 10
40.61964736555748
 20
-198.0657427282615
 30
0.0
 10
38.33788069946164
 20
-198.8193466169616
 30
0.0
 10
38.33788069946164
 20
-198.8193466169616
 30
0.0
 10
33.45021514512765
 20
-200.433693005447
 30
0.0
 10
33.45021514512765
 20
-200.433693005447
 30
0.0
 10
31.16851903458684
 20
-201.1873321719253
 30
0.0
 10
28.97237153513585
 20
-203.2486480047433
 30
0.0
 10
28.57013431301425
 20
-205.0144066154132
 30
0.0
 10
28.16793236867017
 20
-206.780129948305
 30
0.0
 10
29.64670625718955
 20
-208.0040218924437
 30
0.0
 10
31.85650625663746
 20
-207.7338293925111
 30
0.0
 10
31.85650625663746
 20
-207.7338293925111
 30
0.0
 10
40.45190153226592
 20
-206.6835746705515
 30
0.0
 10
40.45190153226592
 20
-206.6835746705515
 30
0.0
 10
42.66156042060248
 20
-206.4135232817302
 30
0.0
 10
44.03799347581405
 20
-204.289906893372
 30
0.0
 10
43.51066125372352
 20
-201.9642546717313
 30
0.0
 10
43.51066125372352
 20
-201.9642546717313
 30
0.0
 10
43.44560903151753
 20
-201.6774816162472
 30
0.0
 10
43.44560903151753
 20
-201.6774816162472
 30
0.0
  0
SPLINE
  5
96
330
7B
100
AcDbEntity
  8
Calque 1
 62
     1
370
    13
100
AcDbSpline
210
0.0
220
0.0
230
1.0
 70
    11
 71
     3
 72
    35
 73
    31
 74
     0
 42
0.0000000001
 43
0.0000000001
 12
1.0
 22
0.0
 32
0.0
 13
1.0
 23
0.0
 33
0.0
 40
0.0
 40
0.0
 40
0.0
 40
0.0
 40
1.0
 40
1.0
 40
1.0
 40
2.0
 40
2.0
 40
2.0
 40
3.0
 40
3.0
 40
3.0
 40
4.0
 40
4.0
 40
4.0
 40
5.0
 40
5.0
 40
5.0
 40
6.0
 40
6.0
 40
6.0
 40
7.0
 40
7.0
 40
7.0
 40
8.0
 40
8.0
 40
8.0
 40
9.0
 40
9.0
 40
9.0
 40
10.0
 40
10.0
 40
10.0
 40
10.0
 10
105.5880848493155
 20
-213.5702555021632
 30
0.0
 10
104.5373009606892
 20
-215.2440449461892
 30
0.0
 10
102.716297350033
 20
-218.8790671675027
 30
0.0
 10
101.5413356836603
 20
-221.648161055699
 30
0.0
 10
101.5413356836603
 20
-221.648161055699
 30
0.0
 10
94.91916762976001
 20
-237.2546971629084
 30
0.0
 10
94.91916762976001
 20
-237.2546971629084
 30
0.0
 10
93.74417068560982
 20
-240.0237910511053
 30
0.0
 10
93.55007235232448
 20
-243.9148241056878
 30
0.0
 10
94.48786151875703
 20
-245.9015274385247
 30
0.0
 10
94.48786151875703
 20
-245.9015274385247
 30
0.0
 10
101.6595515169642
 20
-261.0941141013932
 30
0.0
 10
101.6595515169642
 20
-261.0941141013932
 30
0.0
 10
102.5973406833967
 20
-263.0807468786743
 30
0.0
 10
105.227863460516
 20
-263.6497421563099
 30
0.0
 10
107.505114571058
 20
-262.3585049344104
 30
0.0
 10
107.505114571058
 20
-262.3585049344104
 30
0.0
 10
108.2514159597602
 20
-261.9352421567384
 30
0.0
 10
108.2514159597602
 20
-261.9352421567384
 30
0.0
 10
110.528561236969
 20
-260.6439343792838
 30
0.0
 10
112.8381267919471
 20
-257.3250010467797
 30
0.0
 10
113.3834154029221
 20
-254.5597877141375
 30
0.0
 10
113.9287745694522
 20
-251.7945391037178
 30
0.0
 10
114.0293162360936
 20
-247.5709424381075
 30
0.0
 10
113.6066884584214
 20
-245.1739232720399
 30
0.0
 10
113.6066884584214
 20
-245.1739232720399
 30
0.0
 10
108.2667617930897
 20
-214.8852346685008
 30
0.0
 10
108.2667617930897
 20
-214.8852346685008
 30
0.0
 10
107.8442398487513
 20
-212.4882507802114
 30
0.0
 10
106.6388334601637
 20
-211.8966424470261
 30
0.0
 10
105.5880848493155
 20
-213.5702555021632
 30
0.0
  0
SPLINE
  5
97
330
7B
100
AcDbEntity
  8
Calque 1
 62
     1
370
    13
100
AcDbSpline
210
0.0
220
0.0
230
1.0
 70
    11
 71
     3
 72
    17
 73
    13
 74
     0
 42
0.0000000001
 43
0.0000000001
 12
1.0
 22
0.0
 32
0.0
 13
1.0
 23
0.0
 33
0.0
 40
0.0
 40
0.0
 40
0.0
 40
0.0
 40
1.0
 40
1.0
 40
1.0
 40
2.0
 40
2.0
 40
2.0
 40
3.0
 40
3.0
 40
3.0
 40
4.0
 40
4.0
 40
4.0
 40
4.0
 10
123.5303273448298
 20
-264.1449716006306
 30
0.0
 10
121.8644048452458
 20
-264.2871410450396
 30
0.0
 10
119.6541815124657
 20
-266.6912157666604
 30
0.0
 10
118.6185670682799
 20
-269.4872618770729
 30
0.0
 10
118.6185670682799
 20
-269.4872618770729
 30
0.0
 10
116.8675545687177
 20
-274.2149427092241
 30
0.0
 10
116.8675545687177
 20
-274.2149427092241
 30
0.0
 10
116.8675545687177
 20
-274.2149427092241
 30
0.0
 10
126.5691551218477
 20
-268.6136429884019
 30
0.0
 10
126.5691551218477
 20
-268.6136429884019
 30
0.0
 10
126.5475298440755
 20
-266.0112013223863
 30
0.0
 10
125.1868306777486
 20
-264.0036488228878
 30
0.0
 10
123.5303273448298
 20
-264.1449716006306
 30
0.0
  0
SPLINE
  5
98
330
7B
100
AcDbEntity
  8
Calque 1
 62
     1
370
    13
100
AcDbSpline
210
0.0
220
0.0
230
1.0
 70
    11
 71
     3
 72
    38
 73
    34
 74
     0
 42
0.0000000001
 43
0.0000000001
 12
1.0
 22
0.0
 32
0.0
 13
1.0
 23
0.0
 33
0.0
 40
0.0
 40
0.0
 40
0.0
 40
0.0
 40
1.0
 40
1.0
 40
1.0
 40
2.0
 40
2.0
 40
2.0
 40
3.0
 40
3.0
 40
3.0
 40
4.0
 40
4.0
 40
4.0
 40
5.0
 40
5.0
 40
5.0
 40
6.0
 40
6.0
 40
6.0
 40
7.0
 40
7.0
 40
7.0
 40
8.0
 40
8.0
 40
8.0
 40
9.0
 40
9.0
 40
9.0
 40
10.0
 40
10.0
 40
10.0
 40
11.0
 40
11.0
 40
11.0
 40
11.0
 10
58.6127604166148
 20
-242.9774582725887
 30
0.0
 10
60.19983708288449
 20
-240.3885632732362
 30
0.0
 10
61.77657736026845
 20
-236.0231852187722
 30
0.0
 10
62.11658458240551
 20
-233.2767396639032
 30
0.0
 10
62.11658458240551
 20
-233.2767396639032
 30
0.0
 10
64.33601541518361
 20
-215.3495255017181
 30
0.0
 10
64.33601541518361
 20
-215.3495255017181
 30
0.0
 10
64.67598735954316
 20
-212.6032563357379
 30
0.0
 10
63.08330152660809
 20
-211.0316313361309
 30
0.0
 10
60.79652541606918
 20
-211.8573077248134
 30
0.0
 10
60.79652541606918
 20
-211.8573077248134
 30
0.0
 10
53.31844791793848
 20
-214.5573630019164
 30
0.0
 10
53.31844791793848
 20
-214.5573630019164
 30
0.0
 10
51.03177764073213
 20
-215.3829688350433
 30
0.0
 10
48.43554486360363
 20
-217.256783279019
 30
0.0
 10
47.54901430826942
 20
-218.7213402230973
 30
0.0
 10
46.66244847515768
 20
-220.1859677227312
 30
0.0
 10
45.96423069755454
 20
-223.5212699441198
 30
0.0
 10
45.99718014199066
 20
-226.1333777212444
 30
0.0
 10
45.99718014199066
 20
-226.1333777212444
 30
0.0
 10
46.19861625305138
 20
-242.0699021617046
 30
0.0
 10
46.19861625305138
 20
-242.0699021617046
 30
0.0
 10
46.2315656974875
 20
-244.681833549941
 30
0.0
 10
47.89886403040435
 20
-247.1430582715476
 30
0.0
 10
49.90362958545825
 20
-247.5391571603372
 30
0.0
 10
49.90362958545825
 20
-247.5391571603372
 30
0.0
 10
51.53272208505137
 20
-247.8609257713684
 30
0.0
 10
51.53272208505137
 20
-247.8609257713684
 30
0.0
 10
53.53745236232839
 20
-248.2569541046022
 30
0.0
 10
56.47623236159331
 20
-246.4625852161619
 30
0.0
 10
58.06330902786299
 20
-243.8737254945869
 30
0.0
 10
58.06330902786299
 20
-243.8737254945869
 30
0.0
 10
58.6127604166148
 20
-242.9774582725887
 30
0.0
 10
58.6127604166148
 20
-242.9774582725887
 30
0.0
  0
SPLINE
  5
99
330
7B
100
AcDbEntity
  8
Calque 1
 62
     1
370
    13
100
AcDbSpline
210
0.0
220
0.0
230
1.0
 70
    11
 71
     3
 72
    32
 73
    28
 74
     0
 42
0.0000000001
 43
0.0000000001
 12
1.0
 22
0.0
 32
0.0
 13
1.0
 23
0.0
 33
0.0
 40
0.0
 40
0.0
 40
0.0
 40
0.0
 40
1.0
 40
1.0
 40
1.0
 40
2.0
 40
2.0
 40
2.0
 40
3.0
 40
3.0
 40
3.0
 40
4.0
 40
4.0
 40
4.0
 40
5.0
 40
5.0
 40
5.0
 40
6.0
 40
6.0
 40
6.0
 40
7.0
 40
7.0
 40
7.0
 40
8.0
 40
8.0
 40
8.0
 40
9.0
 40
9.0
 40
9.0
 40
9.0
 10
32.53161708980172
 20
-255.3838766028208
 30
0.0
 10
32.53161708980172
 20
-255.3838766028208
 30
0.0
 10
39.41399403252532
 20
-250.5530082706949
 30
0.0
 10
39.41399403252532
 20
-250.5530082706949
 30
0.0
 10
41.64707736530036
 20
-248.9856166044203
 30
0.0
 10
43.44705542040609
 20
-245.5660357719416
 30
0.0
 10
43.41407069819181
 20
-242.953927994817
 30
0.0
 10
43.41407069819181
 20
-242.953927994817
 30
0.0
 10
43.2287565315717
 20
-228.2874741095951
 30
0.0
 10
43.2287565315717
 20
-228.2874741095951
 30
0.0
 10
43.19577180935743
 20
-225.675401610248
 30
0.0
 10
41.29369986538845
 20
-224.3471932772463
 30
0.0
 10
39.00202014373969
 20
-225.3358882769994
 30
0.0
 10
39.00202014373969
 20
-225.3358882769994
 30
0.0
 10
33.96495320055453
 20
-227.5088582764559
 30
0.0
 10
33.96495320055453
 20
-227.5088582764559
 30
0.0
 10
31.67327347890513
 20
-228.4974827206533
 30
0.0
 10
29.23653153507024
 20
-231.6025621643219
 30
0.0
 10
28.55002597968634
 20
-234.4088388302868
 30
0.0
 10
28.55002597968634
 20
-234.4088388302868
 30
0.0
 10
27.37594625775678
 20
-239.2085216068648
 30
0.0
 10
27.37594625775678
 20
-239.2085216068648
 30
0.0
 10
27.37594625775678
 20
-239.2085216068648
 30
0.0
 10
27.37580514664606
 20
-256.2552024359363
 30
0.0
 10
27.37580514664606
 20
-256.2552024359363
 30
0.0
 10
28.78233014629413
 20
-256.8723871580042
 30
0.0
 10
30.82491347911713
 20
-256.581804102521
 30
0.0
 10
32.53161708980172
 20
-255.3838766028208
 30
0.0
  0
SPLINE
  5
9A
330
7B
100
AcDbEntity
  8
Calque 1
 62
     1
370
    13
100
AcDbSpline
210
0.0
220
0.0
230
1.0
 70
    11
 71
     3
 72
    20
 73
    16
 74
     0
 42
0.0000000001
 43
0.0000000001
 12
1.0
 22
0.0
 32
0.0
 13
1.0
 23
0.0
 33
0.0
 40
0.0
 40
0.0
 40
0.0
 40
0.0
 40
1.0
 40
1.0
 40
1.0
 40
2.0
 40
2.0
 40
2.0
 40
3.0
 40
3.0
 40
3.0
 40
4.0
 40
4.0
 40
4.0
 40
5.0
 40
5.0
 40
5.0
 40
5.0
 10
32.45919181204218
 20
-312.7680504773638
 30
0.0
 10
33.83428431169838
 20
-310.0651377002617
 30
0.0
 10
33.55206208954697
 20
-307.0490288121268
 30
0.0
 10
31.83188236775433
 20
-306.0656254790395
 30
0.0
 10
31.83188236775433
 20
-306.0656254790395
 30
0.0
 10
27.3754523688683
 20
-303.5177585352315
 30
0.0
 10
27.3754523688683
 20
-303.5177585352315
 30
0.0
 10
27.3754523688683
 20
-303.5177585352315
 30
0.0
 10
27.37534653553509
 20
-321.6082382529311
 30
0.0
 10
27.37534653553509
 20
-321.6082382529311
 30
0.0
 10
28.02523375759518
 20
-321.0567407530691
 30
0.0
 10
28.62647292411134
 20
-320.301549364369
 30
0.0
 10
29.09908931288158
 20
-319.3725796423792
 30
0.0
 10
29.09908931288158
 20
-319.3725796423792
 30
0.0
 10
32.45919181204218
 20
-312.7680504773638
 30
0.0
 10
32.45919181204218
 20
-312.7680504773638
 30
0.0
  0
ENDBLK
  5
7E
330
7B
100
AcDbEntity
  8
0
100
AcDbBlockEnd
  0
ENDSEC
  0
SECTION
  2
ENTITIES
  0
POLYLINE
  5
41
330
1F
100
AcDbEntity
  8
Calque 1
 62
     7
370
    13
100
AcDb2dPolyline
 66
     1
 10
0.0
 20
0.0
 30
0.0
  0
VERTEX
  5
42
330
41
100
AcDbEntity
  8
Calque 1
 62
     7
370
    13
100
AcDbVertex
100
AcDb2dVertex
 10
191.4880966620427
 20
-43.78723637794201
 30
0.0
  0
VERTEX
  5
43
330
41
100
AcDbEntity
  8
Calque 1
 62
     7
370
    13
100
AcDbVertex
100
AcDb2dVertex
 10
18.71807403769985
 20
-143.5360349641164
 30
0.0
  0
VERTEX
  5
44
330
41
100
AcDbEntity
  8
Calque 1
 62
     7
370
    13
100
AcDbVertex
100
AcDb2dVertex
 10
191.4895430508947
 20
-243.2873029947336
 30
0.0
  0
SEQEND
  5
45
330
41
100
AcDbEntity
  8
Calque 1
 62
     7
370
    13
  0
POLYLINE
  5
46
330
1F
100
AcDbEntity
  8
Calque 1
 62
     7
370
    13
100
AcDb2dPolyline
 66
     1
 10
0.0
 20
0.0
 30
0.0
  0
VERTEX
  5
47
330
46
100
AcDbEntity
  8
Calque 1
 62
     7
370
    13
100
AcDbVertex
100
AcDb2dVertex
 10
18.71634542658921
 20
35.96385720060875
 30
0.0
  0
VERTEX
  5
48
330
46
100
AcDbEntity
  8
Calque 1
 62
     7
370
    13
100
AcDbVertex
100
AcDb2dVertex
 10
18.71952042658777
 20
-343.0361368586852
 30
0.0
  0
SEQEND
  5
49
330
46
100
AcDbEntity
  8
Calque 1
 62
     7
370
    13
  0
POLYLINE
  5
4A
330
1F
100
AcDbEntity
  8
Calque 1
 62
     1
370
    13
100
AcDb2dPolyline
 66
     1
 10
0.0
 20
0.0
 30
0.0
  0
VERTEX
  5
4B
330
4A
100
AcDbEntity
  8
Calque 1
 62
     1
370
    13
100
AcDbVertex
100
AcDb2dVertex
 10
18.71758014881073
 20
-74.89378028683223
 30
0.0
  0
VERTEX
  5
4C
330
4A
100
AcDbEntity
  8
Calque 1
 62
     1
370
    13
100
AcDbVertex
100
AcDb2dVertex
 10
18.71712153769977
 20
-12.61685183777188
 30
0.0
  0
SEQEND
  5
4D
330
4A
100
AcDbEntity
  8
Calque 1
 62
     1
370
    13
  0
POLYLINE
  5
4E
330
1F
100
AcDbEntity
  8
Calque 1
 62
     1
370
    13
100
AcDb2dPolyline
 66
     1
 10
0.0
 20
0.0
 30
0.0
  0
VERTEX
  5
4F
330
4E
100
AcDbEntity
  8
Calque 1
 62
     1
370
    13
100
AcDbVertex
100
AcDb2dVertex
 10
18.7190265376993
 20
-274.3938715980682
 30
0.0
  0
VERTEX
  5
50
330
4E
100
AcDbEntity
  8
Calque 1
 62
     1
370
    13
100
AcDbVertex
100
AcDb2dVertex
 10
18.71856792658833
 20
-212.1169521691932
 30
0.0
  0
SEQEND
  5
51
330
4E
100
AcDbEntity
  8
Calque 1
 62
     1
370
    13
  0
POLYLINE
  5
52
330
1F
100
AcDbEntity
  8
Calque 1
 62
     7
370
    13
100
AcDb2dPolyline
 66
     1
 10
0.0
 20
0.0
 30
0.0
  0
VERTEX
  5
53
330
52
100
AcDbEntity
  8
Calque 1
 62
     7
370
    13
100
AcDbVertex
100
AcDb2dVertex
 10
79.88698902240706
 20
20.64649342472059
 30
0.0
  0
VERTEX
  5
54
330
52
100
AcDbEntity
  8
Calque 1
 62
     7
370
    13
100
AcDbVertex
100
AcDb2dVertex
 10
130.2988628986927
 20
-8.459154166065808
 30
0.0
  0
SEQEND
  5
55
330
52
100
AcDbEntity
  8
Calque 1
 62
     7
370
    13
  0
POLYLINE
  5
56
330
1F
100
AcDbEntity
  8
Calque 1
 62
     7
370
    13
100
AcDb2dPolyline
 66
     1
 10
0.0
 20
0.0
 30
0.0
  0
VERTEX
  5
57
330
56
100
AcDbEntity
  8
Calque 1
 62
     7
370
    13
100
AcDbVertex
100
AcDb2dVertex
 10
191.4889433286878
 20
-114.5396066380316
 30
0.0
  0
VERTEX
  5
58
330
56
100
AcDbEntity
  8
Calque 1
 62
     7
370
    13
100
AcDbVertex
100
AcDb2dVertex
 10
191.4890138842415
 20
-172.5359205124216
 30
0.0
  0
SEQEND
  5
59
330
56
100
AcDbEntity
  8
Calque 1
 62
     7
370
    13
  0
SPLINE
  5
5A
330
1F
100
AcDbEntity
  8
Calque 1
 62
     1
370
    13
100
AcDbSpline
210
0.0
220
0.0
230
1.0
 70
    11
 71
     3
 72
   134
 73
   130
 74
     0
 42
0.0000000001
 43
0.0000000001
 12
1.0
 22
0.0
 32
0.0
 13
1.0
 23
0.0
 33
0.0
 40
0.0
 40
0.0
 40
0.0
 40
0.0
 40
1.0
 40
1.0
 40
1.0
 40
2.0
 40
2.0
 40
2.0
 40
3.0
 40
3.0
 40
3.0
 40
4.0
 40
4.0
 40
4.0
 40
5.0
 40
5.0
 40
5.0
 40
6.0
 40
6.0
 40
6.0
 40
7.0
 40
7.0
 40
7.0
 40
8.0
 40
8.0
 40
8.0
 40
9.0
 40
9.0
 40
9.0
 40
10.0
 40
10.0
 40
10.0
 40
11.0
 40
11.0
 40
11.0
 40
12.0
 40
12.0
 40
12.0
 40
13.0
 40
13.0
 40
13.0
 40
14.0
 40
14.0
 40
14.0
 40
15.0
 40
15.0
 40
15.0
 40
16.0
 40
16.0
 40
16.0
 40
17.0
 40
17.0
 40
17.0
 40
18.0
 40
18.0
 40
18.0
 40
19.0
 40
19.0
 40
19.0
 40
20.0
 40
20.0
 40
20.0
 40
21.0
 40
21.0
 40
21.0
 40
22.0
 40
22.0
 40
22.0
 40
23.0
 40
23.0
 40
23.0
 40
24.0
 40
24.0
 40
24.0
 40
25.0
 40
25.0
 40
25.0
 40
26.0
 40
26.0
 40
26.0
 40
27.0
 40
27.0
 40
27.0
 40
28.0
 40
28.0
 40
28.0
 40
29.0
 40
29.0
 40
29.0
 40
30.0
 40
30.0
 40
30.0
 40
31.0
 40
31.0
 40
31.0
 40
32.0
 40
32.0
 40
32.0
 40
33.0
 40
33.0
 40
33.0
 40
34.0
 40
34.0
 40
34.0
 40
35.0
 40
35.0
 40
35.0
 40
36.0
 40
36.0
 40
36.0
 40
37.0
 40
37.0
 40
37.0
 40
38.0
 40
38.0
 40
38.0
 40
39.0
 40
39.0
 40
39.0
 40
40.0
 40
40.0
 40
40.0
 40
41.0
 40
41.0
 40
41.0
 40
42.0
 40
42.0
 40
42.0
 40
43.0
 40
43.0
 40
43.0
 40
43.0
 10
195.7633046085286
 20
-111.829779416487
 30
0.0
 10
195.7633046085286
 20
-111.829779416487
 30
0.0
 10
194.8569126872081
 20
-111.4924533054601
 30
0.0
 10
194.3817915882184
 20
-111.528965805451
 30
0.0
 10
194.0821421514186
 20
-111.5520021943342
 30
0.0
 10
193.7898304922095
 20
-111.6234396943165
 30
0.0
 10
193.5281412162192
 20
-111.7500869165068
 30
0.0
 10
193.2911085604885
 20
-111.8647396942559
 30
0.0
 10
193.0781366214774
 20
-112.0184802497731
 30
0.0
 10
192.9095088480016
 20
-112.2126844163913
 30
0.0
 10
192.9095088480016
 20
-112.2126844163913
 30
0.0
 10
191.9814210939014
 20
-113.2805780272355
 30
0.0
 10
191.9814210939014
 20
-113.2805780272355
 30
0.0
 10
191.6609930465206
 20
-113.6494071938097
 30
0.0
 10
191.4889433286878
 20
-114.0890388603667
 30
0.0
 10
191.4889433286878
 20
-114.5396066380316
 30
0.0
 10
191.4889433286878
 20
-114.5396066380316
 30
0.0
 10
191.4889433286878
 20
-99.05502580856952
 30
0.0
 10
191.4889433286878
 20
-99.05502580856952
 30
0.0
 10
191.4889433286878
 20
-99.05502580856952
 30
0.0
 10
191.4880966620427
 20
-43.78720110016417
 30
0.0
 10
191.4880966620427
 20
-43.78720110016417
 30
0.0
 10
191.4880966620427
 20
-43.78720110016417
 30
0.0
 10
130.2988628986927
 20
-8.45911888828893
 30
0.0
 10
130.2988628986927
 20
-8.45911888828893
 30
0.0
 10
130.6689620652669
 20
-8.643974439128428
 30
0.0
 10
131.0968462318274
 20
-8.703523326498098
 30
0.0
 10
131.5384887317168
 20
-8.617833606462003
 30
0.0
 10
131.5384887317168
 20
-8.617833606462003
 30
0.0
 10
132.9273395647031
 20
-8.348064446677721
 30
0.0
 10
132.9273395647031
 20
-8.348064446677721
 30
0.0
 10
133.1798578979726
 20
-8.299098892371381
 30
0.0
 10
133.4194998423571
 20
-8.191501672894193
 30
0.0
 10
133.637304842303
 20
-8.043581954445717
 30
0.0
 10
133.8778287311318
 20
-7.880281125278535
 30
0.0
 10
134.0857912310799
 20
-7.662828908603981
 30
0.0
 10
134.2556184532592
 20
-7.414896692707036
 30
0.0
 10
134.5247878976367
 20
-7.021655313850571
 30
0.0
 10
134.6858662309295
 20
-6.068026449290781
 30
0.0
 10
134.6858662309295
 20
-6.068026449290781
 30
0.0
 10
134.6858662309295
 20
-6.068026449290781
 30
0.0
 10
136.1207192861266
 20
-1.887010167068504
 30
0.0
 10
135.5614959529333
 20
-1.564147953083183
 30
0.0
 10
135.5614959529333
 20
-1.564147953083183
 30
0.0
 10
135.3455959529869
 20
-1.439476289597156
 30
0.0
 10
135.3455959529869
 20
-1.439476289597156
 30
0.0
 10
135.3455959529869
 20
-1.439476289597156
 30
0.0
 10
83.67712763257096
 20
28.39134128268862
 30
0.0
 10
83.67712763257096
 20
28.39134128268862
 30
0.0
 10
83.67712763257096
 20
28.39134128268862
 30
0.0
 10
83.46122763262522
 20
28.51597766839777
 30
0.0
 10
83.46122763262522
 20
28.51597766839777
 30
0.0
 10
82.90196902165306
 20
28.83884249279039
 30
0.0
 10
79.766797633548
 20
25.6395335751153
 30
0.0
 10
79.766797633548
 20
25.6395335751153
 30
0.0
 10
79.766797633548
 20
25.6395335751153
 30
0.0
 10
79.0215193004015
 20
25.02319804929961
 30
0.0
 10
78.81556763378619
 20
24.59347693513577
 30
0.0
 10
78.68571013381876
 20
24.322402497607
 30
0.0
 10
78.60143152272862
 20
24.03358333830873
 30
0.0
 10
78.58022957828926
 20
23.74360001237349
 30
0.0
 10
78.56103846718328
 20
23.48106279684915
 30
0.0
 10
78.58767318939914
 20
23.21972502573865
 30
0.0
 10
78.67149318937767
 20
22.97662586527396
 30
0.0
 10
78.67149318937767
 20
22.97662586527396
 30
0.0
 10
79.13229152259612
 20
21.63885728829217
 30
0.0
 10
79.13229152259612
 20
21.63885728829217
 30
0.0
 10
79.27848263367056
 20
21.21464202133702
 30
0.0
 10
79.54317180027095
 20
20.87463480778911
 30
0.0
 10
79.88698902240706
 20
20.64649342472059
 30
0.0
 10
79.88698902240706
 20
20.64649342472059
 30
0.0
 10
36.03466514448186
 20
45.96496583434811
 30
0.0
 10
36.03466514448186
 20
45.96496583434811
 30
0.0
 10
32.5763140342346
 20
39.98809904238623
 30
0.0
 10
26.11832875807204
 20
35.96385720060875
 30
0.0
 10
18.71634542658921
 20
35.96385720060875
 30
0.0
 10
15.74189959399863
 20
35.96385720060875
 30
0.0
 10
12.9218293169267
 20
36.61811885058381
 30
0.0
 10
10.38468681756041
 20
37.78274409864952
 30
0.0
 10
10.38468681756041
 20
37.78274409864952
 30
0.0
 10
10.38468681756041
 20
-133.8447707998722
 30
0.0
 10
10.38468681756041
 20
-133.8447707998722
 30
0.0
 10
10.38468681756041
 20
-133.8447707998722
 30
0.0
 10
18.71810931547737
 20
-143.5360349641164
 30
0.0
 10
18.71810931547737
 20
-143.5360349641164
 30
0.0
 10
18.71810931547737
 20
-143.5360349641164
 30
0.0
 10
10.41266209533163
 20
-153.5331221838388
 30
0.0
 10
10.41266209533163
 20
-153.5331221838388
 30
0.0
 10
10.41266209533163
 20
-153.5331221838388
 30
0.0
 10
10.38468681756041
 20
-332.6304624168421
 30
0.0
 10
10.38468681756041
 20
-332.6304624168421
 30
0.0
 10
10.38468681756041
 20
-332.6304624168421
 30
0.0
 10
18.71955570436594
 20
-343.0361368586852
 30
0.0
 10
18.71955570436594
 20
-343.0361368586852
 30
0.0
 10
18.71955570436594
 20
-343.0361368586852
 30
0.0
 10
191.4895430508947
 20
-243.2873029947336
 30
0.0
 10
191.4895430508947
 20
-243.2873029947336
 30
0.0
 10
191.4895430508947
 20
-243.2873029947336
 30
0.0
 10
191.4890138842415
 20
-172.5359205124216
 30
0.0
 10
191.4890138842415
 20
-172.5359205124216
 30
0.0
 10
191.4892608286796
 20
-172.9862060678648
 30
0.0
 10
191.6612412166861
 20
-173.4254496788661
 30
0.0
 10
191.9814210939014
 20
-173.7939966232179
 30
0.0
 10
191.9814210939014
 20
-173.7939966232179
 30
0.0
 10
192.9095088480016
 20
-174.86192551184
 30
0.0
 10
192.9095088480016
 20
-174.86192551184
 30
0.0
 10
193.0781366214774
 20
-175.0560944006803
 30
0.0
 10
193.2911085604885
 20
-175.2098702339754
 30
0.0
 10
193.5281412162192
 20
-175.3244877339466
 30
0.0
 10
193.7898304922095
 20
-175.4511349561373
 30
0.0
 10
194.0821421514186
 20
-175.5225724561192
 30
0.0
 10
194.3817915882184
 20
-175.5456088450024
 30
0.0
 10
194.8569126872081
 20
-175.5821213449937
 30
0.0
 10
195.7633046085286
 20
-175.2448305117442
 30
0.0
 10
195.7633046085286
 20
-175.2448305117442
 30
0.0
 10
195.7633046085286
 20
-175.2448305117442
 30
0.0
 10
199.6894051035678
 20
-173.9619541231765
 30
0.0
 10
199.6894051035678
 20
-173.3162649566708
 30
0.0
 10
199.6894051035678
 20
-173.3162649566708
 30
0.0
 10
199.6894051035678
 20
-173.0669216233998
 30
0.0
 10
199.6894051035678
 20
-173.0669216233998
 30
0.0
 10
199.6894051035678
 20
-173.0669216233998
 30
0.0
 10
199.6894051035678
 20
-113.4053202494264
 30
0.0
 10
199.6894051035678
 20
-113.4053202494264
 30
0.0
 10
199.6894051035678
 20
-113.4053202494264
 30
0.0
 10
199.6894051035678
 20
-113.1559769161554
 30
0.0
 10
199.6894051035678
 20
-113.1559769161554
 30
0.0
 10
199.6894051035678
 20
-112.5102524718724
 30
0.0
 10
195.7633046085286
 20
-111.829779416487
 30
0.0
 10
195.7633046085286
 20
-111.829779416487
 30
0.0
  0
INSERT
  5
5C
330
1F
100
AcDbEntity
  8
Calque 1
100
AcDbBlockReference
  2
block 2
 10
0.0
 20
0.0
 30
0.0
  0
INSERT
  5
7C
330
1F
100
AcDbEntity
  8
Calque 1
100
AcDbBlockReference
  2
block 3
 10
0.0
 20
0.0
 30
0.0
  0
SPLINE
  5
9B
330
1F
100
AcDbEntity
  8
Calque 1
 62
     1
370
    13
100
AcDbSpline
210
0.0
220
0.0
230
1.0
 70
    11
 71
     3
 72
    35
 73
    31
 74
     0
 42
0.0000000001
 43
0.0000000001
 12
1.0
 22
0.0
 32
0.0
 13
1.0
 23
0.0
 33
0.0
 40
0.0
 40
0.0
 40
0.0
 40
0.0
 40
1.0
 40
1.0
 40
1.0
 40
2.0
 40
2.0
 40
2.0
 40
3.0
 40
3.0
 40
3.0
 40
4.0
 40
4.0
 40
4.0
 40
5.0
 40
5.0
 40
5.0
 40
6.0
 40
6.0
 40
6.0
 40
7.0
 40
7.0
 40
7.0
 40
8.0
 40
8.0
 40
8.0
 40
9.0
 40
9.0
 40
9.0
 40
10.0
 40
10.0
 40
10.0
 40
10.0
 10
167.5148723338335
 20
-42.35068998941247
 30
0.0
 10
167.370797889425
 20
-42.21300082278021
 30
0.0
 10
167.2168456672417
 20
-42.08832915614472
 30
0.0
 10
167.04546622284
 20
-41.98937498950253
 30
0.0
 10
167.04546622284
 20
-41.98937498950253
 30
0.0
 10
159.9216128912875
 20
-37.87641036001352
 30
0.0
 10
159.9216128912875
 20
-37.87641036001352
 30
0.0
 10
159.7492809468863
 20
-37.77692702921822
 30
0.0
 10
159.5692231691538
 20
-37.70866453095974
 30
0.0
 10
159.3857787247551
 20
-37.65737064337947
 30
0.0
 10
157.7427515029435
 20
-37.19801871065407
 30
0.0
 10
155.7304717812241
 20
-38.62073526812254
 30
0.0
 10
154.6814517814866
 20
-41.113780545277
 30
0.0
 10
154.6814517814866
 20
-41.113780545277
 30
0.0
 10
151.9715187266082
 20
-47.55409165477814
 30
0.0
 10
151.9715187266082
 20
-47.55409165477814
 30
0.0
 10
150.8054823380108
 20
-50.32537276519638
 30
0.0
 10
150.6500484491608
 20
-54.18814831978622
 30
0.0
 10
151.6259728933614
 20
-56.1378805415212
 30
0.0
 10
151.6259728933614
 20
-56.1378805415212
 30
0.0
 10
151.6634378933521
 20
-56.21270470816906
 30
0.0
 10
151.6634378933521
 20
-56.21270470816906
 30
0.0
 10
151.6634378933521
 20
-56.21270470816906
 30
0.0
 10
168.5315073335791
 20
-46.47374498838163
 30
0.0
 10
168.5315073335791
 20
-46.47374498838163
 30
0.0
 10
168.5315073335791
 20
-46.47374498838163
 30
0.0
 10
171.5937948328143
 20
-44.7056933221569
 30
0.0
 10
171.5937948328143
 20
-44.7056933221569
 30
0.0
 10
171.5937948328143
 20
-44.7056933221569
 30
0.0
 10
167.5148723338335
 20
-42.35068998941247
 30
0.0
 10
167.5148723338335
 20
-42.35068998941247
 30
0.0
  0
SPLINE
  5
9C
330
1F
100
AcDbEntity
  8
Calque 1
 62
     1
370
    13
100
AcDbSpline
210
0.0
220
0.0
230
1.0
 70
    11
 71
     3
 72
    32
 73
    28
 74
     0
 42
0.0000000001
 43
0.0000000001
 12
1.0
 22
0.0
 32
0.0
 13
1.0
 23
0.0
 33
0.0
 40
0.0
 40
0.0
 40
0.0
 40
0.0
 40
1.0
 40
1.0
 40
1.0
 40
2.0
 40
2.0
 40
2.0
 40
3.0
 40
3.0
 40
3.0
 40
4.0
 40
4.0
 40
4.0
 40
5.0
 40
5.0
 40
5.0
 40
6.0
 40
6.0
 40
6.0
 40
7.0
 40
7.0
 40
7.0
 40
8.0
 40
8.0
 40
8.0
 40
9.0
 40
9.0
 40
9.0
 40
9.0
 10
33.07231958966646
 20
0.4616078285688145
 30
0.0
 10
33.07231958966646
 20
0.4616078285688145
 30
0.0
 10
38.15845792172835
 20
2.141288619049921
 30
0.0
 10
38.15845792172835
 20
2.141288619049921
 30
0.0
 10
40.44018931004668
 20
2.894927766489651
 30
0.0
 10
42.6336909761651
 20
4.728172719719676
 30
0.0
 10
43.03271792050997
 20
6.215166292894421
 30
0.0
 10
43.43181542040988
 20
7.70208931051541
 30
0.0
 10
43.06192792050271
 20
10.34795785412479
 30
0.0
 10
42.21088680960398
 20
12.09473697622741
 30
0.0
 10
41.35984569870525
 20
13.84165720943754
 30
0.0
 10
39.29426125477786
 20
15.45586471835815
 30
0.0
 10
37.62082458852898
 20
15.68174605138185
 30
0.0
 10
35.94731736672507
 20
15.90773549006082
 30
0.0
 10
32.97819847857908
 20
15.97268416267344
 30
0.0
 10
31.02278653462336
 20
15.82606743658879
 30
0.0
 10
29.65612542385398
 20
15.72358549475888
 30
0.0
 10
28.12679847979178
 20
15.08283523332801
 30
0.0
 10
27.04006653561902
 20
14.2364860882535
 30
0.0
 10
27.04006653561902
 20
14.2364860882535
 30
0.0
 10
27.03996070228581
 20
3.854800797556805
 30
0.0
 10
27.03996070228581
 20
3.854800797556805
 30
0.0
 10
27.03996070228581
 20
3.854800797556805
 30
0.0
 10
27.42170153552358
 20
2.889389155519842
 30
0.0
 10
27.42170153552358
 20
2.889389155519842
 30
0.0
 10
28.24780125753958
 20
0.8004174997999064
 30
0.0
 10
30.7905529235706
 20
-0.2920665966477934
 30
0.0
 10
33.07231958966646
 20
0.4616078285688145
 30
0.0
  0
SPLINE
  5
9D
330
1F
100
AcDbEntity
  8
Calque 1
 62
     1
370
    13
100
AcDbSpline
210
0.0
220
0.0
230
1.0
 70
    11
 71
     3
 72
    32
 73
    28
 74
     0
 42
0.0000000001
 43
0.0000000001
 12
1.0
 22
0.0
 32
0.0
 13
1.0
 23
0.0
 33
0.0
 40
0.0
 40
0.0
 40
0.0
 40
0.0
 40
1.0
 40
1.0
 40
1.0
 40
2.0
 40
2.0
 40
2.0
 40
3.0
 40
3.0
 40
3.0
 40
4.0
 40
4.0
 40
4.0
 40
5.0
 40
5.0
 40
5.0
 40
6.0
 40
6.0
 40
6.0
 40
7.0
 40
7.0
 40
7.0
 40
8.0
 40
8.0
 40
8.0
 40
9.0
 40
9.0
 40
9.0
 40
9.0
 10
79.95429902239034
 20
-83.5434222013363
 30
0.0
 10
80.30358430008047
 20
-85.98690220072554
 30
0.0
 10
82.37749429956278
 20
-86.55716747836077
 30
0.0
 10
84.56298791012718
 20
-84.81074108990852
 30
0.0
 10
84.56298791012718
 20
-84.81074108990852
 30
0.0
 10
93.80382540781683
 20
-77.42661889731002
 30
0.0
 10
93.80382540781683
 20
-77.42661889731002
 30
0.0
 10
95.9892837406037
 20
-75.68021367552454
 30
0.0
 10
98.4010137400008
 20
-73.17719889837224
 30
0.0
 10
99.16315485092161
 20
-71.86418823203384
 30
0.0
 10
99.92533123961995
 20
-70.55135748236201
 30
0.0
 10
99.78150373965599
 20
-67.8516902608149
 30
0.0
 10
98.84371457322344
 20
-65.86491637242267
 30
0.0
 10
98.84371457322344
 20
-65.86491637242267
 30
0.0
 10
91.93943013050558
 20
-51.23896137607925
 30
0.0
 10
91.93943013050558
 20
-51.23896137607925
 30
0.0
 10
91.00167624185055
 20
-49.25229332102022
 30
0.0
 10
88.58112679801133
 20
-49.36426498765886
 30
0.0
 10
86.56080374296097
 20
-51.4875991537947
 30
0.0
 10
86.56080374296097
 20
-51.4875991537947
 30
0.0
 10
80.50692541114137
 20
-57.85001692998197
 30
0.0
 10
80.50692541114137
 20
-57.85001692998197
 30
0.0
 10
78.48660235609037
 20
-59.97335109611782
 30
0.0
 10
77.11927096754363
 20
-63.70976165073935
 30
0.0
 10
77.46852096745624
 20
-66.15306526123938
 30
0.0
 10
77.46852096745624
 20
-66.15306526123938
 30
0.0
 10
79.95429902239034
 20
-83.5434222013363
 30
0.0
 10
79.95429902239034
 20
-83.5434222013363
 30
0.0
  0
SPLINE
  5
9E
330
1F
100
AcDbEntity
  8
Calque 1
 62
     1
370
    13
100
AcDbSpline
210
0.0
220
0.0
230
1.0
 70
    11
 71
     3
 72
    32
 73
    28
 74
     0
 42
0.0000000001
 43
0.0000000001
 12
1.0
 22
0.0
 32
0.0
 13
1.0
 23
0.0
 33
0.0
 40
0.0
 40
0.0
 40
0.0
 40
0.0
 40
1.0
 40
1.0
 40
1.0
 40
2.0
 40
2.0
 40
2.0
 40
3.0
 40
3.0
 40
3.0
 40
4.0
 40
4.0
 40
4.0
 40
5.0
 40
5.0
 40
5.0
 40
6.0
 40
6.0
 40
6.0
 40
7.0
 40
7.0
 40
7.0
 40
8.0
 40
8.0
 40
8.0
 40
9.0
 40
9.0
 40
9.0
 40
9.0
 10
115.2429776246792
 20
-65.50370720584625
 30
0.0
 10
113.9164273472331
 20
-65.0265752615211
 30
0.0
 10
110.9680517924149
 20
-65.6926902613547
 30
0.0
 10
108.6907654040948
 20
-66.9840333165874
 30
0.0
 10
108.6907654040948
 20
-66.9840333165874
 30
0.0
 10
107.0225851267342
 20
-67.92993637190655
 30
0.0
 10
107.0225851267342
 20
-67.92993637190655
 30
0.0
 10
104.7452634606372
 20
-69.22120887158357
 30
0.0
 10
102.2777945723653
 20
-71.31898075994792
 30
0.0
 10
101.5390426281055
 20
-72.59170773185218
 30
0.0
 10
100.80022012829
 20
-73.86434650931167
 30
0.0
 10
100.9304656838127
 20
-76.56190059197054
 30
0.0
 10
101.8280734613663
 20
-78.58604775813134
 30
0.0
 10
101.8280734613663
 20
-78.58604775813134
 30
0.0
 10
103.8203859608685
 20
-83.07807303478607
 30
0.0
 10
103.8203859608685
 20
-83.07807303478607
 30
0.0
 10
103.9097445719574
 20
-83.27954442362464
 30
0.0
 10
104.0107095719317
 20
-83.47399553468709
 30
0.0
 10
104.117354294127
 20
-83.66389581241745
 30
0.0
 10
104.117354294127
 20
-83.66389581241745
 30
0.0
 10
113.1897404029702
 20
-78.42585136928254
 30
0.0
 10
113.1897404029702
 20
-78.42585136928254
 30
0.0
 10
113.1897404029702
 20
-78.42585136928254
 30
0.0
 10
115.7715092912137
 20
-71.45490956546969
 30
0.0
 10
115.7715092912137
 20
-71.45490956546969
 30
0.0
 10
116.8073354020659
 20
-68.65884581616852
 30
0.0
 10
116.5694220687921
 20
-65.98076859461605
 30
0.0
 10
115.2429776246792
 20
-65.50370720584625
 30
0.0
  0
SPLINE
  5
9F
330
1F
100
AcDbEntity
  8
Calque 1
 62
     1
370
    13
100
AcDbSpline
210
0.0
220
0.0
230
1.0
 70
    11
 71
     3
 72
    26
 73
    22
 74
     0
 42
0.0000000001
 43
0.0000000001
 12
1.0
 22
0.0
 32
0.0
 13
1.0
 23
0.0
 33
0.0
 40
0.0
 40
0.0
 40
0.0
 40
0.0
 40
1.0
 40
1.0
 40
1.0
 40
2.0
 40
2.0
 40
2.0
 40
3.0
 40
3.0
 40
3.0
 40
4.0
 40
4.0
 40
4.0
 40
5.0
 40
5.0
 40
5.0
 40
6.0
 40
6.0
 40
6.0
 40
7.0
 40
7.0
 40
7.0
 40
7.0
 10
93.82368679670081
 20
-80.76176942425386
 30
0.0
 10
93.82368679670081
 20
-80.76176942425386
 30
0.0
 10
84.33410568796187
 20
-88.34437497791397
 30
0.0
 10
84.33410568796187
 20
-88.34437497791397
 30
0.0
 10
82.14875318850821
 20
-90.09076608858838
 30
0.0
 10
79.31809957810471
 20
-93.76191275433722
 30
0.0
 10
78.04407791175727
 20
-96.50243164254096
 30
0.0
 10
78.04407791175727
 20
-96.50243164254096
 30
0.0
 10
77.57678846742968
 20
-97.50791886451175
 30
0.0
 10
77.57678846742968
 20
-97.50791886451175
 30
0.0
 10
77.28013763417013
 20
-98.14602330879691
 30
0.0
 10
77.09549374532739
 20
-98.75470608642229
 30
0.0
 10
77.00708763423859
 20
-99.31622247517079
 30
0.0
 10
77.00708763423859
 20
-99.31622247517079
 30
0.0
 10
101.2314909615154
 20
-85.3300299786675
 30
0.0
 10
101.2314909615154
 20
-85.3300299786675
 30
0.0
 10
101.2314909615154
 20
-85.3300299786675
 30
0.0
 10
99.4294315175213
 20
-81.26687664634991
 30
0.0
 10
99.4294315175213
 20
-81.26687664634991
 30
0.0
 10
98.53171790663512
 20
-79.24270831352266
 30
0.0
 10
96.00900401837632
 20
-79.01530775802408
 30
0.0
 10
93.82368679670081
 20
-80.76176942425386
 30
0.0
  0
SPLINE
  5
A0
330
1F
100
AcDbEntity
  8
Calque 1
 62
     1
370
    13
100
AcDbSpline
210
0.0
220
0.0
230
1.0
 70
    11
 71
     3
 72
    44
 73
    40
 74
     0
 42
0.0000000001
 43
0.0000000001
 12
1.0
 22
0.0
 32
0.0
 13
1.0
 23
0.0
 33
0.0
 40
0.0
 40
0.0
 40
0.0
 40
0.0
 40
1.0
 40
1.0
 40
1.0
 40
2.0
 40
2.0
 40
2.0
 40
3.0
 40
3.0
 40
3.0
 40
4.0
 40
4.0
 40
4.0
 40
5.0
 40
5.0
 40
5.0
 40
6.0
 40
6.0
 40
6.0
 40
7.0
 40
7.0
 40
7.0
 40
8.0
 40
8.0
 40
8.0
 40
9.0
 40
9.0
 40
9.0
 40
10.0
 40
10.0
 40
10.0
 40
11.0
 40
11.0
 40
11.0
 40
12.0
 40
12.0
 40
12.0
 40
13.0
 40
13.0
 40
13.0
 40
13.0
 10
77.37499957859119
 20
-86.3637041450756
 30
0.0
 10
77.37499957859119
 20
-86.3637041450756
 30
0.0
 10
74.71149207925693
 20
-67.73061692751175
 30
0.0
 10
74.71149207925693
 20
-67.73061692751175
 30
0.0
 10
74.36217152378865
 20
-65.28727803923388
 30
0.0
 10
72.26861180209002
 20
-63.50829026190079
 30
0.0
 10
70.0590940248642
 20
-63.77717748405583
 30
0.0
 10
70.0590940248642
 20
-63.77717748405583
 30
0.0
 10
63.84925263752795
 20
-64.53300387275574
 30
0.0
 10
63.84925263752795
 20
-64.53300387275574
 30
0.0
 10
61.63973486030212
 20
-64.80196165046614
 30
0.0
 10
58.73782013880557
 20
-67.24582970541066
 30
0.0
 10
57.40061597247286
 20
-69.96391192695351
 30
0.0
 10
57.40061597247286
 20
-69.96391192695351
 30
0.0
 10
46.86967014177267
 20
-91.36972664382417
 30
0.0
 10
46.86967014177267
 20
-91.36972664382417
 30
0.0
 10
45.53250125321811
 20
-94.08777358758918
 30
0.0
 10
44.13807653134457
 20
-97.69446775335402
 30
0.0
 10
43.77094069810317
 20
-99.38459080848703
 30
0.0
 10
43.40387542041682
 20
-101.0743963636201
 30
0.0
 10
44.82059569784053
 20
-102.5698919188021
 30
0.0
 10
46.91912958620468
 20
-102.707298863212
 30
0.0
 10
46.91912958620468
 20
-102.707298863212
 30
0.0
 10
67.55373680326818
 20
-104.0592844184296
 30
0.0
 10
67.55373680326818
 20
-104.0592844184296
 30
0.0
 10
67.94563763650342
 20
-104.0849666406454
 30
0.0
 10
68.33020069196328
 20
-104.102887751752
 30
0.0
 10
68.69793624742636
 20
-104.113612196194
 30
0.0
 10
68.69793624742636
 20
-104.113612196194
 30
0.0
 10
72.91539457970595
 20
-101.6786341412469
 30
0.0
 10
72.91539457970595
 20
-101.6786341412469
 30
0.0
 10
73.366844301815
 20
-100.7618352525873
 30
0.0
 10
73.90437180168053
 20
-99.63834386397939
 30
0.0
 10
74.4533293015432
 20
-98.45734969760787
 30
0.0
 10
74.4533293015432
 20
-98.45734969760787
 30
0.0
 10
75.69373124567781
 20
-95.78907969827479
 30
0.0
 10
75.69373124567781
 20
-95.78907969827479
 30
0.0
 10
76.96775291202589
 20
-93.04841969896002
 30
0.0
 10
77.72439068961452
 20
-88.80693720002058
 30
0.0
 10
77.37499957859119
 20
-86.3637041450756
 30
0.0
  0
SPLINE
  5
A1
330
1F
100
AcDbEntity
  8
Calque 1
 62
     1
370
    13
100
AcDbSpline
210
0.0
220
0.0
230
1.0
 70
    11
 71
     3
 72
    26
 73
    22
 74
     0
 42
0.0000000001
 43
0.0000000001
 12
1.0
 22
0.0
 32
0.0
 13
1.0
 23
0.0
 33
0.0
 40
0.0
 40
0.0
 40
0.0
 40
0.0
 40
1.0
 40
1.0
 40
1.0
 40
2.0
 40
2.0
 40
2.0
 40
3.0
 40
3.0
 40
3.0
 40
4.0
 40
4.0
 40
4.0
 40
5.0
 40
5.0
 40
5.0
 40
6.0
 40
6.0
 40
6.0
 40
7.0
 40
7.0
 40
7.0
 40
7.0
 10
39.46835708806784
 20
18.96780041199206
 30
0.0
 10
40.59615236556332
 20
18.81540041588011
 30
0.0
 10
42.88335180943631
 20
20.55653509368229
 30
0.0
 10
44.55079125346324
 20
22.83664364662298
 30
0.0
 10
46.04469930864563
 20
24.87947387228382
 30
0.0
 10
46.58169764184451
 20
26.99518798497412
 30
0.0
 10
45.90108347534808
 20
27.86305915970082
 30
0.0
 10
45.82199069758988
 20
27.96388046026072
 30
0.0
 10
45.73040958650186
 20
28.05189851357075
 30
0.0
 10
45.61790875319658
 20
28.11688017857959
 30
0.0
 10
45.51045264211252
 20
28.17889851033071
 30
0.0
 10
45.38930875325401
 20
28.21301471516896
 30
0.0
 10
45.26142680884114
 20
28.23234434230053
 30
0.0
 10
44.10346903135284
 20
28.40742794894488
 30
0.0
 10
42.17987764294556
 20
26.88695576551314
 30
0.0
 10
40.73394736552845
 20
24.56663054693178
 30
0.0
 10
40.73394736552845
 20
24.56663054693178
 30
0.0
 10
40.33675486562807
 20
23.92926695208117
 30
0.0
 10
40.33675486562807
 20
23.92926695208117
 30
0.0
 10
38.7312279215848
 20
21.35278979559036
 30
0.0
 10
38.34042069946101
 20
19.12012985255026
 30
0.0
 10
39.46835708806784
 20
18.96780041199206
 30
0.0
  0
SPLINE
  5
A2
330
1F
100
AcDbEntity
  8
Calque 1
 62
     1
370
    13
100
AcDbSpline
210
0.0
220
0.0
230
1.0
 70
    11
 71
     3
 72
    29
 73
    25
 74
     0
 42
0.0000000001
 43
0.0000000001
 12
1.0
 22
0.0
 32
0.0
 13
1.0
 23
0.0
 33
0.0
 40
0.0
 40
0.0
 40
0.0
 40
0.0
 40
1.0
 40
1.0
 40
1.0
 40
2.0
 40
2.0
 40
2.0
 40
3.0
 40
3.0
 40
3.0
 40
4.0
 40
4.0
 40
4.0
 40
5.0
 40
5.0
 40
5.0
 40
6.0
 40
6.0
 40
6.0
 40
7.0
 40
7.0
 40
7.0
 40
8.0
 40
8.0
 40
8.0
 40
8.0
 10
44.75991792007775
 20
14.43831024977121
 30
0.0
 10
45.49235514211733
 20
12.93505362145581
 30
0.0
 10
47.95590819705696
 20
12.75090362615387
 30
0.0
 10
50.23435875204223
 20
14.02898220465848
 30
0.0
 10
50.23435875204223
 20
14.02898220465848
 30
0.0
 10
56.12617097279198
 20
17.33412184255956
 30
0.0
 10
56.12617097279198
 20
17.33412184255956
 30
0.0
 10
58.13164208340203
 20
18.45909486941467
 30
0.0
 10
58.72667236103049
 20
20.03135482930297
 30
0.0
 10
57.67098486129431
 20
21.06767480286425
 30
0.0
 10
57.52726319466355
 20
21.20882118815219
 30
0.0
 10
57.35475486137349
 20
21.34058368479065
 30
0.0
 10
57.14908541698028
 20
21.45932868176121
 30
0.0
 10
57.14908541698028
 20
21.45932868176121
 30
0.0
 10
52.82614652917248
 20
23.95516084030945
 30
0.0
 10
52.82614652917248
 20
23.95516084030945
 30
0.0
 10
52.65120402921625
 20
24.05619639328738
 30
0.0
 10
52.4623973625967
 20
24.12971528030064
 30
0.0
 10
52.26688791820095
 20
24.18774722326457
 30
0.0
 10
50.54483847418759
 20
24.69888693244653
 30
0.0
 10
48.11769208590474
 20
23.58414446088598
 30
0.0
 10
46.5672337529595
 20
21.4639500705322
 30
0.0
 10
44.84080986450228
 20
19.10298485298767
 30
0.0
 10
44.02748069803881
 20
15.94153160030972
 30
0.0
 10
44.75991792007775
 20
14.43831024977121
 30
0.0
  0
SPLINE
  5
A3
330
1F
100
AcDbEntity
  8
Calque 1
 62
     1
370
    13
100
AcDbSpline
210
0.0
220
0.0
230
1.0
 70
    11
 71
     3
 72
    20
 73
    16
 74
     0
 42
0.0000000001
 43
0.0000000001
 12
1.0
 22
0.0
 32
0.0
 13
1.0
 23
0.0
 33
0.0
 40
0.0
 40
0.0
 40
0.0
 40
0.0
 40
1.0
 40
1.0
 40
1.0
 40
2.0
 40
2.0
 40
2.0
 40
3.0
 40
3.0
 40
3.0
 40
4.0
 40
4.0
 40
4.0
 40
5.0
 40
5.0
 40
5.0
 40
5.0
 10
143.220386878796
 20
-56.49478581920976
 30
0.0
 10
143.220386878796
 20
-56.49478581920976
 30
0.0
 10
138.4111642855538
 20
-58.13534359657723
 30
0.0
 10
138.4111642855538
 20
-58.13534359657723
 30
0.0
 10
136.1274220639028
 20
-58.91448859638242
 30
0.0
 10
133.0763176202208
 20
-60.72967137370652
 30
0.0
 10
131.6309517872492
 20
-62.16914581779103
 30
0.0
 10
130.2346220653761
 20
-63.5596194285545
 30
0.0
 10
129.0917984545508
 20
-66.7074908166564
 30
0.0
 10
129.021172343457
 20
-69.285414427123
 30
0.0
 10
129.021172343457
 20
-69.285414427123
 30
0.0
 10
148.6942484496498
 20
-57.92695776329609
 30
0.0
 10
148.6942484496498
 20
-57.92695776329609
 30
0.0
 10
147.4956153943941
 20
-56.45767359699683
 30
0.0
 10
145.2125117005199
 20
-55.8151594304906
 30
0.0
 10
143.220386878796
 20
-56.49478581920976
 30
0.0
  0
SPLINE
  5
A4
330
1F
100
AcDbEntity
  8
Calque 1
 62
     1
370
    13
100
AcDbSpline
210
0.0
220
0.0
230
1.0
 70
    11
 71
     3
 72
    41
 73
    37
 74
     0
 42
0.0000000001
 43
0.0000000001
 12
1.0
 22
0.0
 32
0.0
 13
1.0
 23
0.0
 33
0.0
 40
0.0
 40
0.0
 40
0.0
 40
0.0
 40
1.0
 40
1.0
 40
1.0
 40
2.0
 40
2.0
 40
2.0
 40
3.0
 40
3.0
 40
3.0
 40
4.0
 40
4.0
 40
4.0
 40
5.0
 40
5.0
 40
5.0
 40
6.0
 40
6.0
 40
6.0
 40
7.0
 40
7.0
 40
7.0
 40
8.0
 40
8.0
 40
8.0
 40
9.0
 40
9.0
 40
9.0
 40
10.0
 40
10.0
 40
10.0
 40
11.0
 40
11.0
 40
11.0
 40
12.0
 40
12.0
 40
12.0
 40
12.0
 10
66.86437374788531
 20
-16.02027536205442
 30
0.0
 10
66.86437374788531
 20
-16.02027536205442
 30
0.0
 10
64.73627708175064
 20
-33.20951325685377
 30
0.0
 10
64.73627708175064
 20
-33.20951325685377
 30
0.0
 10
64.39623458183543
 20
-35.95592346456478
 30
0.0
 10
65.98214708143863
 20
-37.15540315618573
 30
0.0
 10
68.26042124753567
 20
-35.87524318884533
 30
0.0
 10
68.26042124753567
 20
-35.87524318884533
 30
0.0
 10
97.4320742957991
 20
-19.48201305151592
 30
0.0
 10
97.4320742957991
 20
-19.48201305151592
 30
0.0
 10
99.71034846189613
 20
-18.20160471767166
 30
0.0
 10
102.7792681833512
 20
-15.23506260430909
 30
0.0
 10
104.251727349649
 20
-12.88954905303702
 30
0.0
 10
105.7242217937257
 20
-10.54403550176494
 30
0.0
 10
107.0338387378431
 20
-8.383271668001733
 30
0.0
 10
107.1620734600331
 20
-8.087679175542926
 30
0.0
 10
107.2481159600114
 20
-7.889347513936121
 30
0.0
 10
106.6897392934843
 20
-7.349703361036924
 30
0.0
 10
105.7956945714858
 20
-6.717137543841688
 30
0.0
 10
105.357438738262
 20
-6.406975329532364
 30
0.0
 10
104.8397726272799
 20
-6.074868609592235
 30
0.0
 10
104.2752576274214
 20
-5.748974235208259
 30
0.0
 10
104.2752576274214
 20
-5.748974235208259
 30
0.0
 10
88.08681457591324
 20
3.597449415233497
 30
0.0
 10
88.08681457591324
 20
3.597449415233497
 30
0.0
 10
87.90615707595842
 20
3.701730523684176
 30
0.0
 10
87.7070140204525
 20
3.781742499054583
 30
0.0
 10
87.49806374272688
 20
3.847006387927297
 30
0.0
 10
85.72207457650444
 20
4.4017474502697
 30
0.0
 10
83.02843985495552
 20
3.577588026851314
 30
0.0
 10
81.15025096653599
 20
1.813205294086691
 30
0.0
 10
81.15025096653599
 20
1.813205294086691
 30
0.0
 10
71.29924902455423
 20
-7.441390303142239
 30
0.0
 10
71.29924902455423
 20
-7.441390303142239
 30
0.0
 10
69.20011541396775
 20
-9.41338275283252
 30
0.0
 10
67.20441624779988
 20
-13.27390043212029
 30
0.0
 10
66.86437374788531
 20
-16.02027536205442
 30
0.0
  0
SPLINE
  5
A5
330
1F
100
AcDbEntity
  8
Calque 1
 62
     1
370
    13
100
AcDbSpline
210
0.0
220
0.0
230
1.0
 70
    11
 71
     3
 72
    35
 73
    31
 74
     0
 42
0.0000000001
 43
0.0000000001
 12
1.0
 22
0.0
 32
0.0
 13
1.0
 23
0.0
 33
0.0
 40
0.0
 40
0.0
 40
0.0
 40
0.0
 40
1.0
 40
1.0
 40
1.0
 40
2.0
 40
2.0
 40
2.0
 40
3.0
 40
3.0
 40
3.0
 40
4.0
 40
4.0
 40
4.0
 40
5.0
 40
5.0
 40
5.0
 40
6.0
 40
6.0
 40
6.0
 40
7.0
 40
7.0
 40
7.0
 40
8.0
 40
8.0
 40
8.0
 40
9.0
 40
9.0
 40
9.0
 40
10.0
 40
10.0
 40
10.0
 40
10.0
 10
110.2679995703672
 20
-13.18821071208419
 30
0.0
 10
110.2679995703672
 20
-13.18821071208419
 30
0.0
 10
115.7702040134365
 20
-44.39733026667843
 30
0.0
 10
115.7702040134365
 20
-44.39733026667843
 30
0.0
 10
116.1927965133312
 20
-46.79420832163461
 30
0.0
 10
118.1488787350643
 20
-47.50082221034707
 30
0.0
 10
120.1169906790163
 20
-45.96757943295262
 30
0.0
 10
122.0851026229688
 20
-44.43430137778033
 30
0.0
 10
123.4891581781732
 20
-41.13395943416091
 30
0.0
 10
123.2367809560144
 20
-38.63347145181039
 30
0.0
 10
123.2367809560144
 20
-38.63347145181039
 30
0.0
 10
121.3458567898199
 20
-19.886331652312
 30
0.0
 10
121.3458567898199
 20
-19.886331652312
 30
0.0
 10
121.1256176232084
 20
-17.70277694001868
 30
0.0
 10
119.8696229013005
 20
-15.24814916285469
 30
0.0
 10
118.4121215127755
 20
-14.0012223580092
 30
0.0
 10
118.2006312350511
 20
-13.82024736262626
 30
0.0
 10
117.9849429017718
 20
-13.66424903327278
 30
0.0
 10
117.7674906796037
 20
-13.5386954253648
 30
0.0
 10
117.7674906796037
 20
-13.5386954253648
 30
0.0
 10
112.6421234586629
 20
-10.57959550085773
 30
0.0
 10
112.6421234586629
 20
-10.57959550085773
 30
0.0
 10
110.9261770702034
 20
-9.588888053158259
 30
0.0
 10
109.5171826261104
 20
-8.789989157625504
 30
0.0
 10
109.5109384594458
 20
-8.804310275576569
 30
0.0
 10
109.5103387372235
 20
-8.805687768336112
 30
0.0
 10
109.5138665150004
 20
-8.830558601034937
 30
0.0
 10
109.5195109594433
 20
-8.867071100103425
 30
0.0
 10
109.5721454038746
 20
-9.208630535833963
 30
0.0
 10
109.8861881815744
 20
-11.02271965621936
 30
0.0
 10
110.2679995703672
 20
-13.18821071208419
 30
0.0
  0
SPLINE
  5
A6
330
1F
100
AcDbEntity
  8
Calque 1
 62
     1
370
    13
100
AcDbSpline
210
0.0
220
0.0
230
1.0
 70
    11
 71
     3
 72
    32
 73
    28
 74
     0
 42
0.0000000001
 43
0.0000000001
 12
1.0
 22
0.0
 32
0.0
 13
1.0
 23
0.0
 33
0.0
 40
0.0
 40
0.0
 40
0.0
 40
0.0
 40
1.0
 40
1.0
 40
1.0
 40
2.0
 40
2.0
 40
2.0
 40
3.0
 40
3.0
 40
3.0
 40
4.0
 40
4.0
 40
4.0
 40
5.0
 40
5.0
 40
5.0
 40
6.0
 40
6.0
 40
6.0
 40
7.0
 40
7.0
 40
7.0
 40
8.0
 40
8.0
 40
8.0
 40
9.0
 40
9.0
 40
9.0
 40
9.0
 10
126.0210795664294
 20
-37.32667676292728
 30
0.0
 10
126.2732803997
 20
-39.8270941567099
 30
0.0
 10
127.5918931771477
 20
-41.73763276734323
 30
0.0
 10
128.9512165101411
 20
-41.57217998960679
 30
0.0
 10
130.310716232024
 20
-41.40686832298172
 30
0.0
 10
132.2420334537626
 20
-38.97996977630382
 30
0.0
 10
133.2431815090686
 20
-36.17923179220104
 30
0.0
 10
133.2431815090686
 20
-36.17923179220104
 30
0.0
 10
135.4841317862857
 20
-29.91051195212941
 30
0.0
 10
135.4841317862857
 20
-29.91051195212941
 30
0.0
 10
136.3835034527275
 20
-27.39428804870682
 30
0.0
 10
135.9996106750456
 20
-24.63997680881419
 30
0.0
 10
134.6686153976006
 20
-23.38691017411591
 30
0.0
 10
134.5181556754162
 20
-23.24526860529981
 30
0.0
 10
134.3587706754564
 20
-23.1176701809848
 30
0.0
 10
134.1844984532769
 20
-23.01705796132941
 30
0.0
 10
134.1844984532769
 20
-23.01705796132941
 30
0.0
 10
127.1037898439361
 20
-18.92903249526787
 30
0.0
 10
127.1037898439361
 20
-18.92903249526787
 30
0.0
 10
126.8863376217686
 20
-18.80348029104895
 30
0.0
 10
126.677387344043
 20
-18.71429807110196
 30
0.0
 10
126.4784559552034
 20
-18.65831223919694
 30
0.0
 10
125.1077378999911
 20
-18.27240863793105
 30
0.0
 10
124.2220892891013
 20
-19.49051499574346
 30
0.0
 10
124.4423284557127
 20
-21.67406827336971
 30
0.0
 10
124.4423284557127
 20
-21.67406827336971
 30
0.0
 10
126.0210795664294
 20
-37.32667676292728
 30
0.0
 10
126.0210795664294
 20
-37.32667676292728
 30
0.0
  0
SPLINE
  5
A7
330
1F
100
AcDbEntity
  8
Calque 1
 62
     1
370
    13
100
AcDbSpline
210
0.0
220
0.0
230
1.0
 70
    11
 71
     3
 72
    38
 73
    34
 74
     0
 42
0.0000000001
 43
0.0000000001
 12
1.0
 22
0.0
 32
0.0
 13
1.0
 23
0.0
 33
0.0
 40
0.0
 40
0.0
 40
0.0
 40
0.0
 40
1.0
 40
1.0
 40
1.0
 40
2.0
 40
2.0
 40
2.0
 40
3.0
 40
3.0
 40
3.0
 40
4.0
 40
4.0
 40
4.0
 40
5.0
 40
5.0
 40
5.0
 40
6.0
 40
6.0
 40
6.0
 40
7.0
 40
7.0
 40
7.0
 40
8.0
 40
8.0
 40
8.0
 40
9.0
 40
9.0
 40
9.0
 40
10.0
 40
10.0
 40
10.0
 40
11.0
 40
11.0
 40
11.0
 40
11.0
 10
48.49759847469866
 20
-12.41234656521147
 30
0.0
 10
48.93204430792397
 20
-13.82896097351507
 30
0.0
 10
51.15846014070034
 20
-14.31244290562486
 30
0.0
 10
53.44509514012918
 20
-13.48687237113136
 30
0.0
 10
53.44509514012918
 20
-13.48687237113136
 30
0.0
 10
61.79520402693028
 20
-10.4718908307155
 30
0.0
 10
61.79520402693028
 20
-10.4718908307155
 30
0.0
 10
64.08183902635847
 20
-9.646286635779536
 30
0.0
 10
67.6703298587946
 20
-7.357288083065644
 30
0.0
 10
69.76942819160291
 20
-5.385295633375362
 30
0.0
 10
69.76942819160291
 20
-5.385295633375362
 30
0.0
 10
78.84717652266758
 20
3.142718871279084
 30
0.0
 10
78.84717652266758
 20
3.142718871279084
 30
0.0
 10
80.72529485553079
 20
4.907277992928098
 30
0.0
 10
81.1689481887535
 20
7.030506272093365
 30
0.0
 10
80.01353041126455
 20
8.168214576401342
 30
0.0
 10
79.87760513352079
 20
8.302093739652465
 30
0.0
 10
79.72453485578129
 20
8.42538956984026
 30
0.0
 10
79.54387735582648
 20
8.529705956067817
 30
0.0
 10
79.54387735582648
 20
8.529705956067817
 30
0.0
 10
67.64598819213418
 20
15.39892411415279
 30
0.0
 10
67.64598819213418
 20
15.39892411415279
 30
0.0
 10
67.47538485884365
 20
15.4974549449724
 30
0.0
 10
67.29264597000045
 20
15.56709327652911
 30
0.0
 10
67.10436847004753
 20
15.62135049736711
 30
0.0
 10
65.39875847047374
 20
16.11255826261314
 30
0.0
 10
63.0546559710595
 20
14.83476190632355
 30
0.0
 10
61.61052486030938
 20
12.5131666877746
 30
0.0
 10
61.61052486030938
 20
12.5131666877746
 30
0.0
 10
50.62329625194531
 20
-5.149781194939392
 30
0.0
 10
50.62329625194531
 20
-5.149781194939392
 30
0.0
 10
49.01963903012405
 20
-7.727704740282194
 30
0.0
 10
48.06322319702966
 20
-10.99573215690787
 30
0.0
 10
48.49759847469866
 20
-12.41234656521147
 30
0.0
  0
SPLINE
  5
A8
330
1F
100
AcDbEntity
  8
Calque 1
 62
     1
370
    13
100
AcDbSpline
210
0.0
220
0.0
230
1.0
 70
    11
 71
     3
 72
    41
 73
    37
 74
     0
 42
0.0000000001
 43
0.0000000001
 12
1.0
 22
0.0
 32
0.0
 13
1.0
 23
0.0
 33
0.0
 40
0.0
 40
0.0
 40
0.0
 40
0.0
 40
1.0
 40
1.0
 40
1.0
 40
2.0
 40
2.0
 40
2.0
 40
3.0
 40
3.0
 40
3.0
 40
4.0
 40
4.0
 40
4.0
 40
5.0
 40
5.0
 40
5.0
 40
6.0
 40
6.0
 40
6.0
 40
7.0
 40
7.0
 40
7.0
 40
8.0
 40
8.0
 40
8.0
 40
9.0
 40
9.0
 40
9.0
 40
10.0
 40
10.0
 40
10.0
 40
11.0
 40
11.0
 40
11.0
 40
12.0
 40
12.0
 40
12.0
 40
12.0
 10
152.0230242821511
 20
-33.40646908516234
 30
0.0
 10
151.8766215044096
 20
-33.26733249168306
 30
0.0
 10
151.7206937266711
 20
-33.14160353636407
 30
0.0
 10
151.5483970600474
 20
-33.04215548334564
 30
0.0
 10
151.5483970600474
 20
-33.04215548334564
 30
0.0
 10
142.5984177845071
 20
-27.87487839295164
 30
0.0
 10
142.5984177845071
 20
-27.87487839295164
 30
0.0
 10
142.4241173401061
 20
-27.77422971527858
 30
0.0
 10
142.2436609234846
 20
-27.70558034171524
 30
0.0
 10
142.0607244790857
 20
-27.65474506523438
 30
0.0
 10
140.4424763683795
 20
-27.20505924337348
 30
0.0
 10
138.5575317855172
 20
-28.64947138172636
 30
0.0
 10
137.6581248412979
 20
-31.16565997566347
 30
0.0
 10
137.6581248412979
 20
-31.16565997566347
 30
0.0
 10
135.4313562307431
 20
-37.39433953897884
 30
0.0
 10
135.4313562307431
 20
-37.39433953897884
 30
0.0
 10
134.4302787309934
 20
-40.1951119343957
 30
0.0
 10
133.849994564472
 20
-44.51367637776061
 30
0.0
 10
134.1418828977324
 20
-46.99130526602996
 30
0.0
 10
134.1418828977324
 20
-46.99130526602996
 30
0.0
 10
134.6773642864877
 20
-51.53483609822727
 30
0.0
 10
134.6773642864877
 20
-51.53483609822727
 30
0.0
 10
134.9693231753038
 20
-54.01250026427478
 30
0.0
 10
137.0767470636657
 20
-55.40226831948272
 30
0.0
 10
139.3604540075393
 20
-54.62315859745537
 30
0.0
 10
139.3604540075393
 20
-54.62315859745537
 30
0.0
 10
143.3637889287604
 20
-53.25737943113008
 30
0.0
 10
143.3637889287604
 20
-53.25737943113008
 30
0.0
 10
145.647585478189
 20
-52.47830498688057
 30
0.0
 10
148.4700934497061
 20
-49.57363859871761
 30
0.0
 10
149.6363062271917
 20
-46.80232221052152
 30
0.0
 10
149.6363062271917
 20
-46.80232221052152
 30
0.0
 10
152.5480634486868
 20
-39.88205693447378
 30
0.0
 10
152.5480634486868
 20
-39.88205693447378
 30
0.0
 10
153.59715400398
 20
-37.38908315022405
 30
0.0
 10
153.3347226151563
 20
-34.6530436024477
 30
0.0
 10
152.0230242821511
 20
-33.40646908516234
 30
0.0
  0
SPLINE
  5
A9
330
1F
100
AcDbEntity
  8
Calque 1
 62
     1
370
    13
100
AcDbSpline
210
0.0
220
0.0
230
1.0
 70
    11
 71
     3
 72
    32
 73
    28
 74
     0
 42
0.0000000001
 43
0.0000000001
 12
1.0
 22
0.0
 32
0.0
 13
1.0
 23
0.0
 33
0.0
 40
0.0
 40
0.0
 40
0.0
 40
0.0
 40
1.0
 40
1.0
 40
1.0
 40
2.0
 40
2.0
 40
2.0
 40
3.0
 40
3.0
 40
3.0
 40
4.0
 40
4.0
 40
4.0
 40
5.0
 40
5.0
 40
5.0
 40
6.0
 40
6.0
 40
6.0
 40
7.0
 40
7.0
 40
7.0
 40
8.0
 40
8.0
 40
8.0
 40
9.0
 40
9.0
 40
9.0
 40
9.0
 10
128.0792909548039
 20
-44.96561998875847
 30
0.0
 10
126.5169087329717
 20
-45.15576721093339
 30
0.0
 10
123.4415684559632
 20
-46.71123498832232
 30
0.0
 10
121.2453504009565
 20
-48.42224248789444
 30
0.0
 10
121.2453504009565
 20
-48.42224248789444
 30
0.0
 10
120.6171237344468
 20
-48.91158054332764
 30
0.0
 10
120.6171237344468
 20
-48.91158054332764
 30
0.0
 10
118.4210820683296
 20
-50.62251748734441
 30
0.0
 10
116.2044734577723
 20
-54.15040109757344
 30
0.0
 10
115.6913934579004
 20
-56.75129054136787
 30
0.0
 10
115.1784192913623
 20
-59.35210942960631
 30
0.0
 10
115.9477923467253
 20
-61.90773748452306
 30
0.0
 10
117.4013073463624
 20
-62.43051887328117
 30
0.0
 10
118.8548223459988
 20
-62.95337081759497
 30
0.0
 10
121.7159206786165
 20
-63.23834470641246
 30
0.0
 10
123.7592801225507
 20
-63.06393137312288
 30
0.0
 10
125.8026042887061
 20
-62.88955331761082
 30
0.0
 10
128.5985798435622
 20
-61.62766720681542
 30
0.0
 10
129.9724023432188
 20
-60.25970081826852
 30
0.0
 10
131.3462601206534
 20
-58.89166387416594
 30
0.0
 10
132.2313442870991
 20
-55.74530943050795
 30
0.0
 10
131.9393501205048
 20
-53.26760998668324
 30
0.0
 10
131.9393501205048
 20
-53.26760998668324
 30
0.0
 10
131.4511409539606
 20
-49.12486998771864
 30
0.0
 10
131.4511409539606
 20
-49.12486998771864
 30
0.0
 10
131.1590409540338
 20
-46.64724109944929
 30
0.0
 10
129.6417437321911
 20
-44.77561387769491
 30
0.0
 10
128.0792909548039
 20
-44.96561998875847
 30
0.0
  0
SPLINE
  5
AA
330
1F
100
AcDbEntity
  8
Calque 1
 62
     1
370
    13
100
AcDbSpline
210
0.0
220
0.0
230
1.0
 70
    11
 71
     3
 72
    23
 73
    19
 74
     0
 42
0.0000000001
 43
0.0000000001
 12
1.0
 22
0.0
 32
0.0
 13
1.0
 23
0.0
 33
0.0
 40
0.0
 40
0.0
 40
0.0
 40
0.0
 40
1.0
 40
1.0
 40
1.0
 40
2.0
 40
2.0
 40
2.0
 40
3.0
 40
3.0
 40
3.0
 40
4.0
 40
4.0
 40
4.0
 40
5.0
 40
5.0
 40
5.0
 40
6.0
 40
6.0
 40
6.0
 40
6.0
 10
39.46920375473344
 20
-107.8824077508071
 30
0.0
 10
38.34976931056976
 20
-109.0234321949664
 30
0.0
 10
36.30887931107925
 20
-112.1683402497355
 30
0.0
 10
34.933716255868
 20
-114.8712530268378
 30
0.0
 10
34.933716255868
 20
-114.8712530268378
 30
0.0
 10
30.10888042374089
 20
-124.3550485800222
 30
0.0
 10
30.10888042374089
 20
-124.3550485800222
 30
0.0
 10
29.69556597939924
 20
-125.1674252464859
 30
0.0
 10
29.22481931285036
 20
-126.1429969129088
 30
0.0
 10
28.73964403519398
 20
-127.1839735793151
 30
0.0
 10
28.73964403519398
 20
-127.1839735793151
 30
0.0
 10
63.29073485988947
 20
-107.2355191398577
 30
0.0
 10
63.29073485988947
 20
-107.2355191398577
 30
0.0
 10
63.29073485988947
 20
-107.2355191398577
 30
0.0
 10
45.32023486438256
 20
-106.0579116401521
 30
0.0
 10
45.32023486438256
 20
-106.0579116401521
 30
0.0
 10
43.22159514268456
 20
-105.9203635846309
 30
0.0
 10
40.58867347667658
 20
-106.7413127510925
 30
0.0
 10
39.46920375473344
 20
-107.8824077508071
 30
0.0
  0
SPLINE
  5
AB
330
1F
100
AcDbEntity
  8
Calque 1
 62
     1
370
    13
100
AcDbSpline
210
0.0
220
0.0
230
1.0
 70
    11
 71
     3
 72
    26
 73
    22
 74
     0
 42
0.0000000001
 43
0.0000000001
 12
1.0
 22
0.0
 32
0.0
 13
1.0
 23
0.0
 33
0.0
 40
0.0
 40
0.0
 40
0.0
 40
0.0
 40
1.0
 40
1.0
 40
1.0
 40
2.0
 40
2.0
 40
2.0
 40
3.0
 40
3.0
 40
3.0
 40
4.0
 40
4.0
 40
4.0
 40
5.0
 40
5.0
 40
5.0
 40
6.0
 40
6.0
 40
6.0
 40
7.0
 40
7.0
 40
7.0
 40
7.0
 10
38.48068514386982
 20
-105.2992983070086
 30
0.0
 10
39.45971403251397
 20
-104.301254696147
 30
0.0
 10
40.5790426433451
 20
-102.0192763633842
 30
0.0
 10
40.96819180991457
 20
-100.2280119193873
 30
0.0
 10
41.35734097648405
 20
-98.43664164205764
 30
0.0
 10
40.79861153217917
 20
-95.4550696983584
 30
0.0
 10
39.72676681022485
 20
-93.60203386548832
 30
0.0
 10
39.72676681022485
 20
-93.60203386548832
 30
0.0
 10
27.59706736881325
 20
-72.63190675961988
 30
0.0
 10
27.59706736881325
 20
-72.63190675961988
 30
0.0
 10
27.4387054244086
 20
-72.35817237079927
 30
0.0
 10
27.24898153556648
 20
-72.14014159307622
 30
0.0
 10
27.03943153561917
 20
-71.9646981486755
 30
0.0
 10
27.03943153561917
 20
-71.9646981486755
 30
0.0
 10
27.03921986895213
 20
-101.5895930301583
 30
0.0
 10
27.03921986895213
 20
-101.5895930301583
 30
0.0
 10
27.03921986895213
 20
-101.5895930301583
 30
0.0
 10
33.57319347843001
 20
-105.3254744181132
 30
0.0
 10
33.57319347843001
 20
-105.3254744181132
 30
0.0
 10
35.29326736688881
 20
-106.3091246956448
 30
0.0
 10
37.50158569967
 20
-106.2973066400923
 30
0.0
 10
38.48068514386982
 20
-105.2992983070086
 30
0.0
  0
SPLINE
  5
AC
330
1F
100
AcDbEntity
  8
Calque 1
 62
     1
370
    13
100
AcDbSpline
210
0.0
220
0.0
230
1.0
 70
    11
 71
     3
 72
    41
 73
    37
 74
     0
 42
0.0000000001
 43
0.0000000001
 12
1.0
 22
0.0
 32
0.0
 13
1.0
 23
0.0
 33
0.0
 40
0.0
 40
0.0
 40
0.0
 40
0.0
 40
1.0
 40
1.0
 40
1.0
 40
2.0
 40
2.0
 40
2.0
 40
3.0
 40
3.0
 40
3.0
 40
4.0
 40
4.0
 40
4.0
 40
5.0
 40
5.0
 40
5.0
 40
6.0
 40
6.0
 40
6.0
 40
7.0
 40
7.0
 40
7.0
 40
8.0
 40
8.0
 40
8.0
 40
9.0
 40
9.0
 40
9.0
 40
10.0
 40
10.0
 40
10.0
 40
11.0
 40
11.0
 40
11.0
 40
12.0
 40
12.0
 40
12.0
 40
12.0
 10
58.82520319433924
 20
-57.85523804109175
 30
0.0
 10
59.63571013858127
 20
-59.95775831834383
 30
0.0
 10
62.10663624907443
 20
-61.45787526241329
 30
0.0
 10
64.3161187485221
 20
-61.1889527624804
 30
0.0
 10
64.3161187485221
 20
-61.1889527624804
 30
0.0
 10
71.10825513571307
 20
-60.36221804046489
 30
0.0
 10
71.10825513571307
 20
-60.36221804046489
 30
0.0
 10
73.31770235738323
 20
-60.09336609608768
 30
0.0
 10
76.77855818985105
 20
-58.13594331879924
 30
0.0
 10
78.79902235601277
 20
-56.01250331933019
 30
0.0
 10
78.79902235601277
 20
-56.01250331933019
 30
0.0
 10
86.20530957638313
 20
-48.22881443238711
 30
0.0
 10
86.20530957638313
 20
-48.22881443238711
 30
0.0
 10
88.22566790921165
 20
-46.10537443291807
 30
0.0
 10
90.8401392974467
 20
-42.10240498947446
 30
0.0
 10
92.01506568604186
 20
-39.33331110127782
 30
0.0
 10
92.01506568604186
 20
-39.33331110127782
 30
0.0
 10
97.45772124023671
 20
-26.50698259451623
 30
0.0
 10
97.45772124023671
 20
-26.50698259451623
 30
0.0
 10
98.63268290660939
 20
-23.73795933182657
 30
0.0
 10
97.72999512905768
 20
-22.51981769623729
 30
0.0
 10
95.45165040740497
 20
-23.8001187746852
 30
0.0
 10
95.45165040740497
 20
-23.8001187746852
 30
0.0
 10
67.2823448588916
 20
-39.63010304564808
 30
0.0
 10
67.2823448588916
 20
-39.63010304564808
 30
0.0
 10
65.00400013723953
 20
-40.91047471199459
 30
0.0
 10
61.84145319358556
 20
-44.07623193342528
 30
0.0
 10
60.2543059717602
 20
-46.66519748833375
 30
0.0
 10
60.2543059717602
 20
-46.66519748833375
 30
0.0
 10
59.61426124969734
 20
-47.70934915473926
 30
0.0
 10
59.61426124969734
 20
-47.70934915473926
 30
0.0
 10
58.02718458342766
 20
-50.29831470964773
 30
0.0
 10
57.39179652803139
 20
-54.13674859757683
 30
0.0
 10
58.20230347227277
 20
-56.2393394303846
 30
0.0
 10
58.20230347227277
 20
-56.2393394303846
 30
0.0
 10
58.82520319433924
 20
-57.85523804109175
 30
0.0
 10
58.82520319433924
 20
-57.85523804109175
 30
0.0
  0
SPLINE
  5
AD
330
1F
100
AcDbEntity
  8
Calque 1
 62
     1
370
    13
100
AcDbSpline
210
0.0
220
0.0
230
1.0
 70
    11
 71
     3
 72
    38
 73
    34
 74
     0
 42
0.0000000001
 43
0.0000000001
 12
1.0
 22
0.0
 32
0.0
 13
1.0
 23
0.0
 33
0.0
 40
0.0
 40
0.0
 40
0.0
 40
0.0
 40
1.0
 40
1.0
 40
1.0
 40
2.0
 40
2.0
 40
2.0
 40
3.0
 40
3.0
 40
3.0
 40
4.0
 40
4.0
 40
4.0
 40
5.0
 40
5.0
 40
5.0
 40
6.0
 40
6.0
 40
6.0
 40
7.0
 40
7.0
 40
7.0
 40
8.0
 40
8.0
 40
8.0
 40
9.0
 40
9.0
 40
9.0
 40
10.0
 40
10.0
 40
10.0
 40
11.0
 40
11.0
 40
11.0
 40
11.0
 10
55.47720097295381
 20
-58.13460276324419
 30
0.0
 10
54.66669402871243
 20
-56.03211776376962
 30
0.0
 10
52.36330208484378
 20
-53.98784109761414
 30
0.0
 10
50.35860708534492
 20
-53.59181276437992
 30
0.0
 10
50.35860708534492
 20
-53.59181276437992
 30
0.0
 10
48.00049930815663
 20
-53.12600498671841
 30
0.0
 10
48.00049930815663
 20
-53.12600498671841
 30
0.0
 10
45.99576903088025
 20
-52.73004720903955
 30
0.0
 10
42.528422087302
 20
-53.68847387546666
 30
0.0
 10
40.2954445878608
 20
-55.25586554174156
 30
0.0
 10
40.2954445878608
 20
-55.25586554174156
 30
0.0
 10
32.56474292312672
 20
-60.68208165149619
 30
0.0
 10
32.56474292312672
 20
-60.68208165149619
 30
0.0
 10
30.33173014590672
 20
-62.24954387332645
 30
0.0
 10
28.31461736863374
 20
-64.0810955395354
 30
0.0
 10
28.08252486869171
 20
-64.75218470603421
 30
0.0
 10
27.85015014652759
 20
-65.42348553919973
 30
0.0
 10
28.53722014635565
 20
-67.48854081646112
 30
0.0
 10
29.60913542386565
 20
-69.3415766493312
 30
0.0
 10
29.60913542386565
 20
-69.3415766493312
 30
0.0
 10
41.38242347647814
 20
-89.69551386646505
 30
0.0
 10
41.38242347647814
 20
-89.69551386646505
 30
0.0
 10
42.45416236509861
 20
-91.54847914377945
 30
0.0
 10
44.42530819793903
 20
-90.84063053284548
 30
0.0
 10
45.76244180871606
 20
-88.12279525574718
 30
0.0
 10
45.76244180871606
 20
-88.12279525574718
 30
0.0
 10
55.25936069523039
 20
-68.81875998279526
 30
0.0
 10
55.25936069523039
 20
-68.81875998279526
 30
0.0
 10
56.5965648615631
 20
-66.10057192791919
 30
0.0
 10
57.02751819478832
 20
-62.15651637334987
 30
0.0
 10
56.21708180610262
 20
-60.05396081831994
 30
0.0
 10
56.21708180610262
 20
-60.05396081831994
 30
0.0
 10
55.47720097295381
 20
-58.13460276324419
 30
0.0
 10
55.47720097295381
 20
-58.13460276324419
 30
0.0
  0
SPLINE
  5
AE
330
1F
100
AcDbEntity
  8
Calque 1
 62
     1
370
    13
100
AcDbSpline
210
0.0
220
0.0
230
1.0
 70
    11
 71
     3
 72
    32
 73
    28
 74
     0
 42
0.0000000001
 43
0.0000000001
 12
1.0
 22
0.0
 32
0.0
 13
1.0
 23
0.0
 33
0.0
 40
0.0
 40
0.0
 40
0.0
 40
0.0
 40
1.0
 40
1.0
 40
1.0
 40
2.0
 40
2.0
 40
2.0
 40
3.0
 40
3.0
 40
3.0
 40
4.0
 40
4.0
 40
4.0
 40
5.0
 40
5.0
 40
5.0
 40
6.0
 40
6.0
 40
6.0
 40
7.0
 40
7.0
 40
7.0
 40
8.0
 40
8.0
 40
8.0
 40
9.0
 40
9.0
 40
9.0
 40
9.0
 10
28.30262292419242
 20
-28.34735365867557
 30
0.0
 10
28.63860847966338
 20
-28.51026643229709
 30
0.0
 10
30.78854209023724
 20
-27.83473228286474
 30
0.0
 10
33.08029236744233
 20
-26.84600203031157
 30
0.0
 10
33.08029236744233
 20
-26.84600203031157
 30
0.0
 10
39.42408347696712
 20
-24.1093637667957
 30
0.0
 10
39.42408347696712
 20
-24.1093637667957
 30
0.0
 10
41.71583375417221
 20
-23.12056295868878
 30
0.0
 10
44.28617264241853
 20
-21.16306967529525
 30
0.0
 10
45.13601430887262
 20
-19.75911860617116
 30
0.0
 10
45.98578541977102
 20
-18.35524085804005
 30
0.0
 10
46.29820541969342
 20
-15.9581159191958
 30
0.0
 10
45.83017514203214
 20
-14.43217416305864
 30
0.0
 10
45.36200375326079
 20
-12.90627071927708
 30
0.0
 10
43.17125375380878
 20
-11.87873491215837
 30
0.0
 10
40.96145375436087
 20
-12.14878629415767
 30
0.0
 10
40.96145375436087
 20
-12.14878629415767
 30
0.0
 10
30.26357347925784
 20
-13.45593376080956
 30
0.0
 10
30.26357347925784
 20
-13.45593376080956
 30
0.0
 10
29.08275570177521
 20
-13.60029042379338
 30
0.0
 10
27.92553875761994
 20
-13.89175541635749
 30
0.0
 10
27.03981959117445
 20
-14.23627818534576
 30
0.0
 10
27.03981959117445
 20
-14.23627818534576
 30
0.0
 10
27.03974903561941
 20
-25.31953262481061
 30
0.0
 10
27.03974903561941
 20
-25.31953262481061
 30
0.0
 10
27.52601792438595
 20
-26.9595611940811
 30
0.0
 10
28.03948597981315
 20
-28.21985977303932
 30
0.0
 10
28.30262292419242
 20
-28.34735365867557
 30
0.0
  0
SPLINE
  5
AF
330
1F
100
AcDbEntity
  8
Calque 1
 62
     1
370
    13
100
AcDbSpline
210
0.0
220
0.0
230
1.0
 70
    11
 71
     3
 72
    26
 73
    22
 74
     0
 42
0.0000000001
 43
0.0000000001
 12
1.0
 22
0.0
 32
0.0
 13
1.0
 23
0.0
 33
0.0
 40
0.0
 40
0.0
 40
0.0
 40
0.0
 40
1.0
 40
1.0
 40
1.0
 40
2.0
 40
2.0
 40
2.0
 40
3.0
 40
3.0
 40
3.0
 40
4.0
 40
4.0
 40
4.0
 40
5.0
 40
5.0
 40
5.0
 40
6.0
 40
6.0
 40
6.0
 40
7.0
 40
7.0
 40
7.0
 40
7.0
 10
50.42870402977213
 20
10.93303978364255
 30
0.0
 10
48.15018291923053
 20
9.654890649584186
 30
0.0
 10
45.93255125311811
 20
7.292690709848927
 30
0.0
 10
45.50075125322601
 20
5.683636028677109
 30
0.0
 10
45.06891597555638
 20
4.074863569720314
 30
0.0
 10
45.14712680886954
 20
0.8556605962934687
 30
0.0
 10
45.67449430873823
 20
-1.469956288819546
 30
0.0
 10
45.67449430873823
 20
-1.469956288819546
 30
0.0
 10
45.88746625312931
 20
-2.408556820429407
 30
0.0
 10
45.88746625312931
 20
-2.408556820429407
 30
0.0
 10
46.41483375299736
 20
-4.734138427765544
 30
0.0
 10
48.1583673636728
 20
-4.527657599699975
 30
0.0
 10
49.7618834743827
 20
-1.949910443241562
 30
0.0
 10
49.7618834743827
 20
-1.949910443241562
 30
0.0
 10
58.79789819434603
 20
12.57652557504707
 30
0.0
 10
58.79789819434603
 20
12.57652557504707
 30
0.0
 10
60.40144958283408
 20
15.15434328705924
 30
0.0
 10
59.84917597186082
 20
16.21775659326264
 30
0.0
 10
57.57069013909739
 20
14.93957218142739
 30
0.0
 10
57.57069013909739
 20
14.93957218142739
 30
0.0
 10
50.42870402977213
 20
10.93303978364255
 30
0.0
 10
50.42870402977213
 20
10.93303978364255
 30
0.0
  0
SPLINE
  5
B0
330
1F
100
AcDbEntity
  8
Calque 1
 62
     1
370
    13
100
AcDbSpline
210
0.0
220
0.0
230
1.0
 70
    11
 71
     3
 72
    26
 73
    22
 74
     0
 42
0.0000000001
 43
0.0000000001
 12
1.0
 22
0.0
 32
0.0
 13
1.0
 23
0.0
 33
0.0
 40
0.0
 40
0.0
 40
0.0
 40
0.0
 40
1.0
 40
1.0
 40
1.0
 40
2.0
 40
2.0
 40
2.0
 40
3.0
 40
3.0
 40
3.0
 40
4.0
 40
4.0
 40
4.0
 40
5.0
 40
5.0
 40
5.0
 40
6.0
 40
6.0
 40
6.0
 40
7.0
 40
7.0
 40
7.0
 40
7.0
 10
43.10934125382384
 20
-3.959156225314765
 30
0.0
 10
42.58190319840011
 20
-1.633433506871117
 30
0.0
 10
40.2833795878638
 20
-0.3474174285690094
 30
0.0
 10
38.00161292176731
 20
-1.100986020454984
 30
0.0
 10
38.00161292176731
 20
-1.100986020454984
 30
0.0
 10
33.11391208965581
 20
-2.715365832654605
 30
0.0
 10
33.11391208965581
 20
-2.715365832654605
 30
0.0
 10
30.83221597911563
 20
-3.469006793375074
 30
0.0
 10
28.63610375744217
 20
-5.530322574119861
 30
0.0
 10
28.23386653532057
 20
-7.29604586240584
 30
0.0
 10
27.83166459097649
 20
-9.06176915069182
 30
0.0
 10
29.31040320171834
 20
-10.28566106391218
 30
0.0
 10
31.52020320116562
 20
-10.01550384858224
 30
0.0
 10
31.52020320116562
 20
-10.01550384858224
 30
0.0
 10
40.11559847679472
 20
-8.96524915315425
 30
0.0
 10
40.11559847679472
 20
-8.96524915315425
 30
0.0
 10
42.32529264290879
 20
-8.695162493378067
 30
0.0
 10
43.70172569812036
 20
-6.571546158667146
 30
0.0
 10
43.17435819825231
 20
-4.245929273554131
 30
0.0
 10
43.17435819825231
 20
-4.245929273554131
 30
0.0
 10
43.10934125382384
 20
-3.959156225314765
 30
0.0
 10
43.10934125382384
 20
-3.959156225314765
 30
0.0
  0
SPLINE
  5
B1
330
1F
100
AcDbEntity
  8
Calque 1
 62
     1
370
    13
100
AcDbSpline
210
0.0
220
0.0
230
1.0
 70
    11
 71
     3
 72
    35
 73
    31
 74
     0
 42
0.0000000001
 43
0.0000000001
 12
1.0
 22
0.0
 32
0.0
 13
1.0
 23
0.0
 33
0.0
 40
0.0
 40
0.0
 40
0.0
 40
0.0
 40
1.0
 40
1.0
 40
1.0
 40
2.0
 40
2.0
 40
2.0
 40
3.0
 40
3.0
 40
3.0
 40
4.0
 40
4.0
 40
4.0
 40
5.0
 40
5.0
 40
5.0
 40
6.0
 40
6.0
 40
6.0
 40
7.0
 40
7.0
 40
7.0
 40
8.0
 40
8.0
 40
8.0
 40
9.0
 40
9.0
 40
9.0
 40
10.0
 40
10.0
 40
10.0
 40
10.0
 10
105.2517817938437
 20
-15.85189453301684
 30
0.0
 10
104.2010331829955
 20
-17.52571921253624
 30
0.0
 10
102.3800295723393
 20
-21.16074134202132
 30
0.0
 10
101.2050326281891
 20
-23.92983516026474
 30
0.0
 10
101.2050326281891
 20
-23.92983516026474
 30
0.0
 10
94.58289985206633
 20
-39.53636999011599
 30
0.0
 10
94.58289985206633
 20
-39.53636999011599
 30
0.0
 10
93.40790290791612
 20
-42.30542860053478
 30
0.0
 10
93.21380457463079
 20
-46.19649693289544
 30
0.0
 10
94.15162901884086
 20
-48.18320026573199
 30
0.0
 10
94.15162901884086
 20
-48.18320026573199
 30
0.0
 10
101.3232837392705
 20
-63.37575165082264
 30
0.0
 10
101.3232837392705
 20
-63.37575165082264
 30
0.0
 10
102.261072905703
 20
-65.36241970588168
 30
0.0
 10
104.8915604050449
 20
-65.93137970573939
 30
0.0
 10
107.1688467933643
 20
-64.64017776161772
 30
0.0
 10
107.1688467933643
 20
-64.64017776161772
 30
0.0
 10
107.9151481820666
 20
-64.21691498394566
 30
0.0
 10
107.9151481820666
 20
-64.21691498394566
 30
0.0
 10
110.1922934592753
 20
-62.92557192871295
 30
0.0
 10
112.5018237364753
 20
-59.60663859620954
 30
0.0
 10
113.0471476252285
 20
-56.84142526356732
 30
0.0
 10
113.592471513981
 20
-54.07617665314758
 30
0.0
 10
113.6930484584
 20
-49.85261526531477
 30
0.0
 10
113.2704206807277
 20
-47.45559609924722
 30
0.0
 10
113.2704206807277
 20
-47.45559609924722
 30
0.0
 10
107.930494015396
 20
-17.1668736661356
 30
0.0
 10
107.930494015396
 20
-17.1668736661356
 30
0.0
 10
107.5079367932801
 20
-14.76992511617574
 30
0.0
 10
106.30256568247
 20
-14.17831679793559
 30
0.0
 10
105.2517817938437
 20
-15.85189453301684
 30
0.0
  0
SPLINE
  5
B2
330
1F
100
AcDbEntity
  8
Calque 1
 62
     1
370
    13
100
AcDbSpline
210
0.0
220
0.0
230
1.0
 70
    11
 71
     3
 72
    17
 73
    13
 74
     0
 42
0.0000000001
 43
0.0000000001
 12
1.0
 22
0.0
 32
0.0
 13
1.0
 23
0.0
 33
0.0
 40
0.0
 40
0.0
 40
0.0
 40
0.0
 40
1.0
 40
1.0
 40
1.0
 40
2.0
 40
2.0
 40
2.0
 40
3.0
 40
3.0
 40
3.0
 40
4.0
 40
4.0
 40
4.0
 40
4.0
 10
123.1940595671361
 20
-66.42660915006005
 30
0.0
 10
121.5281370675521
 20
-66.56881387224655
 30
0.0
 10
119.3178784569939
 20
-68.97285331609021
 30
0.0
 10
118.2822992905863
 20
-71.76888884316891
 30
0.0
 10
118.2822992905863
 20
-71.76888884316891
 30
0.0
 10
116.5312515132465
 20
-76.49659436976462
 30
0.0
 10
116.5312515132465
 20
-76.49659436976462
 30
0.0
 10
116.5312515132465
 20
-76.49659436976462
 30
0.0
 10
126.232887344154
 20
-70.89528053783165
 30
0.0
 10
126.232887344154
 20
-70.89528053783165
 30
0.0
 10
126.2112267886037
 20
-68.29283887181576
 30
0.0
 10
124.8505276222775
 20
-66.28532165009545
 30
0.0
 10
123.1940595671361
 20
-66.42660915006005
 30
0.0
  0
SPLINE
  5
B3
330
1F
100
AcDbEntity
  8
Calque 1
 62
     1
370
    13
100
AcDbSpline
210
0.0
220
0.0
230
1.0
 70
    11
 71
     3
 72
    38
 73
    34
 74
     0
 42
0.0000000001
 43
0.0000000001
 12
1.0
 22
0.0
 32
0.0
 13
1.0
 23
0.0
 33
0.0
 40
0.0
 40
0.0
 40
0.0
 40
0.0
 40
1.0
 40
1.0
 40
1.0
 40
2.0
 40
2.0
 40
2.0
 40
3.0
 40
3.0
 40
3.0
 40
4.0
 40
4.0
 40
4.0
 40
5.0
 40
5.0
 40
5.0
 40
6.0
 40
6.0
 40
6.0
 40
7.0
 40
7.0
 40
7.0
 40
8.0
 40
8.0
 40
8.0
 40
9.0
 40
9.0
 40
9.0
 40
10.0
 40
10.0
 40
10.0
 40
11.0
 40
11.0
 40
11.0
 40
11.0
 10
58.27649263892111
 20
-45.25913109979632
 30
0.0
 10
59.86353402741328
 20
-42.67023610044353
 30
0.0
 10
61.44030958257477
 20
-38.304858960194
 30
0.0
 10
61.78031680471182
 20
-35.55841347470611
 30
0.0
 10
61.78031680471182
 20
-35.55841347470611
 30
0.0
 10
63.99974763748993
 20
-17.63119976540077
 30
0.0
 10
63.99974763748993
 20
-17.63119976540077
 30
0.0
 10
64.33968430407195
 20
-14.88493066879726
 30
0.0
 10
62.7470337489144
 20
-13.31330570889275
 30
0.0
 10
60.4602576383755
 20
-14.13898207671688
 30
0.0
 10
60.4602576383755
 20
-14.13898207671688
 30
0.0
 10
52.98214486246663
 20
-16.83900200783363
 30
0.0
 10
52.98214486246663
 20
-16.83900200783363
 30
0.0
 10
50.69547458526092
 20
-17.66460782010401
 30
0.0
 10
48.09924180813179
 20
-19.53845749452034
 30
0.0
 10
47.21271125279821
 20
-21.00301305030489
 30
0.0
 10
46.32614541968648
 20
-22.46760658645819
 30
0.0
 10
45.6279276420827
 20
-25.80290749354928
 30
0.0
 10
45.66091236429698
 20
-28.41501643472713
 30
0.0
 10
45.66091236429698
 20
-28.41501643472713
 30
0.0
 10
45.8623484753577
 20
-44.35153971113443
 30
0.0
 10
45.8623484753577
 20
-44.35153971113443
 30
0.0
 10
45.89529791979382
 20
-46.96350637714794
 30
0.0
 10
47.56256097493251
 20
-49.42469582097708
 30
0.0
 10
49.56739708554273
 20
-49.82079470976698
 30
0.0
 10
49.56739708554273
 20
-49.82079470976698
 30
0.0
 10
51.19645430735768
 20
-50.14259859857533
 30
0.0
 10
51.19645430735768
 20
-50.14259859857533
 30
0.0
 10
53.20114930685654
 20
-50.53862693180987
 30
0.0
 10
56.13996458389963
 20
-48.74422276559168
 30
0.0
 10
57.72704125016931
 20
-46.15539832179457
 30
0.0
 10
57.72704125016931
 20
-46.15539832179457
 30
0.0
 10
58.27649263892111
 20
-45.25913109979632
 30
0.0
 10
58.27649263892111
 20
-45.25913109979632
 30
0.0
  0
SPLINE
  5
B4
330
1F
100
AcDbEntity
  8
Calque 1
 62
     1
370
    13
100
AcDbSpline
210
0.0
220
0.0
230
1.0
 70
    11
 71
     3
 72
    32
 73
    28
 74
     0
 42
0.0000000001
 43
0.0000000001
 12
1.0
 22
0.0
 32
0.0
 13
1.0
 23
0.0
 33
0.0
 40
0.0
 40
0.0
 40
0.0
 40
0.0
 40
1.0
 40
1.0
 40
1.0
 40
2.0
 40
2.0
 40
2.0
 40
3.0
 40
3.0
 40
3.0
 40
4.0
 40
4.0
 40
4.0
 40
5.0
 40
5.0
 40
5.0
 40
6.0
 40
6.0
 40
6.0
 40
7.0
 40
7.0
 40
7.0
 40
8.0
 40
8.0
 40
8.0
 40
9.0
 40
9.0
 40
9.0
 40
9.0
 10
32.19534931210804
 20
-57.66551415225027
 30
0.0
 10
32.19534931210804
 20
-57.66551415225027
 30
0.0
 10
39.07772625483164
 20
-52.83468109790249
 30
0.0
 10
39.07772625483164
 20
-52.83468109790249
 30
0.0
 10
41.31077430982916
 20
-51.26725415384976
 30
0.0
 10
43.11075236493489
 20
-47.84770859914919
 30
0.0
 10
43.07780292049813
 20
-45.23560082202432
 30
0.0
 10
43.07780292049813
 20
-45.23560082202432
 30
0.0
 10
42.89248875387802
 20
-30.56914804643732
 30
0.0
 10
42.89248875387802
 20
-30.56914804643732
 30
0.0
 10
42.85946875388623
 20
-27.95704033529996
 30
0.0
 10
40.95739680991726
 20
-26.62883203585204
 30
0.0
 10
38.66575236604601
 20
-27.61752701062833
 30
0.0
 10
38.66575236604601
 20
-27.61752701062833
 30
0.0
 10
33.62868542286085
 20
-29.79049695519125
 30
0.0
 10
33.62868542286085
 20
-29.79049695519125
 30
0.0
 10
31.33700570121144
 20
-30.77912137441378
 30
0.0
 10
28.90022847959839
 20
-33.88423601741793
 30
0.0
 10
28.21375820199266
 20
-36.69051261249052
 30
0.0
 10
28.21375820199266
 20
-36.69051261249052
 30
0.0
 10
27.03964320228557
 20
-41.49019443407178
 30
0.0
 10
27.03964320228557
 20
-41.49019443407178
 30
0.0
 10
27.03964320228557
 20
-41.49019443407178
 30
0.0
 10
27.03950209117485
 20
-58.53687526314363
 30
0.0
 10
27.03950209117485
 20
-58.53687526314363
 30
0.0
 10
28.44602709082293
 20
-59.15405998521152
 30
0.0
 10
30.48864570142344
 20
-58.8634416519508
 30
0.0
 10
32.19534931210804
 20
-57.66551415225027
 30
0.0
  0
SPLINE
  5
B5
330
1F
100
AcDbEntity
  8
Calque 1
 62
     1
370
    13
100
AcDbSpline
210
0.0
220
0.0
230
1.0
 70
    11
 71
     3
 72
    20
 73
    16
 74
     0
 42
0.0000000001
 43
0.0000000001
 12
1.0
 22
0.0
 32
0.0
 13
1.0
 23
0.0
 33
0.0
 40
0.0
 40
0.0
 40
0.0
 40
0.0
 40
1.0
 40
1.0
 40
1.0
 40
2.0
 40
2.0
 40
2.0
 40
3.0
 40
3.0
 40
3.0
 40
4.0
 40
4.0
 40
4.0
 40
5.0
 40
5.0
 40
5.0
 40
5.0
 10
32.12288875657033
 20
-115.0496880267932
 30
0.0
 10
33.4980165340047
 20
-112.3468105274687
 30
0.0
 10
33.21575903407513
 20
-109.3307016393341
 30
0.0
 10
31.49557931228249
 20
-108.3472983062464
 30
0.0
 10
31.49557931228249
 20
-108.3472983062464
 30
0.0
 10
27.03918459117461
 20
-105.7993960846613
 30
0.0
 10
27.03918459117461
 20
-105.7993960846613
 30
0.0
 10
27.03918459117461
 20
-105.7993960846613
 30
0.0
 10
27.03907875784141
 20
-123.8898758023609
 30
0.0
 10
27.03907875784141
 20
-123.8898758023609
 30
0.0
 10
27.6889659799015
 20
-123.3383783024988
 30
0.0
 10
28.29020514641765
 20
-122.5832221915763
 30
0.0
 10
28.7628215351879
 20
-121.6542524695865
 30
0.0
 10
28.7628215351879
 20
-121.6542524695865
 30
0.0
 10
32.12288875657033
 20
-115.0496880267932
 30
0.0
 10
32.12288875657033
 20
-115.0496880267932
 30
0.0
  0
ENDSEC
  0
SECTION
  2
OBJECTS
  0
DICTIONARY
  5
C
330
0
100
AcDbDictionary
281
     1
  3
ACAD_GROUP
350
D
  3
ACAD_LAYOUT
350
1A
  3
ACAD_MATERIAL
350
3B
  3
ACAD_MLEADERSTYLE
350
B7
  3
ACAD_MLINESTYLE
350
17
  3
ACAD_PLOTSETTINGS
350
19
  3
ACAD_PLOTSTYLENAME
350
E
  3
ACAD_TABLESTYLE
350
B6
  3
ACAD_VISUALSTYLE
350
2A
  0
SUN
  5
3F
330
29
100
AcDbSun
 90
        1
290
     0
 63
     7
421
 16777215
 40
1.0
291
     1
 91
  2455826
 92
 54000000
292
     0
 70
     2
 71
   256
280
     1
  0
DICTIONARY
  5
D
102
{ACAD_REACTORS
330
C
102
}
330
C
100
AcDbDictionary
281
     1
  0
DICTIONARY
  5
1A
102
{ACAD_REACTORS
330
C
102
}
330
C
100
AcDbDictionary
281
     1
  3
Layout1
350
1E
  3
Layout2
350
26
  3
Model
350
22
  0
DICTIONARY
  5
3B
102
{ACAD_REACTORS
330
C
102
}
330
C
100
AcDbDictionary
281
     1
  3
ByBlock
350
3D
  3
ByLayer
350
3C
  3
Global
350
3E
  0
DICTIONARY
  5
B7
102
{ACAD_REACTORS
330
C
102
}
330
C
100
AcDbDictionary
281
     1
  0
DICTIONARY
  5
17
102
{ACAD_REACTORS
330
C
102
}
330
C
100
AcDbDictionary
281
     1
  3
Standard
350
18
  0
DICTIONARY
  5
19
102
{ACAD_REACTORS
330
C
102
}
330
C
100
AcDbDictionary
281
     1
  0
ACDBDICTIONARYWDFLT
  5
E
102
{ACAD_REACTORS
330
C
102
}
330
C
100
AcDbDictionary
281
     1
  3
Normal
350
F
100
AcDbDictionaryWithDefault
340
F
  0
DICTIONARY
  5
B6
102
{ACAD_REACTORS
330
C
102
}
330
C
100
AcDbDictionary
281
     1
  0
DICTIONARY
  5
2A
102
{ACAD_REACTORS
330
C
102
}
330
C
100
AcDbDictionary
281
     1
  3
2dWireframe
350
2F
  3
3D Hidden
350
31
  3
3dWireframe
350
30
  3
Basic
350
32
  3
Brighten
350
36
  3
ColorChange
350
3A
  3
Conceptual
350
34
  3
Dim
350
35
  3
Facepattern
350
39
  3
Flat
350
2B
  3
FlatWithEdges
350
2C
  3
Gouraud
350
2D
  3
GouraudWithEdges
350
2E
  3
Linepattern
350
38
  3
Realistic
350
33
  3
Thicken
350
37
  0
LAYOUT
  5
1E
102
{ACAD_REACTORS
330
1A
102
}
330
1A
100
AcDbPlotSettings
  1

  2
none_device
  4

  6

 40
0.0
 41
0.0
 42
0.0
 43
0.0
 44
0.0
 45
0.0
 46
0.0
 47
0.0
 48
0.0
 49
0.0
140
0.0
141
0.0
142
1.0
143
1.0
 70
   688
 72
     0
 73
     0
 74
     5
  7

 75
    16
 76
     0
 77
     2
 78
   300
147
1.0
148
0.0
149
0.0
100
AcDbLayout
  1
Layout1
 70
     1
 71
     1
 10
0.0
 20
0.0
 11
12.0
 21
9.0
 12
0.0
 22
0.0
 32
0.0
 14
1.000000000000000E+20
 24
1.000000000000000E+20
 34
1.000000000000000E+20
 15
-1.000000000000000E+20
 25
-1.000000000000000E+20
 35
-1.000000000000000E+20
146
0.0
 13
0.0
 23
0.0
 33
0.0
 16
1.0
 26
0.0
 36
0.0
 17
0.0
 27
1.0
 37
0.0
 76
     0
330
1B
  0
LAYOUT
  5
26
102
{ACAD_REACTORS
330
1A
102
}
330
1A
100
AcDbPlotSettings
  1

  2
none_device
  4

  6

 40
0.0
 41
0.0
 42
0.0
 43
0.0
 44
0.0
 45
0.0
 46
0.0
 47
0.0
 48
0.0
 49
0.0
140
0.0
141
0.0
142
1.0
143
1.0
 70
   688
 72
     0
 73
     0
 74
     5
  7

 75
    16
 76
     0
 77
     2
 78
   300
147
1.0
148
0.0
149
0.0
100
AcDbLayout
  1
Layout2
 70
     1
 71
     2
 10
0.0
 20
0.0
 11
0.0
 21
0.0
 12
0.0
 22
0.0
 32
0.0
 14
0.0
 24
0.0
 34
0.0
 15
0.0
 25
0.0
 35
0.0
146
0.0
 13
0.0
 23
0.0
 33
0.0
 16
1.0
 26
0.0
 36
0.0
 17
0.0
 27
1.0
 37
0.0
 76
     0
330
23
  0
LAYOUT
  5
22
102
{ACAD_REACTORS
330
1A
102
}
330
1A
100
AcDbPlotSettings
  1

  2
none_device
  4

  6

 40
0.0
 41
0.0
 42
0.0
 43
0.0
 44
0.0
 45
0.0
 46
0.0
 47
0.0
 48
0.0
 49
0.0
140
0.0
141
0.0
142
1.0
143
1.0
 70
  1712
 72
     0
 73
     0
 74
     0
  7

 75
     0
 76
     0
 77
     2
 78
   300
147
1.0
148
0.0
149
0.0
100
AcDbLayout
  1
Model
 70
     1
 71
     0
 10
0.0
 20
0.0
 11
12.0
 21
9.0
 12
0.0
 22
0.0
 32
0.0
 14
1.000000000000000E+20
 24
1.000000000000000E+20
 34
1.000000000000000E+20
 15
-1.000000000000000E+20
 25
-1.000000000000000E+20
 35
-1.000000000000000E+20
146
0.0
 13
0.0
 23
0.0
 33
0.0
 16
1.0
 26
0.0
 36
0.0
 17
0.0
 27
1.0
 37
0.0
 76
     0
330
1F
331
29
  0
MATERIAL
  5
3D
102
{ACAD_REACTORS
330
3B
102
}
330
3B
100
AcDbMaterial
  1
ByBlock
 72
     1
 94
      127
  0
MATERIAL
  5
3C
102
{ACAD_REACTORS
330
3B
102
}
330
3B
100
AcDbMaterial
  1
ByLayer
 72
     1
 94
      127
  0
MATERIAL
  5
3E
102
{ACAD_REACTORS
330
3B
102
}
330
3B
100
AcDbMaterial
  1
Global
 72
     1
 94
      127
  0
MLINESTYLE
  5
18
102
{ACAD_REACTORS
330
17
102
}
330
17
100
AcDbMlineStyle
  2
Standard
 70
     0
  3

 62
   256
 51
90.0
 52
90.0
 71
     2
 49
0.5
 62
   256
  6
BYLAYER
 49
-0.5
 62
   256
  6
BYLAYER
  0
ACDBPLACEHOLDER
  5
F
102
{ACAD_REACTORS
330
E
102
}
330
E
  0
VISUALSTYLE
  5
2F
102
{ACAD_REACTORS
330
2A
102
}
330
2A
100
AcDbVisualStyle
  2
2dWireframe
 70
     4
177
     2
291
     0
 71
     0
176
     1
 72
     2
176
     1
 73
     0
176
     1
 90
        0
176
     1
 40
-0.6
176
     1
 41
-30.0
176
     1
 62
     5
 63
     7
421
 16777215
176
     1
 74
     1
176
     1
 91
        4
176
     1
 64
     7
176
     1
 65
   257
176
     1
 75
     1
176
     1
175
     1
176
     1
 42
1.0
176
     1
 92
        0
176
     1
 66
   257
176
     1
 43
1.0
176
     1
 76
     1
176
     1
 77
     6
176
     1
 78
     2
176
     1
 67
     7
176
     1
 79
     5
176
     1
170
     0
176
     1
171
     0
176
     1
290
     0
176
     1
 93
        1
176
     1
 44
0.0
176
     1
173
     0
176
     1
  0
VISUALSTYLE
  5
31
102
{ACAD_REACTORS
330
2A
102
}
330
2A
100
AcDbVisualStyle
  2
3D Hidden
 70
     6
177
     2
291
     0
 71
     1
176
     1
 72
     2
176
     1
 73
     2
176
     1
 90
        0
176
     1
 40
-0.6
176
     1
 41
-30.0
176
     1
 62
     5
 63
     7
421
 16777215
176
     1
 74
     2
176
     1
 91
        2
176
     1
 64
     7
176
     1
 65
   257
176
     1
 75
     2
176
     1
175
     1
176
     1
 42
40.0
176
     1
 92
        0
176
     1
 66
   257
176
     1
 43
1.0
176
     1
 76
     1
176
     1
 77
     6
176
     1
 78
     2
176
     1
 67
     7
176
     1
 79
     3
176
     1
170
     0
176
     1
171
     0
176
     1
290
     0
176
     1
 93
        1
176
     1
 44
0.0
176
     1
173
     0
176
     1
  0
VISUALSTYLE
  5
30
102
{ACAD_REACTORS
330
2A
102
}
330
2A
100
AcDbVisualStyle
  2
3dWireframe
 70
     5
177
     2
291
     0
 71
     0
176
     1
 72
     2
176
     1
 73
     0
176
     1
 90
        0
176
     1
 40
-0.6
176
     1
 41
-30.0
176
     1
 62
     5
 63
     7
421
 16777215
176
     1
 74
     1
176
     1
 91
        4
176
     1
 64
     7
176
     1
 65
   257
176
     1
 75
     1
176
     1
175
     1
176
     1
 42
1.0
176
     1
 92
        0
176
     1
 66
   257
176
     1
 43
1.0
176
     1
 76
     1
176
     1
 77
     6
176
     1
 78
     2
176
     1
 67
     7
176
     1
 79
     5
176
     1
170
     0
176
     1
171
     0
176
     1
290
     0
176
     1
 93
        1
176
     1
 44
0.0
176
     1
173
     0
176
     1
  0
VISUALSTYLE
  5
32
102
{ACAD_REACTORS
330
2A
102
}
330
2A
100
AcDbVisualStyle
  2
Basic
 70
     7
177
     2
291
     1
 71
     1
176
     1
 72
     0
176
     1
 73
     1
176
     1
 90
        0
176
     1
 40
-0.6
176
     1
 41
-30.0
176
     1
 62
     5
 63
     7
421
 16777215
176
     1
 74
     0
176
     1
 91
        4
176
     1
 64
     7
176
     1
 65
   257
176
     1
 75
     1
176
     1
175
     1
176
     1
 42
1.0
176
     1
 92
        8
176
     1
 66
     7
176
     1
 43
1.0
176
     1
 76
     1
176
     1
 77
     6
176
     1
 78
     2
176
     1
 67
     7
176
     1
 79
     5
176
     1
170
     0
176
     1
171
     0
176
     1
290
     0
176
     1
 93
        1
176
     1
 44
0.0
176
     1
173
     0
176
     1
  0
VISUALSTYLE
  5
36
102
{ACAD_REACTORS
330
2A
102
}
330
2A
100
AcDbVisualStyle
  2
Brighten
 70
    12
177
     2
291
     1
 71
     2
176
     1
 72
     2
176
     1
 73
     0
176
     1
 90
        0
176
     1
 40
-0.6
176
     1
 41
-30.0
176
     1
 62
     5
 63
     7
421
 16777215
176
     1
 74
     1
176
     1
 91
        4
176
     1
 64
     7
176
     1
 65
   257
176
     1
 75
     1
176
     1
175
     1
176
     1
 42
1.0
176
     1
 92
        8
176
     1
 66
     7
176
     1
 43
1.0
176
     1
 76
     1
176
     1
 77
     6
176
     1
 78
     2
176
     1
 67
     7
176
     1
 79
     5
176
     1
170
     0
176
     1
171
     0
176
     1
290
     0
176
     1
 93
        1
176
     1
 44
50.0
176
     1
173
     0
176
     1
  0
VISUALSTYLE
  5
3A
102
{ACAD_REACTORS
330
2A
102
}
330
2A
100
AcDbVisualStyle
  2
ColorChange
 70
    16
177
     2
291
     1
 71
     2
176
     1
 72
     2
176
     1
 73
     3
176
     1
 90
        0
176
     1
 40
-0.6
176
     1
 41
-30.0
176
     1
 62
     5
 63
     8
421
  8421504
176
     1
 74
     1
176
     1
 91
        4
176
     1
 64
     7
176
     1
 65
   257
176
     1
 75
     1
176
     1
175
     1
176
     1
 42
1.0
176
     1
 92
        8
176
     1
 66
     8
424
  8421504
176
     1
 43
1.0
176
     1
 76
     1
176
     1
 77
     6
176
     1
 78
     2
176
     1
 67
     7
176
     1
 79
     5
176
     1
170
     0
176
     1
171
     0
176
     1
290
     0
176
     1
 93
        1
176
     1
 44
0.0
176
     1
173
     0
176
     1
  0
VISUALSTYLE
  5
34
102
{ACAD_REACTORS
330
2A
102
}
330
2A
100
AcDbVisualStyle
  2
Conceptual
 70
     9
177
     2
291
     0
 71
     3
176
     1
 72
     2
176
     1
 73
     0
176
     1
 90
        0
176
     1
 40
-0.6
176
     1
 41
-30.0
176
     1
 62
     5
 63
     7
421
 16777215
176
     1
 74
     2
176
     1
 91
        2
176
     1
 64
     7
176
     1
 65
   257
176
     1
 75
     1
176
     1
175
     1
176
     1
 42
40.0
176
     1
 92
        8
176
     1
 66
     7
176
     1
 43
1.0
176
     1
 76
     1
176
     1
 77
     6
176
     1
 78
     2
176
     1
 67
     7
176
     1
 79
     3
176
     1
170
     0
176
     1
171
     0
176
     1
290
     0
176
     1
 93
        1
176
     1
 44
0.0
176
     1
173
     0
176
     1
  0
VISUALSTYLE
  5
35
102
{ACAD_REACTORS
330
2A
102
}
330
2A
100
AcDbVisualStyle
  2
Dim
 70
    11
177
     2
291
     1
 71
     2
176
     1
 72
     2
176
     1
 73
     0
176
     1
 90
        0
176
     1
 40
-0.6
176
     1
 41
-30.0
176
     1
 62
     5
 63
     7
421
 16777215
176
     1
 74
     1
176
     1
 91
        4
176
     1
 64
     7
176
     1
 65
   257
176
     1
 75
     1
176
     1
175
     1
176
     1
 42
1.0
176
     1
 92
        8
176
     1
 66
     7
176
     1
 43
1.0
176
     1
 76
     1
176
     1
 77
     6
176
     1
 78
     2
176
     1
 67
     7
176
     1
 79
     5
176
     1
170
     0
176
     1
171
     0
176
     1
290
     0
176
     1
 93
        1
176
     1
 44
-50.0
176
     1
173
     0
176
     1
  0
VISUALSTYLE
  5
39
102
{ACAD_REACTORS
330
2A
102
}
330
2A
100
AcDbVisualStyle
  2
Facepattern
 70
    15
177
     2
291
     1
 71
     2
176
     1
 72
     2
176
     1
 73
     0
176
     1
 90
        0
176
     1
 40
-0.6
176
     1
 41
-30.0
176
     1
 62
     5
 63
     7
421
 16777215
176
     1
 74
     1
176
     1
 91
        4
176
     1
 64
     7
176
     1
 65
   257
176
     1
 75
     1
176
     1
175
     1
176
     1
 42
1.0
176
     1
 92
        8
176
     1
 66
     7
176
     1
 43
1.0
176
     1
 76
     1
176
     1
 77
     6
176
     1
 78
     2
176
     1
 67
     7
176
     1
 79
     5
176
     1
170
     0
176
     1
171
     0
176
     1
290
     0
176
     1
 93
        1
176
     1
 44
0.0
176
     1
173
     0
176
     1
  0
VISUALSTYLE
  5
2B
102
{ACAD_REACTORS
330
2A
102
}
330
2A
100
AcDbVisualStyle
  2
Flat
 70
     0
177
     2
291
     1
 71
     2
176
     1
 72
     1
176
     1
 73
     1
176
     1
 90
        2
176
     1
 40
-0.6
176
     1
 41
30.0
176
     1
 62
     5
 63
     7
421
 16777215
176
     1
 74
     0
176
     1
 91
        4
176
     1
 64
     7
176
     1
 65
   257
176
     1
 75
     1
176
     1
175
     1
176
     1
 42
1.0
176
     1
 92
        8
176
     1
 66
     7
176
     1
 43
1.0
176
     1
 76
     1
176
     1
 77
     6
176
     1
 78
     2
176
     1
 67
     7
176
     1
 79
     5
176
     1
170
     0
176
     1
171
     0
176
     1
290
     0
176
     1
 93
       13
176
     1
 44
0.0
176
     1
173
     0
176
     1
  0
VISUALSTYLE
  5
2C
102
{ACAD_REACTORS
330
2A
102
}
330
2A
100
AcDbVisualStyle
  2
FlatWithEdges
 70
     1
177
     2
291
     1
 71
     2
176
     1
 72
     1
176
     1
 73
     1
176
     1
 90
        2
176
     1
 40
-0.6
176
     1
 41
30.0
176
     1
 62
     5
 63
     7
421
 16777215
176
     1
 74
     1
176
     1
 91
        4
176
     1
 64
     7
176
     1
 65
   257
176
     1
 75
     1
176
     1
175
     1
176
     1
 42
1.0
176
     1
 92
        0
176
     1
 66
   257
176
     1
 43
1.0
176
     1
 76
     1
176
     1
 77
     6
176
     1
 78
     2
176
     1
 67
     7
176
     1
 79
     5
176
     1
170
     0
176
     1
171
     0
176
     1
290
     0
176
     1
 93
       13
176
     1
 44
0.0
176
     1
173
     0
176
     1
  0
VISUALSTYLE
  5
2D
102
{ACAD_REACTORS
330
2A
102
}
330
2A
100
AcDbVisualStyle
  2
Gouraud
 70
     2
177
     2
291
     1
 71
     2
176
     1
 72
     2
176
     1
 73
     1
176
     1
 90
        2
176
     1
 40
-0.6
176
     1
 41
30.0
176
     1
 62
     5
 63
     7
421
 16777215
176
     1
 74
     0
176
     1
 91
        4
176
     1
 64
     7
176
     1
 65
   257
176
     1
 75
     1
176
     1
175
     1
176
     1
 42
1.0
176
     1
 92
        0
176
     1
 66
     7
176
     1
 43
1.0
176
     1
 76
     1
176
     1
 77
     6
176
     1
 78
     2
176
     1
 67
     7
176
     1
 79
     5
176
     1
170
     0
176
     1
171
     0
176
     1
290
     0
176
     1
 93
       13
176
     1
 44
0.0
176
     1
173
     0
176
     1
  0
VISUALSTYLE
  5
2E
102
{ACAD_REACTORS
330
2A
102
}
330
2A
100
AcDbVisualStyle
  2
GouraudWithEdges
 70
     3
177
     2
291
     1
 71
     2
176
     1
 72
     2
176
     1
 73
     1
176
     1
 90
        2
176
     1
 40
-0.6
176
     1
 41
30.0
176
     1
 62
     5
 63
     7
421
 16777215
176
     1
 74
     1
176
     1
 91
        4
176
     1
 64
     7
176
     1
 65
   257
176
     1
 75
     1
176
     1
175
     1
176
     1
 42
1.0
176
     1
 92
        0
176
     1
 66
   257
176
     1
 43
1.0
176
     1
 76
     1
176
     1
 77
     6
176
     1
 78
     2
176
     1
 67
     7
176
     1
 79
     5
176
     1
170
     0
176
     1
171
     0
176
     1
290
     0
176
     1
 93
       13
176
     1
 44
0.0
176
     1
173
     0
176
     1
  0
VISUALSTYLE
  5
38
102
{ACAD_REACTORS
330
2A
102
}
330
2A
100
AcDbVisualStyle
  2
Linepattern
 70
    14
177
     2
291
     1
 71
     2
176
     1
 72
     2
176
     1
 73
     0
176
     1
 90
        0
176
     1
 40
-0.6
176
     1
 41
-30.0
176
     1
 62
     5
 63
     7
421
 16777215
176
     1
 74
     1
176
     1
 91
        4
176
     1
 64
     7
176
     1
 65
   257
176
     1
 75
     7
176
     1
175
     7
176
     1
 42
1.0
176
     1
 92
        8
176
     1
 66
     7
176
     1
 43
1.0
176
     1
 76
     1
176
     1
 77
     6
176
     1
 78
     2
176
     1
 67
     7
176
     1
 79
     5
176
     1
170
     0
176
     1
171
     0
176
     1
290
     0
176
     1
 93
        1
176
     1
 44
0.0
176
     1
173
     0
176
     1
  0
VISUALSTYLE
  5
33
102
{ACAD_REACTORS
330
2A
102
}
330
2A
100
AcDbVisualStyle
  2
Realistic
 70
     8
177
     2
291
     0
 71
     2
176
     1
 72
     2
176
     1
 73
     0
176
     1
 90
        0
176
     1
 40
-0.6
176
     1
 41
-30.0
176
     1
 62
     5
 63
     7
421
 16777215
176
     1
 74
     1
176
     1
 91
        0
176
     1
 64
     7
176
     1
 65
   257
176
     1
 75
     1
176
     1
175
     1
176
     1
 42
1.0
176
     1
 92
        8
176
     1
 66
     8
424
  7895160
176
     1
 43
1.0
176
     1
 76
     1
176
     1
 77
     6
176
     1
 78
     2
176
     1
 67
     7
176
     1
 79
     5
176
     1
170
     0
176
     1
171
     0
176
     1
290
     0
176
     1
 93
       13
176
     1
 44
0.0
176
     1
173
     0
176
     1
  0
VISUALSTYLE
  5
37
102
{ACAD_REACTORS
330
2A
102
}
330
2A
100
AcDbVisualStyle
  2
Thicken
 70
    13
177
     2
291
     1
 71
     2
176
     1
 72
     2
176
     1
 73
     0
176
     1
 90
        0
176
     1
 40
-0.6
176
     1
 41
-30.0
176
     1
 62
     5
 63
     7
421
 16777215
176
     1
 74
     1
176
     1
 91
        4
176
     1
 64
     7
176
     1
 65
   257
176
     1
 75
     1
176
     1
175
     1
176
     1
 42
1.0
176
     1
 92
       12
176
     1
 66
     7
176
     1
 43
1.0
176
     1
 76
     1
176
     1
 77
     6
176
     1
 78
     2
176
     1
 67
     7
176
     1
 79
     5
176
     1
170
     0
176
     1
171
     0
176
     1
290
     0
176
     1
 93
        1
176
     1
 44
0.0
176
     1
173
     0
176
     1
  0
ENDSEC
  0
EOF
