999
dxflib 3.12.2.0
  0
SECTION
  2
HEADER
  9
$ACADVER
  1
AC1015
  9
$HANDSEED
  5
FFFF
  9
$ANGBASE
 50
0.0
  9
$ANGDIR
 70
0
  9
$ATTMODE
 70
1
  9
$AUNITS
 70
0
  9
$AUPREC
 70
0
  9
$CECOLOR
 62
256
  9
$CHAMFERA
 40
0.0
  9
$CHAMFERB
 40
0.0
  9
$DIMADEC
 70
0
  9
$DIMALT
 70
0
  9
$DIMALTD
 70
2
  9
$DIMALTF
 40
25.399999999999999
  9
$DIMAPOST
  1

  9
$DIMASZ
 40
0.18
  9
$DIMAUNIT
 70
0
  9
$DIMAZIN
 70
0
  9
$DIMBLK
  1

  9
$DIMBLK1
  1

  9
$DIMBLK2
  1

  9
$DIMCEN
 40
0.09
  9
$DIMCLRD
 70
0
  9
$DIMCLRE
 70
0
  9
$DIMCLRT
 70
0
  9
$DIMDEC
 70
4
  9
$DIMDLE
 40
0.0
  9
$DIMDLI
 40
0.38
  9
$DIMEXE
 40
0.18
  9
$DIMEXO
 40
0.0625
  9
$DIMGAP
 40
0.09
  9
$DIMLFAC
 40
1.0
  9
$DIMLIM
 70
0
  9
$DIMLUNIT
 70
2
  9
$DIMPOST
  1

  9
$DIMRND
 40
0.0
  9
$DIMSAH
 70
0
  9
$DIMSCALE
 40
1.0
  9
$DIMSE1
 70
0
  9
$DIMSE2
 70
0
  9
$DIMSOXD
 70
0
  9
$DIMTAD
 70
0
  9
$DIMTFAC
 40
1.0
  9
$DIMTIH
 70
1
  9
$DIMTIX
 70
0
  9
$DIMTM
 40
0.0
  9
$DIMTOFL
 70
0
  9
$DIMTOH
 70
1
  9
$DIMTOL
 70
0
  9
$DIMTP
 40
0.0
  9
$DIMTSZ
 40
0.0
  9
$DIMTVP
 40
0.0
  9
$DIMTXT
 40
0.18
  9
$DIMZIN
 70
0
  9
$DWGCODEPAGE
  3
ANSI_1252
  9
$ELEVATION
 40
0.0
  9
$EXTMAX
 10
138.5927814241787
 20
243.5749194583436
 30
0.0
  9
$EXTMIN
 10
-560.62499537571478
 20
-280.54643061513718
 30
0.0
  9
$FILLETRAD
 40
0.5
  9
$FILLMODE
 70
1
  9
$INSBASE
 10
0.0
 20
0.0
 30
0.0
  9
$INSUNITS
 70
0
  9
$LIMCHECK
 70
0
  9
$LIMMAX
 10
12.0
 20
9.0
  9
$LIMMIN
 10
0.0
 20
0.0
  9
$LTSCALE
 40
1.0
  9
$LUNITS
 70
2
  9
$LUPREC
 70
3
  9
$MAXACTVP
 70
64
  9
$MEASUREMENT
 70
1
  9
$MIRRTEXT
 70
1
  9
$ORTHOMODE
 70
0
  9
$PDMODE
 70
0
  9
$PDSIZE
 40
0
  9
$PELEVATION
 40
0.0
  9
$PEXTMAX
 10
-100000000000000000000.0
 20
-100000000000000000000.0
 30
-100000000000000000000.0
  9
$PEXTMIN
 10
100000000000000000000.0
 20
100000000000000000000.0
 30
100000000000000000000.0
  9
$PLIMCHECK
 70
0
  9
$PLIMMAX
 10
12.0
 20
9.0
  9
$PLIMMIN
 10
0.0
 20
0.0
  9
$PLINEGEN
 70
0
  9
$PLINEWID
 40
0.0
  9
$PSLTSCALE
 70
1
  9
$PUCSNAME
  2

  9
$PUCSORG
 10
0.0
 20
0.0
 30
0.0
  9
$PUCSXDIR
 10
1.0
 20
0.0
 30
0.0
  9
$PUCSYDIR
 10
0.0
 20
1.0
 30
0.0
  9
$QTEXTMODE
 70
0
  9
$REGENMODE
 70
1
  9
$SHADEDGE
 70
3
  9
$SHADEDIF
 70
70
  9
$SKETCHINC
 40
0.1
  9
$SKPOLY
 70
0
  9
$SPLFRAME
 70
0
  9
$SPLINESEGS
 70
8
  9
$SPLINETYPE
 70
6
  9
$SURFTAB1
 70
6
  9
$SURFTAB2
 70
6
  9
$SURFTYPE
 70
6
  9
$SURFU
 70
6
  9
$SURFV
 70
6
  9
$TEXTSIZE
 40
0.2
  9
$TEXTSTYLE
  7
STANDARD
  9
$THICKNESS
 40
0.0
  9
$TILEMODE
 70
1
  9
$TRACEWID
 40
0.05
  9
$UCSNAME
  2

  9
$UCSORG
 10
0.0
 20
0.0
 30
0.0
  9
$UCSXDIR
 10
1.0
 20
0.0
 30
0.0
  9
$UCSYDIR
 10
0.0
 20
1.0
 30
0.0
  9
$UNITMODE
 70
0
  9
$USERI1
 70
0
  9
$USERI2
 70
0
  9
$USERI3
 70
0
  9
$USERI4
 70
0
  9
$USERI5
 70
0
  9
$USERR1
 40
0.0
  9
$USERR2
 40
0.0
  9
$USERR3
 40
0.0
  9
$USERR4
 40
0.0
  9
$USERR5
 40
0.0
  9
$USRTIMER
 70
1
  9
$VISRETAIN
 70
1
  0
ENDSEC
  0
SECTION
  2
TABLES
  0
TABLE
  2
VPORT
  5
8
100
AcDbSymbolTable
 70
1
  0
VPORT
  5
30
100
AcDbSymbolTableRecord
100
AcDbViewportTableRecord
  2
*Active
 70
0
 10
0.0
 20
0.0
 11
1.0
 21
1.0
 12
286.30555555555549
 22
148.5
 13
0.0
 23
0.0
 14
10.0
 24
10.0
 15
10.0
 25
10.0
 16
0.0
 26
0.0
 36
1.0
 17
0.0
 27
0.0
 37
0.0
 40
297.0
 41
1.92798353909465
 42
50.0
 43
0.0
 44
0.0
 50
0.0
 51
0.0
 71
0
 72
100
 73
1
 74
3
 75
1
 76
1
 77
0
 78
0
281
0
 65
1
110
0.0
120
0.0
130
0.0
111
1.0
121
0.0
131
0.0
112
0.0
122
1.0
132
0.0
 79
0
146
0.0
  0
ENDTAB
  0
TABLE
  2
LTYPE
  5
5
100
AcDbSymbolTable
 70
50
  0
LTYPE
  5
16
100
AcDbSymbolTableRecord
100
AcDbLinetypeTableRecord
  2
CONTINUOUS
 70
0
  3
Solid line
 72
65
 73
0
 40
0.0
  0
LTYPE
  5
31
100
AcDbSymbolTableRecord
100
AcDbLinetypeTableRecord
  2
PHANTOMX2
 70
0
  3
Phantom (2x) ____________    ____    ____   _
 72
65
 73
6
 40
127.00000000000001
 49
63.5
 74
0
 49
-12.699999999999999
 74
0
 49
12.699999999999999
 74
0
 49
-12.699999999999999
 74
0
 49
12.699999999999999
 74
0
 49
-12.699999999999999
 74
0
  0
LTYPE
  5
32
100
AcDbSymbolTableRecord
100
AcDbLinetypeTableRecord
  2
CENTERX2
 70
0
  3
Center (2x) ________  __  ________  __  _____
 72
65
 73
4
 40
101.60000000000001
 49
63.5
 74
0
 49
-12.699999999999999
 74
0
 49
12.699999999999999
 74
0
 49
-12.699999999999999
 74
0
  0
LTYPE
  5
33
100
AcDbSymbolTableRecord
100
AcDbLinetypeTableRecord
  2
FENCELINE1
 70
0
  3
Fenceline circle ----0-----0----0-----0----0-----0--
 72
65
 73
4
 40
36.829999999999998
 49
6.3499999999999996
 74
0
 49
-2.54
 74
0
 49
-2.54
 74
0
 49
25.399999999999999
 74
0
  0
LTYPE
  5
34
100
AcDbSymbolTableRecord
100
AcDbLinetypeTableRecord
  2
DOT
 70
0
  3
Dot . . . . . . . . . . . . . . . . . . . . . . . .
 72
65
 73
2
 40
6.3499999999999996
 49
0.0
 74
0
 49
-6.3499999999999996
 74
0
  0
LTYPE
  5
35
100
AcDbSymbolTableRecord
100
AcDbLinetypeTableRecord
  2
DOT2
 70
0
  3
Dot (.5x) ........................................
 72
65
 73
2
 40
3.1749999999999998
 49
0.0
 74
0
 49
-3.1749999999999998
 74
0
  0
LTYPE
  5
36
100
AcDbSymbolTableRecord
100
AcDbLinetypeTableRecord
  2
ACAD_ISO07W100
 70
0
  3
ISO dot . . . . . . . . . . . . . . . . . . . . 
 72
65
 73
2
 40
3.0
 49
0.0
 74
0
 49
-3.0
 74
0
  0
LTYPE
  5
37
100
AcDbSymbolTableRecord
100
AcDbLinetypeTableRecord
  2
DASHEDX2
 70
0
  3
Dashed (2x) ____  ____  ____  ____  ____  ___
 72
65
 73
2
 40
38.099999999999994
 49
25.399999999999999
 74
0
 49
-12.699999999999999
 74
0
  0
LTYPE
  5
38
100
AcDbSymbolTableRecord
100
AcDbLinetypeTableRecord
  2
ACAD_ISO09W100
 70
0
  3
ISO long-dash double-short-dash ____ __ __ ____
 72
65
 73
6
 40
45.0
 49
24.0
 74
0
 49
-3.0
 74
0
 49
6.0
 74
0
 49
-3.0
 74
0
 49
6.0
 74
0
 49
-3.0
 74
0
  0
LTYPE
  5
39
100
AcDbSymbolTableRecord
100
AcDbLinetypeTableRecord
  2
ACAD_ISO06W100
 70
0
  3
ISO long-dash triple-dot ____ ... ____ ... ____
 72
65
 73
8
 40
36.0
 49
24.0
 74
0
 49
-3.0
 74
0
 49
0.0
 74
0
 49
-3.0
 74
0
 49
0.0
 74
0
 49
-3.0
 74
0
 49
0.0
 74
0
 49
-3.0
 74
0
  0
LTYPE
  5
3A
100
AcDbSymbolTableRecord
100
AcDbLinetypeTableRecord
  2
DIVIDE2
 70
0
  3
Divide (.5x) __..__..__..__..__..__..__..__.._
 72
65
 73
6
 40
15.875
 49
6.3499999999999996
 74
0
 49
-3.1749999999999998
 74
0
 49
0.0
 74
0
 49
-3.1749999999999998
 74
0
 49
0.0
 74
0
 49
-3.1749999999999998
 74
0
  0
LTYPE
  5
3B
100
AcDbSymbolTableRecord
100
AcDbLinetypeTableRecord
  2
HIDDENX2
 70
0
  3
Hidden (2x) ____ ____ ____ ____ ____ ____ ____ 
 72
65
 73
2
 40
19.049999999999997
 49
12.699999999999999
 74
0
 49
-6.3499999999999996
 74
0
  0
LTYPE
  5
15
100
AcDbSymbolTableRecord
100
AcDbLinetypeTableRecord
  2
BYLAYER
 70
0
  3

 72
65
 73
0
 40
0.0
  0
LTYPE
  5
3C
100
AcDbSymbolTableRecord
100
AcDbLinetypeTableRecord
  2
ACAD_ISO02W100
 70
0
  3
ISO dash __ __ __ __ __ __ __ __ __ __ __ __ __
 72
65
 73
2
 40
15.0
 49
12.0
 74
0
 49
-3.0
 74
0
  0
LTYPE
  5
3D
100
AcDbSymbolTableRecord
100
AcDbLinetypeTableRecord
  2
DASHDOT2
 70
0
  3
Dash dot (.5x) _._._._._._._._._._._._._._._.
 72
65
 73
4
 40
12.699999999999999
 49
6.3499999999999996
 74
0
 49
-3.1749999999999998
 74
0
 49
0.0
 74
0
 49
-3.1749999999999998
 74
0
  0
LTYPE
  5
3E
100
AcDbSymbolTableRecord
100
AcDbLinetypeTableRecord
  2
BATTING
 70
0
  3
Batting SSSSSSSSSSSSSSSSSSSSSSSSSSSSSSSSSSSSSSSSSSSSSSS
 72
65
 73
4
 40
10.16254
 49
0.00254
 74
0
 49
-2.54
 74
0
 49
-5.0800000000000001
 74
0
 49
-2.54
 74
0
  0
LTYPE
  5
3F
100
AcDbSymbolTableRecord
100
AcDbLinetypeTableRecord
  2
CENTER2
 70
0
  3
Center (.5x) ___ _ ___ _ ___ _ ___ _ ___ _ ___
 72
65
 73
4
 40
28.575000000000003
 49
19.050000000000001
 74
0
 49
-3.1749999999999998
 74
0
 49
3.1749999999999998
 74
0
 49
-3.1749999999999998
 74
0
  0
LTYPE
  5
40
100
AcDbSymbolTableRecord
100
AcDbLinetypeTableRecord
  2
ACAD_ISO05W100
 70
0
  3
ISO long-dash double-dot ____ .. ____ .. ____ . 
 72
65
 73
6
 40
33.0
 49
24.0
 74
0
 49
-3.0
 74
0
 49
0.0
 74
0
 49
-3.0
 74
0
 49
0.0
 74
0
 49
-3.0
 74
0
  0
LTYPE
  5
41
100
AcDbSymbolTableRecord
100
AcDbLinetypeTableRecord
  2
DIVIDE
 70
0
  3
Divide ____ . . ____ . . ____ . . ____ . . ____
 72
65
 73
6
 40
31.75
 49
12.699999999999999
 74
0
 49
-6.3499999999999996
 74
0
 49
0.0
 74
0
 49
-6.3499999999999996
 74
0
 49
0.0
 74
0
 49
-6.3499999999999996
 74
0
  0
LTYPE
  5
42
100
AcDbSymbolTableRecord
100
AcDbLinetypeTableRecord
  2
HIDDEN
 70
0
  3
Hidden __ __ __ __ __ __ __ __ __ __ __ __ __ __
 72
65
 73
2
 40
9.5249999999999986
 49
6.3499999999999996
 74
0
 49
-3.1749999999999998
 74
0
  0
LTYPE
  5
43
100
AcDbSymbolTableRecord
100
AcDbLinetypeTableRecord
  2
ACAD_ISO11W100
 70
0
  3
ISO double-dash dot __ __ . __ __ . __ __ . __ _
 72
65
 73
6
 40
33.0
 49
12.0
 74
0
 49
-3.0
 74
0
 49
12.0
 74
0
 49
-3.0
 74
0
 49
0.0
 74
0
 49
-3.0
 74
0
  0
LTYPE
  5
44
100
AcDbSymbolTableRecord
100
AcDbLinetypeTableRecord
  2
ACAD_ISO13W100
 70
0
  3
ISO double-dash double-dot __ __ . . __ __ . . _
 72
65
 73
8
 40
36.0
 49
12.0
 74
0
 49
-3.0
 74
0
 49
12.0
 74
0
 49
-3.0
 74
0
 49
0.0
 74
0
 49
-3.0
 74
0
 49
0.0
 74
0
 49
-3.0
 74
0
  0
LTYPE
  5
45
100
AcDbSymbolTableRecord
100
AcDbLinetypeTableRecord
  2
ACAD_ISO04W100
 70
0
  3
ISO long-dash dot ____ . ____ . ____ . ____ . _
 72
65
 73
4
 40
30.0
 49
24.0
 74
0
 49
-3.0
 74
0
 49
0.0
 74
0
 49
-3.0
 74
0
  0
LTYPE
  5
46
100
AcDbSymbolTableRecord
100
AcDbLinetypeTableRecord
  2
ACAD_ISO10W100
 70
0
  3
ISO dash dot __ . __ . __ . __ . __ . __ . __ . 
 72
65
 73
4
 40
18.0
 49
12.0
 74
0
 49
-3.0
 74
0
 49
0.0
 74
0
 49
-3.0
 74
0
  0
LTYPE
  5
47
100
AcDbSymbolTableRecord
100
AcDbLinetypeTableRecord
  2
ACAD_ISO08W100
 70
0
  3
ISO long-dash short-dash ____ __ ____ __ ____ _
 72
65
 73
4
 40
36.0
 49
24.0
 74
0
 49
-3.0
 74
0
 49
6.0
 74
0
 49
-3.0
 74
0
  0
LTYPE
  5
48
100
AcDbSymbolTableRecord
100
AcDbLinetypeTableRecord
  2
DASHED
 70
0
  3
Dashed __ __ __ __ __ __ __ __ __ __ __ __ __ _
 72
65
 73
2
 40
19.049999999999997
 49
12.699999999999999
 74
0
 49
-6.3499999999999996
 74
0
  0
LTYPE
  5
49
100
AcDbSymbolTableRecord
100
AcDbLinetypeTableRecord
  2
GAS_LINE
 70
0
  3
Gas line ----GAS----GAS----GAS----GAS----GAS----GAS--
 72
65
 73
3
 40
24.130000000000003
 49
12.699999999999999
 74
0
 49
-5.0800000000000001
 74
0
 49
-6.3499999999999996
 74
0
  0
LTYPE
  5
4A
100
AcDbSymbolTableRecord
100
AcDbLinetypeTableRecord
  2
PHANTOM
 70
0
  3
Phantom ______  __  __  ______  __  __  ______ 
 72
65
 73
6
 40
63.500000000000007
 49
31.75
 74
0
 49
-6.3499999999999996
 74
0
 49
6.3499999999999996
 74
0
 49
-6.3499999999999996
 74
0
 49
6.3499999999999996
 74
0
 49
-6.3499999999999996
 74
0
  0
LTYPE
  5
4B
100
AcDbSymbolTableRecord
100
AcDbLinetypeTableRecord
  2
ACAD_ISO12W100
 70
0
  3
ISO dash double-dot __ . . __ . . __ . . __ . . 
 72
65
 73
6
 40
21.0
 49
12.0
 74
0
 49
-3.0
 74
0
 49
0.0
 74
0
 49
-3.0
 74
0
 49
0.0
 74
0
 49
-3.0
 74
0
  0
LTYPE
  5
4C
100
AcDbSymbolTableRecord
100
AcDbLinetypeTableRecord
  2
DOTX2
 70
0
  3
Dot (2x) .  .  .  .  .  .  .  .  .  .  .  .  .  .
 72
65
 73
2
 40
12.699999999999999
 49
0.0
 74
0
 49
-12.699999999999999
 74
0
  0
LTYPE
  5
4D
100
AcDbSymbolTableRecord
100
AcDbLinetypeTableRecord
  2
DASHDOTX2
 70
0
  3
Dash dot (2x) ____  .  ____  .  ____  .  ___
 72
65
 73
4
 40
50.799999999999997
 49
25.399999999999999
 74
0
 49
-12.699999999999999
 74
0
 49
0.0
 74
0
 49
-12.699999999999999
 74
0
  0
LTYPE
  5
4E
100
AcDbSymbolTableRecord
100
AcDbLinetypeTableRecord
  2
HOT_WATER_SUPPLY
 70
0
  3
Hot water supply ---- HW ---- HW ---- HW ----
 72
65
 73
3
 40
22.859999999999999
 49
12.699999999999999
 74
0
 49
-5.0800000000000001
 74
0
 49
-5.0800000000000001
 74
0
  0
LTYPE
  5
4F
100
AcDbSymbolTableRecord
100
AcDbLinetypeTableRecord
  2
BORDER2
 70
0
  3
Border (.5x) __.__.__.__.__.__.__.__.__.__.__.
 72
65
 73
6
 40
22.224999999999998
 49
6.3499999999999996
 74
0
 49
-3.1749999999999998
 74
0
 49
6.3499999999999996
 74
0
 49
-3.1749999999999998
 74
0
 49
0.0
 74
0
 49
-3.1749999999999998
 74
0
  0
LTYPE
  5
50
100
AcDbSymbolTableRecord
100
AcDbLinetypeTableRecord
  2
HIDDEN2
 70
0
  3
Hidden (.5x) _ _ _ _ _ _ _ _ _ _ _ _ _ _ _ _ _ 
 72
65
 73
2
 40
4.7624999999999993
 49
3.1749999999999998
 74
0
 49
-1.5874999999999999
 74
0
  0
LTYPE
  5
51
100
AcDbSymbolTableRecord
100
AcDbLinetypeTableRecord
  2
CENTER
 70
0
  3
Center ____ _ ____ _ ____ _ ____ _ ____ _ ____
 72
65
 73
4
 40
50.800000000000004
 49
31.75
 74
0
 49
-6.3499999999999996
 74
0
 49
6.3499999999999996
 74
0
 49
-6.3499999999999996
 74
0
  0
LTYPE
  5
52
100
AcDbSymbolTableRecord
100
AcDbLinetypeTableRecord
  2
TRACKS
 70
0
  3
Tracks -|-|-|-|-|-|-|-|-|-|-|-|-|-|-|-|-|-|-|-|-|-|-|-|-
 72
65
 73
2
 40
7.6200000000000001
 49
3.8100000000000001
 74
0
 49
3.8100000000000001
 74
0
  0
LTYPE
  5
53
100
AcDbSymbolTableRecord
100
AcDbLinetypeTableRecord
  2
ACAD_ISO03W100
 70
0
  3
ISO dash space __    __    __    __    __    __
 72
65
 73
2
 40
30.0
 49
12.0
 74
0
 49
-18.0
 74
0
  0
LTYPE
  5
54
100
AcDbSymbolTableRecord
100
AcDbLinetypeTableRecord
  2
DRAINAGE
 70
0
  3
Drainage ---->---->---->----
 72
65
 73
2
 40
10.16
 49
5.0800000000000001
 74
0
 49
5.0800000000000001
 74
0
  0
LTYPE
  5
55
100
AcDbSymbolTableRecord
100
AcDbLinetypeTableRecord
  2
DASHDOT
 70
0
  3
Dash dot __ . __ . __ . __ . __ . __ . __ . __
 72
65
 73
4
 40
25.399999999999999
 49
12.699999999999999
 74
0
 49
-6.3499999999999996
 74
0
 49
0.0
 74
0
 49
-6.3499999999999996
 74
0
  0
LTYPE
  5
56
100
AcDbSymbolTableRecord
100
AcDbLinetypeTableRecord
  2
ZIGZAG
 70
0
  3
Zig zag /\/\/\/\/\/\/\/\/\/\/\/\/\/\/\/\/\/\/\/\/\/\/\/
 72
65
 73
4
 40
20.32254
 49
0.00254
 74
0
 49
-5.0800000000000001
 74
0
 49
-10.16
 74
0
 49
-5.0800000000000001
 74
0
  0
LTYPE
  5
57
100
AcDbSymbolTableRecord
100
AcDbLinetypeTableRecord
  2
DASHED2
 70
0
  3
Dashed (.5x) _ _ _ _ _ _ _ _ _ _ _ _ _ _ _ _ _ 
 72
65
 73
2
 40
9.5249999999999986
 49
6.3499999999999996
 74
0
 49
-3.1749999999999998
 74
0
  0
LTYPE
  5
58
100
AcDbSymbolTableRecord
100
AcDbLinetypeTableRecord
  2
PHANTOM2
 70
0
  3
Phantom (.5x) ___ _ _ ___ _ _ ___ _ _ ___ _ _
 72
65
 73
6
 40
31.750000000000004
 49
15.875
 74
0
 49
-3.1749999999999998
 74
0
 49
3.1749999999999998
 74
0
 49
-3.1749999999999998
 74
0
 49
3.1749999999999998
 74
0
 49
-3.1749999999999998
 74
0
  0
LTYPE
  5
59
100
AcDbSymbolTableRecord
100
AcDbLinetypeTableRecord
  2
BORDERX2
 70
0
  3
Border (2x) ____  ____  .  ____  ____  .  ___
 72
65
 73
6
 40
88.899999999999991
 49
25.399999999999999
 74
0
 49
-12.699999999999999
 74
0
 49
25.399999999999999
 74
0
 49
-12.699999999999999
 74
0
 49
0.0
 74
0
 49
-12.699999999999999
 74
0
  0
LTYPE
  5
5A
100
AcDbSymbolTableRecord
100
AcDbLinetypeTableRecord
  2
DRAINAGE2
 70
0
  3
Drainage reversed----<----<----<----
 72
65
 73
2
 40
10.16
 49
5.0800000000000001
 74
0
 49
5.0800000000000001
 74
0
  0
LTYPE
  5
5B
100
AcDbSymbolTableRecord
100
AcDbLinetypeTableRecord
  2
ACAD_ISO15W100
 70
0
  3
ISO double-dash triple-dot __ __ . . . __ __ . .
 72
65
 73
10
 40
39.0
 49
12.0
 74
0
 49
-3.0
 74
0
 49
12.0
 74
0
 49
-3.0
 74
0
 49
0.0
 74
0
 49
-3.0
 74
0
 49
0.0
 74
0
 49
-3.0
 74
0
 49
0.0
 74
0
 49
-3.0
 74
0
  0
LTYPE
  5
5C
100
AcDbSymbolTableRecord
100
AcDbLinetypeTableRecord
  2
BORDER
 70
0
  3
Border __ __ . __ __ . __ __ . __ __ . __ __ .
 72
65
 73
6
 40
44.449999999999996
 49
12.699999999999999
 74
0
 49
-6.3499999999999996
 74
0
 49
12.699999999999999
 74
0
 49
-6.3499999999999996
 74
0
 49
0.0
 74
0
 49
-6.3499999999999996
 74
0
  0
LTYPE
  5
5D
100
AcDbSymbolTableRecord
100
AcDbLinetypeTableRecord
  2
FENCELINE2
 70
0
  3
Fenceline square ----[]-----[]----[]-----[]----[]---
 72
65
 73
4
 40
36.829999999999998
 49
6.3499999999999996
 74
0
 49
-2.54
 74
0
 49
-2.54
 74
0
 49
25.399999999999999
 74
0
  0
LTYPE
  5
5E
100
AcDbSymbolTableRecord
100
AcDbLinetypeTableRecord
  2
DIVIDEX2
 70
0
  3
Divide (2x) ________  .  .  ________  .  .  _
 72
65
 73
6
 40
63.5
 49
25.399999999999999
 74
0
 49
-12.699999999999999
 74
0
 49
0.0
 74
0
 49
-12.699999999999999
 74
0
 49
0.0
 74
0
 49
-12.699999999999999
 74
0
  0
LTYPE
  5
14
100
AcDbSymbolTableRecord
100
AcDbLinetypeTableRecord
  2
BYBLOCK
 70
0
  3

 72
65
 73
0
 40
0.0
  0
LTYPE
  5
5F
100
AcDbSymbolTableRecord
100
AcDbLinetypeTableRecord
  2
ACAD_ISO14W100
 70
0
  3
ISO dash triple-dot __ . . . __ . . . __ . . . _
 72
65
 73
8
 40
24.0
 49
12.0
 74
0
 49
-3.0
 74
0
 49
0.0
 74
0
 49
-3.0
 74
0
 49
0.0
 74
0
 49
-3.0
 74
0
 49
0.0
 74
0
 49
-3.0
 74
0
  0
ENDTAB
  0
TABLE
  2
LAYER
  5
2
100
AcDbSymbolTable
 70
2
  0
LAYER
  5
60
100
AcDbSymbolTableRecord
100
AcDbLayerTableRecord
  2
D\U+fffdFAUT
 70
0
 62
7
420
16777215
  6
CONTINUOUS
370
5
390
F
  0
LAYER
  5
10
100
AcDbSymbolTableRecord
100
AcDbLayerTableRecord
  2
0
 70
0
 62
7
420
16777215
  6
CONTINUOUS
370
5
390
F
  0
ENDTAB
  0
TABLE
  2
STYLE
  5
3
100
AcDbSymbolTable
 70
1
  0
STYLE
  5
61
100
AcDbSymbolTableRecord
100
AcDbTextStyleTableRecord
  2
Standard
 70
0
 40
0.0
 41
1.0
 50
0.0
 71
0
 42
2.5
  3

  4

1001
ACAD
1000
txt
1071
0
  0
ENDTAB
  0
TABLE
  2
VIEW
  5
6
100
AcDbSymbolTable
 70
0
  0
ENDTAB
  0
TABLE
  2
UCS
  5
7
100
AcDbSymbolTable
 70
0
  0
ENDTAB
  0
TABLE
  2
APPID
  5
9
100
AcDbSymbolTable
 70
1
  0
APPID
  5
12
100
AcDbSymbolTableRecord
100
AcDbRegAppTableRecord
  2
ACAD
 70
0
  0
APPID
  5
62
100
AcDbSymbolTableRecord
100
AcDbRegAppTableRecord
  2
QCAD
 70
0
  0
ENDTAB
  0
TABLE
  2
DIMSTYLE
  5
A
100
AcDbSymbolTable
 70
1
100
AcDbDimStyleTable
 71
0
  0
DIMSTYLE
105
27
100
AcDbSymbolTableRecord
100
AcDbDimStyleTableRecord
  2
Standard
 41
0.18
 42
0.0625
 43
3.75
 44
0.18
 70
0
 73
0
 74
0
 77
1
 78
8
140
0.18
141
2.5
143
0.03937007874016
147
0.09
171
3
172
1
271
2
272
2
274
3
278
44
283
0
284
8
340
61
  0
ENDTAB
  0
TABLE
  2
BLOCK_RECORD
  5
1
100
AcDbSymbolTable
 70
1
  0
BLOCK_RECORD
  5
1F
100
AcDbSymbolTableRecord
100
AcDbBlockTableRecord
  2
*Model_Space
340
22
  0
BLOCK_RECORD
  5
1B
100
AcDbSymbolTableRecord
100
AcDbBlockTableRecord
  2
*Paper_Space
340
1E
  0
BLOCK_RECORD
  5
23
100
AcDbSymbolTableRecord
100
AcDbBlockTableRecord
  2
*Paper_Space0
340
26
  0
BLOCK_RECORD
  5
63
100
AcDbSymbolTableRecord
100
AcDbBlockTableRecord
  2
$PAPER_SPACE
340
0
  0
BLOCK_RECORD
  5
64
100
AcDbSymbolTableRecord
100
AcDbBlockTableRecord
  2
$MODEL_SPACE
340
0
  0
ENDTAB
  0
ENDSEC
  0
SECTION
  2
BLOCKS
  0
BLOCK
  5
20
100
AcDbEntity
  8
0
100
AcDbBlockBegin
  2
*Model_Space
 70
0
 10
0.0
 20
0.0
 30
0.0
  3
*Model_Space
  1

  0
ENDBLK
  5
21
100
AcDbEntity
  8
0
100
AcDbBlockEnd
  0
BLOCK
  5
1C
100
AcDbEntity
 67
1
  8
0
100
AcDbBlockBegin
  2
*Paper_Space
 70
0
 10
0.0
 20
0.0
 30
0.0
  3
*Paper_Space
  1

  0
ENDBLK
  5
1D
100
AcDbEntity
 67
1
  8
0
100
AcDbBlockEnd
  0
BLOCK
  5
24
100
AcDbEntity
  8
0
100
AcDbBlockBegin
  2
*Paper_Space0
 70
0
 10
0.0
 20
0.0
 30
0.0
  3
*Paper_Space0
  1

  0
ENDBLK
  5
25
100
AcDbEntity
  8
0
100
AcDbBlockEnd
  0
BLOCK
  5
65
100
AcDbEntity
  8
0
100
AcDbBlockBegin
  2
$PAPER_SPACE
 70
0
 10
0.0
 20
0.0
 30
0.0
  3
$PAPER_SPACE
  1

  0
ENDBLK
  5
66
100
AcDbEntity
  8
0
100
AcDbBlockEnd
  0
BLOCK
  5
67
100
AcDbEntity
  8
0
100
AcDbBlockBegin
  2
$MODEL_SPACE
 70
0
 10
0.0
 20
0.0
 30
0.0
  3
$MODEL_SPACE
  1

  0
ENDBLK
  5
68
100
AcDbEntity
  8
0
100
AcDbBlockEnd
  0
ENDSEC
  0
SECTION
  2
ENTITIES
  0
CIRCLE
  5
69
100
AcDbEntity
  8
D\U+fffdFAUT
 62
7
420
16777215
370
-1
 48
1.0
  6
BYLAYER
100
AcDbCircle
 10
-170.953880640926
 20
165.58450580198061
 30
0.0
 40
14.74592893380092
  0
LWPOLYLINE
  5
6A
100
AcDbEntity
  8
D\U+fffdFAUT
 62
7
420
16777215
370
-1
 48
1.0
  6
BYLAYER
100
AcDbPolyline
 90
19
 70
1
 10
-156.69168396054511
 20
64.815758834231389
 30
0.0
 10
-158.3708499403904
 20
63.698694773016108
 30
0.0
 10
-159.8876716598588
 20
62.648978085893837
 30
0.0
 10
-161.38515649735359
 20
61.572078025866809
 30
0.0
 42
-0.6789183271938196
 10
-164.53735646471321
 20
63.546620166204768
 30
0.0
 10
-160.70523375862061
 20
83.977042242914337
 30
0.0
 42
-0.3544572160064134
 10
-158.788367002645
 20
85.600751781211898
 30
0.0
 42
-0.0044883389923766
 10
-117.5467394962469
 20
86.18033981975168
 30
0.0
 42
-0.8730153310060114
 10
-116.97565684352899
 20
82.272959069022917
 30
0.0
 10
-123.0678510952396
 20
80.406784338400655
 30
0.0
 10
-127.5688503075756
 20
78.878610691227891
 30
0.0
 10
-131.86079970914739
 20
77.291607287763725
 30
0.0
 10
-136.1060594042583
 20
75.584976376534541
 30
0.0
 10
-140.1333418960198
 20
73.827426642324724
 30
0.0
 10
-144.1046462599505
 20
71.948064547387219
 30
0.0
 10
-147.85308971214201
 20
70.026161326251383
 30
0.0
 10
-151.53512927788421
 20
67.981166395364568
 30
0.0
 10
-153.27267375564909
 20
66.956398100093566
 30
0.0
 10
-154.9919086077503
 20
65.901461094819837
 30
0.0
  0
LWPOLYLINE
  5
6B
100
AcDbEntity
  8
D\U+fffdFAUT
 62
7
420
16777215
370
-1
 48
1.0
  6
BYLAYER
100
AcDbPolyline
 90
10
 70
1
 10
-169.5126144385344
 20
95.24244418707957
 30
0.0
 42
0.3828498182066977
 10
-167.54507785541199
 20
97.037015133431424
 30
0.0
 42
0.4089803601337506
 10
-224.84835647520529
 20
167.94799316486379
 30
0.0
 42
0.3309270387551217
 10
-366.85532365931482
 20
82.192867994778226
 30
0.0
 10
-358.37227419748632
 20
83.620162758086366
 30
0.0
 10
-349.37577542039509
 20
84.965898021222671
 30
0.0
 10
-329.84242992042482
 20
87.412690046979549
 30
0.0
 10
-308.25528715940351
 20
89.533244072048717
 30
0.0
 10
-284.61434713733138
 20
91.327560096430233
 30
0.0
 10
-231.17107531003469
 20
93.937478143130278
 30
0.0
  0
LWPOLYLINE
  5
6C
100
AcDbEntity
  8
D\U+fffdFAUT
 62
7
420
16777215
370
-1
 48
1.0
  6
BYLAYER
100
AcDbPolyline
 90
4
 70
1
 10
-413.29923517975902
 20
64.081614020138289
 30
0.0
 42
-0.9999999999953345
 10
-412.8630924767042
 20
63.18173650482197
 30
0.0
 42
0.037112320458172
 10
-425.09956325350709
 20
56.085980518094509
 30
0.0
 42
-0.9999998318509714
 10
-425.66394900700101
 20
56.911491705936882
 30
0.0
 42
-0.0371123381546925
  0
LWPOLYLINE
  5
6D
100
AcDbEntity
  8
D\U+fffdFAUT
 62
7
420
16777215
370
-1
 48
1.0
  6
BYLAYER
100
AcDbPolyline
 90
174
 70
1
 10
-175.02800913080191
 20
45.045082352832907
 30
0.0
 10
-174.0451493072508
 20
44.860727891945523
 30
0.0
 10
-173.127028838516
 20
49.755557762379482
 30
0.0
 10
-170.37502133257451
 20
49.239365271895082
 30
0.0
 10
-171.29268876076179
 20
44.346950723283811
 30
0.0
 10
-170.74714004418729
 20
44.245421732845053
 30
0.0
 42
0.2538065416590609
 10
-169.838533714855
 20
44.538340539332481
 30
0.0
 10
-168.7751780646455
 20
45.720811339188373
 30
0.0
 10
-167.67155731433789
 20
46.89262516743949
 30
0.0
 10
-166.52763796226679
 20
48.053359105620558
 30
0.0
 10
-165.34340898579731
 20
49.20259174607898
 30
0.0
 10
-164.1188821644312
 20
50.339903612388213
 30
0.0
 10
-162.85409237572739
 20
51.464877583924277
 30
0.0
 10
-161.54909786293391
 20
52.577099323833153
 30
0.0
 10
-160.20398047327569
 20
53.676157709594662
 30
0.0
 10
-158.81884586590419
 20
54.761645265362318
 30
0.0
 10
-157.39382368857
 20
55.83315859523961
 30
0.0
 10
-155.9290677221538
 20
56.890298816633077
 30
0.0
 10
-154.42475599225509
 20
57.932671992808622
 30
0.0
 10
-152.88109084711641
 20
58.959889563760981
 30
0.0
 10
-151.29829900123869
 20
59.9715687744999
 30
0.0
 10
-149.67663154412651
 20
60.967333099844922
 30
0.0
 10
-148.01636391368729
 20
61.94681266481993
 30
0.0
 10
-144.58125121644079
 20
63.855473749041693
 30
0.0
 10
-140.9956481099434
 20
65.694741641722345
 30
0.0
 10
-137.26262361923051
 20
67.461938199415869
 30
0.0
 10
-133.38562138408199
 20
69.154529663834722
 30
0.0
 10
-129.3684501467697
 20
70.770138125494952
 30
0.0
 10
-125.21527198145181
 20
72.3065522032974
 30
0.0
 10
-120.9305883347706
 20
73.761736842496532
 30
0.0
 10
-116.5192239721179
 20
75.133842141995558
 30
0.0
 10
-111.9863089479162
 20
76.421211131755229
 30
0.0
 10
-107.33725874067549
 20
77.622386432152666
 30
0.0
 10
-102.5777527141282
 20
78.736115739196265
 30
0.0
 10
-97.713711084042927
 20
79.761356092376076
 30
0.0
 10
-92.751270586057984
 20
80.697276895388882
 30
0.0
 10
-87.696759052782909
 20
81.543261673776016
 30
0.0
 10
-82.556669118298657
 20
82.298908567412184
 30
0.0
 10
-77.33763127490019
 20
82.964029569538923
 30
0.0
 10
-72.04638651040392
 20
83.538648537409642
 30
0.0
 10
-66.689758754593782
 20
84.02299801238118
 30
0.0
 10
-55.807899840014016
 20
84.722835065547827
 30
0.0
 10
-44.747267135736188
 20
85.069384129358269
 30
0.0
 10
-33.562683665454408
 20
85.071445251567383
 30
0.0
 10
48.091108969929508
 20
83.147945152038119
 30
0.0
 42
-0.326614864121791
 10
54.644918324688533
 20
78.114471429080808
 30
0.0
 10
54.913904869912443
 20
78.064017755650752
 30
0.0
 42
0.4142135281663242
 10
55.497511698782617
 20
78.463270471515045
 30
0.0
 10
56.581634316002983
 20
84.24311277989105
 30
0.0
 10
59.304156057001592
 20
83.732450917507236
 30
0.0
 10
58.320145034699593
 20
78.486334346182218
 30
0.0
 42
0.4624569887678022
 10
58.799799735248428
 20
77.894295811917644
 30
0.0
 10
59.173022984473107
 20
77.885503881686788
 30
0.0
 42
-0.2537088045877022
 10
68.507761656075616
 20
82.666994638843832
 30
0.0
 10
70.380538739567783
 20
82.62287804866574
 30
0.0
 42
0.9793761632931203
 10
70.645929379416003
 20
88.59628946389283
 30
0.0
 42
0.0177423898795785
 10
-156.1497708137239
 20
95.346896988862696
 30
0.0
 42
-0.4701811237839739
 10
-158.12962758720329
 20
97.70852351869064
 30
0.0
 10
-152.16606169840739
 20
129.50243450083951
 30
0.0
 10
-156.98207483008821
 20
130.40577135848989
 30
0.0
 42
-0.4142135623730622
 10
-158.5790855554155
 20
132.74019992736689
 30
0.0
 10
-150.0571327580991
 20
178.17379010122951
 30
0.0
 10
-147.30512525215761
 20
177.65759761074511
 30
0.0
 10
-148.22286132285211
 20
172.764817104282
 30
0.0
 10
-146.15885569895599
 20
172.3776727375573
 30
0.0
 42
0.4142135623728723
 10
-143.82442713015189
 20
173.9746834629876
 30
0.0
 10
-141.01376500195161
 20
188.9593324416758
 30
0.0
 42
0.4829029192880814
 10
-143.06997946787561
 20
191.31906792459719
 30
0.0
 10
-145.1217231946197
 20
191.22915019457611
 30
0.0
 10
-157.31215696438909
 20
190.5909473873208
 30
0.0
 10
-169.3804927904755
 20
189.7476472084021
 30
0.0
 10
-181.3071485369889
 20
188.69668895933609
 30
0.0
 10
-193.07248739128181
 20
187.43605100188029
 30
0.0
 10
-204.65691127005201
 20
185.96427592003911
 30
0.0
 10
-216.04095701990161
 20
184.2804924003585
 30
0.0
 10
-227.20539453046459
 20
182.38443348550859
 30
0.0
 10
-238.1313258164582
 20
180.27645089191549
 30
0.0
 10
-248.8002840772613
 20
177.95752512497361
 30
0.0
 10
-259.19433171054573
 20
175.42927117452689
 30
0.0
 10
-269.29615624146282
 20
172.69393962801331
 30
0.0
 10
-279.08916313184278
 20
169.75441309791921
 30
0.0
 10
-288.55756445530949
 20
166.6141979228014
 30
0.0
 10
-297.6864624641446
 20
163.27741116581359
 30
0.0
 10
-306.46192713166261
 20
159.7487630000129
 30
0.0
 10
-314.87106682879488
 20
156.0335346342969
 30
0.0
 10
-318.93453580185178
 20
154.1077530031132
 30
0.0
 10
-322.90209138403571
 20
152.13755199617401
 30
0.0
 10
-326.77244089813979
 20
150.12373999697479
 30
0.0
 10
-330.54436688000521
 20
148.06715544631999
 30
0.0
 10
-334.21672830290191
 20
145.96866570252311
 30
0.0
 10
-337.78846165531979
 20
143.82916585370199
 30
0.0
 10
-341.25858187026353
 20
141.6495774855141
 30
0.0
 10
-344.62618310466382
 20
139.43084740780321
 30
0.0
 10
-347.89043936804762
 20
137.17394634374079
 30
0.0
 10
-351.05060500012411
 20
134.87986758514339
 30
0.0
 10
-354.10601499747492
 20
132.54962561772089
 30
0.0
 10
-357.05608519003817
 20
130.18425472007641
 30
0.0
 10
-359.90031226858548
 20
127.7848075403178
 30
0.0
 10
-362.63827366487641
 20
125.3523536541696
 30
0.0
 10
-365.26962728665501
 20
122.8879781084802
 30
0.0
 10
-367.79411111010882
 20
120.3927799540122
 30
0.0
 10
-370.21154263284768
 20
117.86787077137789
 30
0.0
 10
-372.52181819088401
 20
115.31437319394141
 30
0.0
 10
-374.7249121434827
 20
112.73341943144931
 30
0.0
 10
-376.82087593012898
 20
110.12614979808311
 30
0.0
 10
-378.80983700419318
 20
107.4937112485361
 30
0.0
 10
-380.69199764820502
 20
104.8372559256217
 30
0.0
 10
-382.46763367592109
 20
102.1579397228043
 30
0.0
 10
-384.13709302664307
 20
99.456920864921045
 30
0.0
 10
-385.70079425746388
 20
96.735358510226916
 30
0.0
 10
-387.15922493932572
 20
93.994411376753789
 30
0.0
 10
-388.5129399629368
 20
91.235236395815633
 30
0.0
 10
-389.76255976074151
 20
88.458987395337203
 30
0.0
 10
-390.90876845123893
 20
85.666813815511517
 30
0.0
 10
-391.95231191203197
 20
82.859859459121367
 30
0.0
 10
-392.89399578803727
 20
80.039261278681835
 30
0.0
 10
-393.73468344130788
 20
77.206148202382096
 30
0.0
 42
-0.26055000287663
 10
-395.10519410688522
 20
75.826436970340339
 30
0.0
 42
0.0280491656314933
 10
-409.9409417260502
 20
70.737640089632791
 30
0.0
 42
0.0753781180115531
 10
-435.80870139220252
 20
55.116305257030973
 30
0.0
 10
-399.2380588614119
 20
48.256770533441937
 30
0.0
 10
-397.511097576363
 20
57.463821210342502
 30
0.0
 10
-394.78857586512783
 20
56.953159353684697
 30
0.0
 10
-396.51553715017701
 20
47.746108676784132
 30
0.0
 10
-380.15231246882558
 20
44.676867883513488
 30
0.0
 10
-379.59954236898051
 20
46.061942967880583
 30
0.0
 10
-379.47728434393548
 20
46.324380870821102
 30
0.0
 10
-379.34962772576017
 20
46.585961227709873
 30
0.0
 10
-379.21657251445458
 20
46.84668403854684
 30
0.0
 10
-379.07811871001883
 20
47.106549303332059
 30
0.0
 10
-378.78501532175608
 20
47.623707194747247
 30
0.0
 10
-378.47031756097232
 20
48.137434901955402
 30
0.0
 10
-378.1340254276675
 20
48.647732424956622
 30
0.0
 10
-377.77613892184149
 20
49.154599763750667
 30
0.0
 10
-377.39665804349443
 20
49.658036918337729
 30
0.0
 10
-376.99558279262618
 20
50.158043888717799
 30
0.0
 10
-376.5729131692367
 20
50.654620674890822
 30
0.0
 10
-376.12864917332621
 20
51.147767276856847
 30
0.0
 10
-375.66279080489471
 20
51.637483694615902
 30
0.0
 10
-375.17533806394192
 20
52.123769928167768
 30
0.0
 10
-374.66629095046801
 20
52.606625977512778
 30
0.0
 10
-374.13564946447298
 20
53.086051842650619
 30
0.0
 10
-373.58341360595688
 20
53.562047523581533
 30
0.0
 10
-373.00958337491971
 20
54.034613020305393
 30
0.0
 10
-372.41415877136109
 20
54.503748332822248
 30
0.0
 10
-371.79713979528168
 20
54.969453461132083
 30
0.0
 10
-371.15852644668109
 20
55.431728405234907
 30
0.0
 10
-370.49831872555922
 20
55.890573165130633
 30
0.0
 10
-369.81651663191639
 20
56.345987740819417
 30
0.0
 10
-369.11312016575238
 20
56.797972132301112
 30
0.0
 10
-367.64154411586088
 20
57.691650362643458
 30
0.0
 10
-366.08359057588513
 20
58.571607856157783
 30
0.0
 10
-364.43925954582471
 20
59.437844612844032
 30
0.0
 10
-362.70855102567992
 20
60.29036063270209
 30
0.0
 10
-360.89146501545042
 20
61.129155915732007
 30
0.0
 10
-358.98800151513649
 20
61.954230461933918
 30
0.0
 10
-356.99816052473813
 20
62.765584271307738
 30
0.0
 10
-354.9219420442551
 20
63.563217343853488
 30
0.0
 10
-352.75934607368771
 20
64.347129679571054
 30
0.0
 10
-348.17502166229917
 20
65.873792140521942
 30
0.0
 10
-343.2451872905728
 20
67.345571654160466
 30
0.0
 10
-337.96984295850848
 20
68.762468220486653
 30
0.0
 10
-332.34898866610592
 20
70.124481839500419
 30
0.0
 10
-326.38262441336548
 20
71.431612511201791
 30
0.0
 10
-320.07075020028702
 20
72.683860235590771
 30
0.0
 10
-306.41047189311598
 20
75.023706842431608
 30
0.0
 10
-291.36815374459292
 20
77.144021660022844
 30
0.0
 10
-274.94379575471783
 20
79.044804688364621
 30
0.0
 10
-257.13739792349048
 20
80.726055927456827
 30
0.0
 10
-217.37848273697969
 20
83.429963037892577
 30
0.0
 10
-172.0914081850608
 20
85.255742991330138
 30
0.0
 42
-0.4783161822575112
 10
-170.06515885127689
 20
82.894918576392911
 30
0.0
 10
-176.908483969017
 20
46.41069526562373
 30
0.0
 42
0.414429399977473
 10
-176.10857125158299
 20
45.246929911811243
 30
0.0
  0
LWPOLYLINE
  5
6E
100
AcDbEntity
  8
D\U+fffdFAUT
 62
7
420
16777215
370
-1
 48
1.0
  6
BYLAYER
100
AcDbPolyline
 90
175
 70
1
 10
-122.2082649531748
 20
242.7674060996217
 30
0.0
 10
-123.1915055357164
 20
242.9497188990714
 30
0.0
 10
-124.09945814007111
 20
238.0529927760534
 30
0.0
 10
-126.85253177118609
 20
238.5634686145122
 30
0.0
 10
-125.9450271901127
 20
243.4577784800141
 30
0.0
 10
-126.4907855917768
 20
243.5581742222968
 30
0.0
 42
0.2538065416587968
 10
-127.3987816097101
 20
243.26336899792921
 30
0.0
 10
-128.45967913838271
 20
242.0786923057467
 30
0.0
 10
-129.56086381336979
 20
240.9045889371443
 30
0.0
 10
-130.70237001460771
 20
239.74148174009679
 30
0.0
 10
-131.8842096399128
 20
238.5897920984556
 30
0.0
 10
-133.1063717810033
 20
237.44993951220701
 30
0.0
 10
-134.36882242669731
 20
236.32234117351109
 30
0.0
 10
-135.67150419439281
 20
235.20741153929151
 30
0.0
 10
-137.01433609088579
 20
234.10556190116719
 30
0.0
 10
-138.39721330352381
 20
233.0171999535452
 30
0.0
 10
-139.82000702263301
 20
231.9427293607126
 30
0.0
 10
-141.28256429608859
 20
230.8825493237841
 30
0.0
 10
-142.78470791682699
 20
229.8370541483788
 30
0.0
 10
-144.32623634402759
 20
228.8066328139131
 30
0.0
 10
-145.9069236586073
 20
227.79166854540659
 30
0.0
 10
-147.526519553594
 20
226.79253838870579
 30
0.0
 10
-149.18474935985321
 20
225.8096127900356
 30
0.0
 10
-152.6158906237138
 20
223.89382156846659
 30
0.0
 10
-156.19766609232161
 20
222.0471108410249
 30
0.0
 10
-159.92701230939389
 20
220.2721651193209
 30
0.0
 10
-163.8004909048426
 20
218.57152530814091
 30
0.0
 10
-167.8142980831993
 20
216.9475772220712
 30
0.0
 10
-171.9642763720145
 20
215.40254088149359
 30
0.0
 10
-176.2459285608812
 20
213.93846068564659
 30
0.0
 10
-180.65443373680159
 20
212.55719655200741
 30
0.0
 10
-185.1846652977147
 20
211.26041610145469
 30
0.0
 10
-189.8312108035656
 20
210.04958795766791
 30
0.0
 10
-194.5883935037327
 20
208.9259762171902
 30
0.0
 10
-199.45029536129991
 20
207.8906361337512
 30
0.0
 10
-204.4107813788975
 20
206.94441104701349
 30
0.0
 10
-209.46352501789531
 20
206.08793057213899
 30
0.0
 10
-214.60203449282261
 20
205.32161005268861
 30
0.0
 10
-219.81967971614841
 20
204.64565126563051
 30
0.0
 10
-225.1097196650461
 20
204.0600443538614
 30
0.0
 10
-230.4653299414928
 20
203.56457094888401
 30
0.0
 10
-241.3457119226762
 20
202.84213528992029
 30
0.0
 10
-252.40560103826539
 20
202.4726155699615
 30
0.0
 10
-263.59015610632059
 20
202.4473256200655
 30
0.0
 10
-345.24776748418122
 20
204.2012379432652
 30
0.0
 42
-0.3266148641217857
 10
-351.81201653285927
 20
209.22108945552731
 30
0.0
 10
-352.08110728326318
 20
209.27098437231311
 30
0.0
 42
0.4142135281664077
 10
-352.66388366083862
 20
208.87052044688551
 30
0.0
 10
-353.73600000730079
 20
203.08843903112259
 30
0.0
 10
-356.45957645071508
 20
203.5934454912622
 30
0.0
 10
-355.4864630087643
 20
208.84159440312041
 30
0.0
 42
0.4624569887679188
 10
-355.96734625696052
 20
209.4326354841098
 30
0.0
 10
-356.34058696088459
 20
209.44065226233769
 30
0.0
 42
-0.2537088045876741
 10
-365.66537500581398
 20
204.6397848568545
 30
0.0
 10
-367.53823967437938
 20
204.68001185304189
 30
0.0
 42
0.9793761632931312
 10
-367.79122379296342
 20
198.70606214091501
 30
0.0
 42
0.0177423898795731
 10
-140.98199264776949
 20
192.4264924598879
 30
0.0
 42
-0.4701811237841196
 10
-138.99723537270879
 20
190.06898291187531
 30
0.0
 10
-144.8947568465733
 20
158.26275499789401
 30
0.0
 10
-140.07687799584039
 20
157.36942228128069
 30
0.0
 42
-0.4142135623730422
 10
-138.47502242965669
 20
155.038315517298
 30
0.0
 10
-146.9025975682149
 20
109.5871244124419
 30
0.0
 10
-149.65567119932999
 20
110.0976002509008
 30
0.0
 10
-148.74809873594111
 20
114.9922762160263
 30
0.0
 10
-150.81290395371499
 20
115.3751330937434
 30
0.0
 42
0.414213562372854
 10
-153.1440107176245
 20
113.7732775274567
 30
0.0
 10
-155.9235457417922
 20
98.782823509555044
 30
0.0
 42
0.4829029192880743
 10
-153.86243486640851
 20
96.427363588730941
 30
0.0
 10
-151.81088231130019
 20
96.52154231262611
 30
0.0
 10
-139.62180029130391
 20
97.185061587495909
 30
0.0
 10
-127.5552419105237
 20
98.053424211166828
 30
0.0
 10
-115.63079458083379
 20
99.129150207213712
 30
0.0
 10
-103.8680992711941
 20
100.4142204265767
 30
0.0
 10
-92.286757049491499
 20
101.910051579601
 30
0.0
 10
-80.906232836745446
 20
103.6174745555852
 30
0.0
 10
-69.745757256282431
 20
105.5367163730054
 30
0.0
 10
-58.824227522161678
 20
107.6673860676938
 30
0.0
 10
-48.160108358803498
 20
110.0084647833809
 30
0.0
 10
-37.771333975740063
 20
112.5583002797883
 30
0.0
 10
-27.67521213632379
 20
115.3146060187171
 30
0.0
 10
-17.888331356148068
 20
118.27446492933851
 30
0.0
 10
-8.4264722453596761
 20
121.4343378913192
 30
0.0
 10
0.6954760310231904
 20
124.79007690982461
 30
0.0
 10
9.4635932587352727
 20
128.33694289121769
 30
0.0
 10
17.864998804851108
 20
132.0696278638616
 30
0.0
 10
21.924459432351991
 20
134.00384460450121
 30
0.0
 10
25.88791462293776
 20
135.98228142625749
 30
0.0
 10
29.754073381090041
 20
138.00412726266711
 30
0.0
 10
33.521719986601177
 20
140.06854114622931
 30
0.0
 10
37.189715216585171
 20
142.17465335074621
 30
0.0
 10
40.756997420799678
 20
144.32156658126439
 30
0.0
 10
44.22258344837978
 20
146.50835720826609
 30
0.0
 10
47.58556942460298
 20
148.73407654263869
 30
0.0
 10
50.845131376835027
 20
150.99775214783651
 30
0.0
 10
54.000525709322929
 20
153.29838918555191
 30
0.0
 10
57.05108952702912
 20
155.63497179114279
 30
0.0
 10
59.996240809205247
 20
158.00646447499639
 30
0.0
 10
62.835478433912463
 20
160.41181354597131
 30
0.0
 10
65.568382055182596
 20
162.84994855303401
 30
0.0
 10
68.194611834989772
 20
165.31978374119799
 30
0.0
 10
70.713908032662928
 20
167.820219517884
 30
0.0
 10
73.126090454804597
 20
170.35014392584421
 30
0.0
 10
75.431057769204784
 20
172.90843411884049
 30
0.0
 10
77.628786686626782
 20
175.49395783631559
 30
0.0
 10
79.719331014719614
 20
178.10557487337991
 30
0.0
 10
81.702820588644911
 20
180.74213854251701
 30
0.0
 10
83.579460083337224
 20
183.40249712351101
 30
0.0
 10
85.349527712589307
 20
186.08549529821721
 30
0.0
 10
87.013373820425088
 20
188.7899755669184
 30
0.0
 10
88.571419370445923
 20
191.51477964314469
 30
0.0
 10
90.024154339039484
 20
194.25874982398039
 30
0.0
 10
91.37213601850371
 20
197.02073033303799
 30
0.0
 10
92.615987236285676
 20
199.79956863343361
 30
0.0
 10
93.75639449663727
 20
202.5941167082724
 30
0.0
 10
94.794106051073101
 20
205.40323230632319
 30
0.0
 10
95.729929904065017
 20
208.22578015073589
 30
0.0
 10
96.564731760431897
 20
211.0606331088394
 30
0.0
 42
-0.2605500028766359
 10
97.932374000954155
 20
212.44318772628591
 30
0.0
 42
0.0280491656315009
 10
112.7575208972401
 20
217.56278542690691
 30
0.0
 42
0.0753781180115562
 10
138.5927814241787
 20
233.23781032651331
 30
0.0
 10
102.0079714601497
 20
240.02137809243669
 30
0.0
 10
100.3001356697762
 20
230.8107606125827
 30
0.0
 10
97.576559256137259
 20
231.315767067058
 30
0.0
 10
99.284395046511023
 20
240.52638454691211
 30
0.0
 10
99.269646437772906
 20
240.5291192389038
 30
0.0
 10
82.91483126698698
 20
243.56163456751321
 30
0.0
 10
82.364938968571764
 20
242.17541444330459
 30
0.0
 10
82.243226254406082
 20
241.91272319335869
 30
0.0
 10
82.116113177748645
 20
241.65087827548419
 30
0.0
 10
81.983599738599438
 20
241.38987968968129
 30
0.0
 10
81.84568593695856
 20
241.1297274359496
 30
0.0
 10
81.553657246201482
 20
240.61196192470089
 30
0.0
 10
81.240027105477552
 20
240.09758174173771
 30
0.0
 10
80.904795514786755
 20
239.58658688706041
 30
0.0
 10
80.547962474128994
 20
239.0789773606688
 30
0.0
 10
80.169527983504352
 20
238.5747531625629
 30
0.0
 10
79.769492042912788
 20
238.07391429274281
 30
0.0
 10
79.347854652354286
 20
237.57646075120849
 30
0.0
 10
78.904615811828805
 20
237.08239253795981
 30
0.0
 10
78.439775521336614
 20
236.591709652997
 30
0.0
 10
77.953333780877401
 20
236.10441209631981
 30
0.0
 10
77.445290590451251
 20
235.6204998679284
 30
0.0
 10
76.915645950058163
 20
235.13997296782281
 30
0.0
 10
76.36439985969821
 20
234.6628313960029
 30
0.0
 10
75.791552319371306
 20
234.18907515246869
 30
0.0
 10
75.197103329077478
 20
233.71870423722029
 30
0.0
 10
74.581052888816799
 20
233.25171865025769
 30
0.0
 10
73.943400998589155
 20
232.7881183915807
 30
0.0
 10
73.284147658394545
 20
232.32790346118949
 30
0.0
 10
72.60329286823314
 20
231.87107385908411
 30
0.0
 10
71.900836628104813
 20
231.41762958526439
 30
0.0
 10
70.43111979794736
 20
230.5208970224823
 30
0.0
 10
68.874997167922331
 20
229.63770577284311
 30
0.0
 10
67.232468738029539
 20
228.76805583634689
 30
0.0
 10
65.503534508269269
 20
227.91194721299371
 30
0.0
 10
63.688194478641179
 20
227.06937990278351
 30
0.0
 10
61.786448649145498
 20
226.2403539057162
 30
0.0
 10
59.798297019782197
 20
225.42486922179199
 30
0.0
 10
57.723739590551183
 20
224.62292585101071
 30
0.0
 10
55.562776361452592
 20
223.83452379337231
 30
0.0
 10
50.981632503652257
 20
222.29834361752461
 30
0.0
 10
46.054865446381427
 20
220.81632869424891
 30
0.0
 10
40.78247518964011
 20
219.3884790235449
 30
0.0
 10
35.164461733427999
 20
218.01479460541299
 30
0.0
 10
29.20082507774541
 20
216.69527543985291
 30
0.0
 10
22.891565222592131
 20
215.4299215268648
 30
0.0
 10
9.2361759138738648
 20
213.0617094586043
 30
0.0
 10
-5.8017061927267974
 20
210.9101584006313
 30
0.0
 10
-22.22208109720982
 20
208.97526835294599
 30
0.0
 10
-40.024948799575263
 20
207.2570393155485
 30
0.0
 10
-79.778162597953425
 20
204.47056427161621
 30
0.0
 10
-125.06134758786111
 20
202.55073326883459
 30
0.0
 42
-0.4783161822574832
 10
-127.0924956572909
 20
204.90734435275891
 30
0.0
 10
-120.3249579814964
 20
241.4057016180368
 30
0.0
 42
0.4144293999774192
 10
-121.1272859533716
 20
242.56780315395929
 30
0.0
  0
LWPOLYLINE
  5
6F
100
AcDbEntity
  8
D\U+fffdFAUT
 62
7
420
16777215
370
-1
 48
1.0
  6
BYLAYER
100
AcDbPolyline
 90
4
 70
1
 10
116.10198346310879
 20
224.22577185226581
 30
0.0
 42
-0.9999999999951951
 10
115.6639727796008
 20
225.1247416187945
 30
0.0
 42
0.0371123204581791
 10
127.8856802629936
 20
232.24589575875731
 30
0.0
 42
-0.9999998318507092
 10
128.4517792717902
 20
231.42155850238771
 30
0.0
 42
-0.0371123381546895
  0
LWPOLYLINE
  5
70
100
AcDbEntity
  8
D\U+fffdFAUT
 62
7
420
16777215
370
-1
 48
1.0
  6
BYLAYER
100
AcDbPolyline
 90
10
 70
1
 10
-127.6193947763439
 20
192.55869781344299
 30
0.0
 42
0.3828498182067235
 10
-129.58320004059979
 20
190.7600444361922
 30
0.0
 42
0.4089803601337548
 10
-72.132772716980654
 20
119.96823031700551
 30
0.0
 42
0.3309270387551163
 10
69.695786675541498
 20
206.01809936052919
 30
0.0
 10
61.215719802643903
 20
204.57318955560041
 30
0.0
 10
52.222035334033613
 20
203.2087727117696
 30
0.0
 10
32.693813609674997
 20
200.72141790740241
 30
0.0
 10
11.11112150246554
 20
198.5560349474278
 30
0.0
 10
-12.526040987594749
 20
196.7126238318458
 30
0.0
 10
-65.963777116267622
 20
193.99171713385931
 30
0.0
  0
LWPOLYLINE
  5
71
100
AcDbEntity
  8
D\U+fffdFAUT
 62
7
420
16777215
370
-1
 48
1.0
  6
BYLAYER
100
AcDbPolyline
 90
19
 70
1
 10
-140.50348961869389
 20
222.95869024725769
 30
0.0
 10
-138.8266472477458
 20
224.07923929469911
 30
0.0
 10
-137.31200891587369
 20
225.13210394673089
 30
0.0
 10
-135.8167638803757
 20
226.21211175301329
 30
0.0
 42
-0.6789183271938195
 10
-132.6604698605147
 20
224.24412055425691
 30
0.0
 10
-136.45015314247951
 20
203.8057837508513
 30
0.0
 42
-0.3544572160064132
 10
-138.3636435443679
 20
202.1780966473809
 30
0.0
 42
-0.0044883389923928
 10
-179.60397838164479
 20
201.51285670556081
 30
0.0
 42
-0.8730153310060302
 10
-180.18317489183201
 20
205.41904296967871
 30
0.0
 10
-174.09486956570319
 20
207.29786631997621
 30
0.0
 10
-169.59705386577431
 20
208.83538462387889
 30
0.0
 10
-165.30840970701911
 20
210.43129838966749
 30
0.0
 10
-161.0667036038094
 20
212.14674243716371
 30
0.0
 10
-157.04307998519141
 20
213.9126524893376
 30
0.0
 10
-153.075687361094
 20
215.80025838070361
 30
0.0
 10
-149.3312435201284
 20
217.7299424552466
 30
0.0
 10
-145.65345906684769
 20
219.78258006238809
 30
0.0
 10
-143.91804663834989
 20
220.8109547869993
 30
0.0
 10
-142.2010064522637
 20
221.86946012999019
 30
0.0
  0
CIRCLE
  5
72
100
AcDbEntity
  8
D\U+fffdFAUT
 62
7
420
16777215
370
-1
 48
1.0
  6
BYLAYER
100
AcDbCircle
 10
-126.0320409543439
 20
122.21978121427679
 30
0.0
 40
14.74592893380099
  0
ENDSEC
  0
SECTION
  2
OBJECTS
  0
DICTIONARY
  5
C
100
AcDbDictionary
280
0
281
1
  3
ACAD_GROUP
350
D
  3
ACAD_LAYOUT
350
1A
  3
ACAD_MLINESTYLE
350
17
  3
ACAD_PLOTSETTINGS
350
19
  3
ACAD_PLOTSTYLENAME
350
E
  3
AcDbVariableDictionary
350
73
  3
QCAD_OBJECTS
350
74
  0
DICTIONARY
  5
D
100
AcDbDictionary
280
0
281
1
  0
ACDBDICTIONARYWDFLT
  5
E
100
AcDbDictionary
281
1
  3
Normal
350
F
100
AcDbDictionaryWithDefault
340
F
  0
ACDBPLACEHOLDER
  5
F
  0
DICTIONARY
  5
17
100
AcDbDictionary
280
0
281
1
  3
Standard
350
18
  0
MLINESTYLE
  5
18
100
AcDbMlineStyle
  2
STANDARD
 70
0
  3

 62
256
 51
90.0
 52
90.0
 71
2
 49
0.5
 62
256
  6
BYLAYER
 49
-0.5
 62
256
  6
BYLAYER
  0
DICTIONARY
  5
19
100
AcDbDictionary
280
0
281
1
  0
DICTIONARY
  5
1A
100
AcDbDictionary
281
1
  3
Layout1
350
1E
  3
Layout2
350
26
  3
Model
350
22
  0
LAYOUT
  5
1E
100
AcDbPlotSettings
  1

  2
none_device
  4

  6

 40
0.0
 41
0.0
 42
0.0
 43
0.0
 44
0.0
 45
0.0
 46
0.0
 47
0.0
 48
0.0
 49
0.0
140
0.0
141
0.0
142
1.0
143
1.0
 70
688
 72
0
 73
0
 74
5
  7

 75
16
147
1.0
148
0.0
149
0.0
100
AcDbLayout
  1
Layout1
 70
1
 71
1
 10
0.0
 20
0.0
 11
420.0
 21
297.0
 12
0.0
 22
0.0
 32
0.0
 14
100000000000000000000.0
 24
100000000000000000000.0
 34
100000000000000000000.0
 15
-100000000000000000000.0
 25
-100000000000000000000.0
 35
-100000000000000000000.0
146
0.0
 13
0.0
 23
0.0
 33
0.0
 16
1.0
 26
0.0
 36
0.0
 17
0.0
 27
1.0
 37
0.0
 76
0
330
1B
  0
LAYOUT
  5
22
100
AcDbPlotSettings
  1

  2
none_device
  4

  6

 40
0.0
 41
0.0
 42
0.0
 43
0.0
 44
0.0
 45
0.0
 46
0.0
 47
0.0
 48
0.0
 49
0.0
140
0.0
141
0.0
142
1.0
143
1.0
 70
1712
 72
0
 73
0
 74
0
  7

 75
0
147
1.0
148
0.0
149
0.0
100
AcDbLayout
  1
Model
 70
1
 71
0
 10
0.0
 20
0.0
 11
12.0
 21
9.0
 12
0.0
 22
0.0
 32
0.0
 14
0.0
 24
0.0
 34
0.0
 15
0.0
 25
0.0
 35
0.0
146
0.0
 13
0.0
 23
0.0
 33
0.0
 16
1.0
 26
0.0
 36
0.0
 17
0.0
 27
1.0
 37
0.0
 76
0
330
1F
  0
LAYOUT
  5
26
100
AcDbPlotSettings
  1

  2
none_device
  4

  6

 40
0.0
 41
0.0
 42
0.0
 43
0.0
 44
0.0
 45
0.0
 46
0.0
 47
0.0
 48
0.0
 49
0.0
140
0.0
141
0.0
142
1.0
143
1.0
 70
688
 72
0
 73
0
 74
5
  7

 75
16
147
1.0
148
0.0
149
0.0
100
AcDbLayout
  1
Layout2
 70
1
 71
2
 10
0.0
 20
0.0
 11
12.0
 21
9.0
 12
0.0
 22
0.0
 32
0.0
 14
0.0
 24
0.0
 34
0.0
 15
0.0
 25
0.0
 35
0.0
146
0.0
 13
0.0
 23
0.0
 33
0.0
 16
1.0
 26
0.0
 36
0.0
 17
0.0
 27
1.0
 37
0.0
 76
0
330
23
  0
DICTIONARY
  5
73
100
AcDbDictionary
281
1
  3
DIMASSOC
350
76
  3
HIDETEXT
350
75
  0
DICTIONARYVAR
  5
75
100
DictionaryVariables
280
0
  1
2
  0
DICTIONARYVAR
  5
76
100
DictionaryVariables
280
0
  1
1
  0
DICTIONARY
  5
74
100
AcDbDictionary
281
1
  3
ColorSettings/BackgroundColor
350
77
  3
ColorSettings/ColorMode
350
78
  3
Grid/DisplayGrid00
350
79
  3
Grid/DisplayGrid01
350
7A
  3
Grid/DisplayGrid02
350
7B
  3
Grid/DisplayGrid03
350
7C
  3
Grid/GridSpacingX00
350
7D
  3
Grid/GridSpacingX01
350
7E
  3
Grid/GridSpacingX02
350
7F
  3
Grid/GridSpacingX03
350
80
  3
Grid/GridSpacingY00
350
81
  3
Grid/GridSpacingY01
350
82
  3
Grid/GridSpacingY02
350
83
  3
Grid/GridSpacingY03
350
84
  3
Grid/IsometricGrid00
350
85
  3
Grid/IsometricGrid01
350
86
  3
Grid/IsometricGrid02
350
87
  3
Grid/IsometricGrid03
350
88
  3
Grid/IsometricProjection00
350
89
  3
Grid/IsometricProjection01
350
8A
  3
Grid/IsometricProjection02
350
8B
  3
Grid/IsometricProjection03
350
8C
  3
Grid/MetaGridSpacingX00
350
8D
  3
Grid/MetaGridSpacingX01
350
8E
  3
Grid/MetaGridSpacingX02
350
8F
  3
Grid/MetaGridSpacingX03
350
90
  3
Grid/MetaGridSpacingY00
350
91
  3
Grid/MetaGridSpacingY01
350
92
  3
Grid/MetaGridSpacingY02
350
93
  3
Grid/MetaGridSpacingY03
350
94
  3
MultiPageSettings/Columns
350
95
  3
MultiPageSettings/GlueMarginsBottom
350
96
  3
MultiPageSettings/GlueMarginsLeft
350
97
  3
MultiPageSettings/GlueMarginsRight
350
98
  3
MultiPageSettings/GlueMarginsTop
350
99
  3
MultiPageSettings/PrintCropMarks
350
9A
  3
MultiPageSettings/Rows
350
9B
  3
PageSettings/OffsetX
350
9C
  3
PageSettings/OffsetY
350
9D
  3
PageSettings/PageOrientation
350
9E
  3
PageSettings/PaperHeight
350
9F
  3
PageSettings/PaperWidth
350
A0
  3
PageSettings/Scale
350
A1
  3
PageSettings/ShowPaperBorders
350
A2
  3
UnitSettings/PaperUnit
350
A3
  3
ViewportCenter
350
A4
  3
ViewportHeight
350
A5
  3
ViewportWidth
350
A6
  0
XRECORD
  5
77
330
74
100
AcDbXrecord
280
1
1000
Blanc
  0
XRECORD
  5
78
330
74
100
AcDbXrecord
280
1
1000
FullColor
  0
XRECORD
  5
79
330
74
100
AcDbXrecord
280
1
290
1
  0
XRECORD
  5
7A
330
74
100
AcDbXrecord
280
1
290
1
  0
XRECORD
  5
7B
330
74
100
AcDbXrecord
280
1
290
1
  0
XRECORD
  5
7C
330
74
100
AcDbXrecord
280
1
290
1
  0
XRECORD
  5
7D
330
74
100
AcDbXrecord
280
1
1000
auto
  0
XRECORD
  5
7E
330
74
100
AcDbXrecord
280
1
1000
auto
  0
XRECORD
  5
7F
330
74
100
AcDbXrecord
280
1
1000
auto
  0
XRECORD
  5
80
330
74
100
AcDbXrecord
280
1
1000
auto
  0
XRECORD
  5
81
330
74
100
AcDbXrecord
280
1
1000
auto
  0
XRECORD
  5
82
330
74
100
AcDbXrecord
280
1
1000
auto
  0
XRECORD
  5
83
330
74
100
AcDbXrecord
280
1
1000
auto
  0
XRECORD
  5
84
330
74
100
AcDbXrecord
280
1
1000
auto
  0
XRECORD
  5
85
330
74
100
AcDbXrecord
280
1
290
0
  0
XRECORD
  5
86
330
74
100
AcDbXrecord
280
1
290
0
  0
XRECORD
  5
87
330
74
100
AcDbXrecord
280
1
290
0
  0
XRECORD
  5
88
330
74
100
AcDbXrecord
280
1
290
0
  0
XRECORD
  5
89
330
74
100
AcDbXrecord
280
1
 90
0
  0
XRECORD
  5
8A
330
74
100
AcDbXrecord
280
1
 90
0
  0
XRECORD
  5
8B
330
74
100
AcDbXrecord
280
1
 90
0
  0
XRECORD
  5
8C
330
74
100
AcDbXrecord
280
1
 90
0
  0
XRECORD
  5
8D
330
74
100
AcDbXrecord
280
1
1000
auto
  0
XRECORD
  5
8E
330
74
100
AcDbXrecord
280
1
1000
auto
  0
XRECORD
  5
8F
330
74
100
AcDbXrecord
280
1
1000
auto
  0
XRECORD
  5
90
330
74
100
AcDbXrecord
280
1
1000
auto
  0
XRECORD
  5
91
330
74
100
AcDbXrecord
280
1
1000
auto
  0
XRECORD
  5
92
330
74
100
AcDbXrecord
280
1
1000
auto
  0
XRECORD
  5
93
330
74
100
AcDbXrecord
280
1
1000
auto
  0
XRECORD
  5
94
330
74
100
AcDbXrecord
280
1
1000
auto
  0
XRECORD
  5
95
330
74
100
AcDbXrecord
280
1
 90
1
  0
XRECORD
  5
96
330
74
100
AcDbXrecord
280
1
 40
10.0
  0
XRECORD
  5
97
330
74
100
AcDbXrecord
280
1
 40
10.0
  0
XRECORD
  5
98
330
74
100
AcDbXrecord
280
1
 40
10.0
  0
XRECORD
  5
99
330
74
100
AcDbXrecord
280
1
 40
10.0
  0
XRECORD
  5
9A
330
74
100
AcDbXrecord
280
1
290
0
  0
XRECORD
  5
9B
330
74
100
AcDbXrecord
280
1
 90
1
  0
XRECORD
  5
9C
330
74
100
AcDbXrecord
280
1
 40
0.0
  0
XRECORD
  5
9D
330
74
100
AcDbXrecord
280
1
 40
0.0
  0
XRECORD
  5
9E
330
74
100
AcDbXrecord
280
1
1000
Portrait
  0
XRECORD
  5
9F
330
74
100
AcDbXrecord
280
1
 40
297.0
  0
XRECORD
  5
A0
330
74
100
AcDbXrecord
280
1
 40
210.0
  0
XRECORD
  5
A1
330
74
100
AcDbXrecord
280
1
1000
1:1
  0
XRECORD
  5
A2
330
74
100
AcDbXrecord
280
1
290
1
  0
XRECORD
  5
A3
330
74
100
AcDbXrecord
280
1
 90
4
  0
XRECORD
  5
A5
330
74
100
AcDbXrecord
280
1
 40
278.92810887862072
  0
XRECORD
  5
A6
330
74
100
AcDbXrecord
280
1
 40
606.36545408395807
  0
ENDSEC
  0
EOF
