  0
SECTION
  2
HEADER
  9
$ACADVER
  1
AC1009
  9
$INSBASE
 10
0.0
 20
0.0
 30
0.0
  9
$EXTMIN
 10
0.0
 20
0.0
 30
0.0
  9
$EXTMAX
 10
0.0
 20
0.0
 30
0.0
  0
ENDSEC
  0
SECTION
  2
TABLES
  0
TABLE
  2
VPORT
 70
1
  0
VPORT
  2
*ACTIVE
 70
0
 10
0.0
 20
0.0
 11
1.0
 21
1.0
 12
-5.0
 22
1.0
 13
0.0
 23
0.0
 14
0.1
 24
0.1
 15
0.1
 25
0.1
 16
0.0
 26
0.0
 36
1.0
 17
0.0
 27
0.0
 37
0.0
 40
10.0
 41
1.0
 42
50.0
 43
0.0
 44
0.0
 50
0.0
 51
0.0
 71
0
 72
100
 73
1
 74
1
 75
0
 76
0
 77
0
 78
0
  0
ENDTAB
  0
TABLE
  2
LTYPE
 70
8
  0
LTYPE
  2
CONTINUOUS
 70
0
  3
Solid line
 72
65
 73
0
 40
0.0
  0
LTYPE
  2
DOT
 70
0
  3
. . . . . . .
 72
65
 73
2
 40
0.25
 49
0.0
 49
-0.25
  0
LTYPE
  2
DASHED
 70
0
  3
__ __ __ __ __
 72
65
 73
2
 40
0.8
 49
0.5
 49
-0.3
  0
LTYPE
  2
DASHDOT
 70
0
  3
__ . __ . __ .
 72
65
 73
4
 40
1.0
 49
0.5
 49
-0.25
 49
0.0
 49
-0.25
  0
LTYPE
  2
DIVIDE
 70
0
  3
____ . . ____ . . 
 72
65
 73
6
 40
1.25
 49
0.5
 49
-0.25
 49
0.0
 49
-0.25
 49
0.0
 49
-0.25
  0
LTYPE
  2
BORDER
 70
0
  3
__ __ . __ __ . 
 72
65
 73
6
 40
1.75
 49
0.5
 49
-0.25
 49
0.5
 49
-0.25
 49
0.0
 49
-0.25
  0
LTYPE
  2
HIDDEN
 70
0
  3
__ __ __ __ __
 72
65
 73
2
 40
0.4
 49
0.25
 49
-0.25
  0
LTYPE
  2
CENTER
 70
0
  3
____ _ ____ _ __
 72
65
 73
4
 40
2.0
 49
1.25
 49
-0.25
 49
0.25
 49
-0.25
  0
ENDTAB
  0
TABLE
  2
LAYER
 70
1
  0
LAYER
  2
PYDXF
 70
64
 62
7
  6
continuous
  0
ENDTAB
  0
TABLE
  2
STYLE
 70
1
  0
STYLE
  2
STANDARD
 70
0
 40
0
 41
1.0
 50
0.0
 71
0
 42
1
 3
ARIAL.TTF
 4

  0
ENDTAB
  0
TABLE
  2
VIEW
 70
1
  0
VIEW
  2
BF_TOPVIEW
 70
0
 40
120.0
 10
0.0
 20
0.0
 41
200.0
 11
0.0
 21
0.0
 31
1.0
 12
0.0
 22
0.0
 32
0.0
 42
50.0
 43
0.0
 44
0.0
 50
0.0
 71
0
  0
ENDTAB
  0
ENDSEC
  0
SECTION
  2
BLOCKS
  0
ENDSEC
  0
SECTION
  2
ENTITIES
  0
LINE
  8
0
 10
0.0
 20
100.0
 30
0.0
 11
-2.454123020172119
 21
99.96987915039062
 31
0.0
  0
LINE
  8
0
 10
-2.454123020172119
 20
99.96987915039062
 30
0.0
 11
-4.906767845153809
 21
99.87954711914062
 31
0.0
  0
LINE
  8
0
 10
-4.906767845153809
 20
99.87954711914062
 30
0.0
 11
-7.356456756591797
 21
99.72904205322266
 31
0.0
  0
LINE
  8
0
 10
-7.356456756591797
 20
99.72904205322266
 30
0.0
 11
-9.801713943481445
 21
99.51847076416016
 31
0.0
  0
LINE
  8
0
 10
-9.801713943481445
 20
99.51847076416016
 30
0.0
 11
-12.241067886352539
 21
99.24795532226562
 31
0.0
  0
LINE
  8
0
 10
-12.241067886352539
 20
99.24795532226562
 30
0.0
 11
-14.673047065734863
 21
98.91764831542969
 31
0.0
  0
LINE
  8
0
 10
-14.673047065734863
 20
98.91764831542969
 30
0.0
 11
-17.096189498901367
 21
98.52776336669922
 31
0.0
  0
LINE
  8
0
 10
-17.096189498901367
 20
98.52776336669922
 30
0.0
 11
-19.509031295776367
 21
98.07852935791016
 31
0.0
  0
LINE
  8
0
 10
-19.509031295776367
 20
98.07852935791016
 30
0.0
 11
-21.91012191772461
 21
97.5702133178711
 31
0.0
  0
LINE
  8
0
 10
-21.91012191772461
 20
97.5702133178711
 30
0.0
 11
-24.298017501831055
 21
97.00312805175781
 31
0.0
  0
LINE
  8
0
 10
-24.298017501831055
 20
97.00312805175781
 30
0.0
 11
-26.671276092529297
 21
96.37760162353516
 31
0.0
  0
LINE
  8
0
 10
-26.671276092529297
 20
96.37760162353516
 30
0.0
 11
-29.028467178344727
 21
95.69403839111328
 31
0.0
  0
LINE
  8
0
 10
-29.028467178344727
 20
95.69403839111328
 30
0.0
 11
-31.368175506591797
 21
94.95281219482422
 31
0.0
  0
LINE
  8
0
 10
-31.368175506591797
 20
94.95281219482422
 30
0.0
 11
-33.688987731933594
 21
94.15440368652344
 31
0.0
  0
LINE
  8
0
 10
-33.688987731933594
 20
94.15440368652344
 30
0.0
 11
-35.989505767822266
 21
93.29927825927734
 31
0.0
  0
LINE
  8
0
 10
-35.989505767822266
 20
93.29927825927734
 30
0.0
 11
-38.26834487915039
 21
92.38794708251953
 31
0.0
  0
LINE
  8
0
 10
-38.26834487915039
 20
92.38794708251953
 30
0.0
 11
-40.52413558959961
 21
91.42097473144531
 31
0.0
  0
LINE
  8
0
 10
-40.52413558959961
 20
91.42097473144531
 30
0.0
 11
-42.755516052246094
 21
90.39892578125
 31
0.0
  0
LINE
  8
0
 10
-42.755516052246094
 20
90.39892578125
 30
0.0
 11
-44.96113967895508
 21
89.32243347167969
 31
0.0
  0
LINE
  8
0
 10
-44.96113967895508
 20
89.32243347167969
 30
0.0
 11
-47.139678955078125
 21
88.19212341308594
 31
0.0
  0
LINE
  8
0
 10
-47.139678955078125
 20
88.19212341308594
 30
0.0
 11
-49.28982925415039
 21
87.00869750976562
 31
0.0
  0
LINE
  8
0
 10
-49.28982925415039
 20
87.00869750976562
 30
0.0
 11
-51.410282135009766
 21
85.77285766601562
 31
0.0
  0
LINE
  8
0
 10
-51.410282135009766
 20
85.77285766601562
 30
0.0
 11
-53.49977111816406
 21
84.4853515625
 31
0.0
  0
LINE
  8
0
 10
-53.49977111816406
 20
84.4853515625
 30
0.0
 11
-55.557029724121094
 21
83.14695739746094
 31
0.0
  0
LINE
  8
0
 10
-55.557029724121094
 20
83.14695739746094
 30
0.0
 11
-57.58082962036133
 21
81.75847625732422
 31
0.0
  0
LINE
  8
0
 10
-57.58082962036133
 20
81.75847625732422
 30
0.0
 11
-59.569942474365234
 21
80.32074737548828
 31
0.0
  0
LINE
  8
0
 10
-59.569942474365234
 20
80.32074737548828
 30
0.0
 11
-61.523170471191406
 21
78.83463287353516
 31
0.0
  0
LINE
  8
0
 10
-61.523170471191406
 20
78.83463287353516
 30
0.0
 11
-63.43933868408203
 21
77.30104064941406
 31
0.0
  0
LINE
  8
0
 10
-63.43933868408203
 20
77.30104064941406
 30
0.0
 11
-65.31729888916016
 21
75.72087860107422
 31
0.0
  0
LINE
  8
0
 10
-65.31729888916016
 20
75.72087860107422
 30
0.0
 11
-67.1559066772461
 21
74.09510040283203
 31
0.0
  0
LINE
  8
0
 10
-67.1559066772461
 20
74.09510040283203
 30
0.0
 11
-68.95407104492188
 21
72.42469787597656
 31
0.0
  0
LINE
  8
0
 10
-68.95407104492188
 20
72.42469787597656
 30
0.0
 11
-70.710693359375
 21
70.71066284179688
 31
0.0
  0
LINE
  8
0
 10
-70.710693359375
 20
70.71066284179688
 30
0.0
 11
-72.42472076416016
 21
68.95404052734375
 31
0.0
  0
LINE
  8
0
 10
-72.42472076416016
 20
68.95404052734375
 30
0.0
 11
-74.09513092041016
 21
67.15587615966797
 31
0.0
  0
LINE
  8
0
 10
-74.09513092041016
 20
67.15587615966797
 30
0.0
 11
-75.72090148925781
 21
65.31726837158203
 31
0.0
  0
LINE
  8
0
 10
-75.72090148925781
 20
65.31726837158203
 30
0.0
 11
-77.30106353759766
 21
63.439308166503906
 31
0.0
  0
LINE
  8
0
 10
-77.30106353759766
 20
63.439308166503906
 30
0.0
 11
-78.83465576171875
 21
61.52313995361328
 31
0.0
  0
LINE
  8
0
 10
-78.83465576171875
 20
61.52313995361328
 30
0.0
 11
-80.32077026367188
 21
59.569908142089844
 31
0.0
  0
LINE
  8
0
 10
-80.32077026367188
 20
59.569908142089844
 30
0.0
 11
-81.75849914550781
 21
57.5807991027832
 31
0.0
  0
LINE
  8
0
 10
-81.75849914550781
 20
57.5807991027832
 30
0.0
 11
-83.14698028564453
 21
55.55699920654297
 31
0.0
  0
LINE
  8
0
 10
-83.14698028564453
 20
55.55699920654297
 30
0.0
 11
-84.48536682128906
 21
53.49974060058594
 31
0.0
  0
LINE
  8
0
 10
-84.48536682128906
 20
53.49974060058594
 30
0.0
 11
-85.77287292480469
 21
51.41025924682617
 31
0.0
  0
LINE
  8
0
 10
-85.77287292480469
 20
51.41025924682617
 30
0.0
 11
-87.00870513916016
 21
49.2898063659668
 31
0.0
  0
LINE
  8
0
 10
-87.00870513916016
 20
49.2898063659668
 30
0.0
 11
-88.19213104248047
 21
47.13966369628906
 31
0.0
  0
LINE
  8
0
 10
-88.19213104248047
 20
47.13966369628906
 30
0.0
 11
-89.32243347167969
 21
44.96113204956055
 31
0.0
  0
LINE
  8
0
 10
-89.32243347167969
 20
44.96113204956055
 30
0.0
 11
-90.39893341064453
 21
42.75551223754883
 31
0.0
  0
LINE
  8
0
 10
-90.39893341064453
 20
42.75551223754883
 30
0.0
 11
-91.42097473144531
 21
40.52413558959961
 31
0.0
  0
LINE
  8
0
 10
-91.42097473144531
 20
40.52413558959961
 30
0.0
 11
-92.38794708251953
 21
38.26835632324219
 31
0.0
  0
LINE
  8
0
 10
-92.38794708251953
 20
38.26835632324219
 30
0.0
 11
-93.29927825927734
 21
35.98952102661133
 31
0.0
  0
LINE
  8
0
 10
-93.29927825927734
 20
35.98952102661133
 30
0.0
 11
-94.1543960571289
 21
33.689002990722656
 31
0.0
  0
LINE
  8
0
 10
-94.1543960571289
 20
33.689002990722656
 30
0.0
 11
-94.95281219482422
 21
31.36819839477539
 31
0.0
  0
LINE
  8
0
 10
-94.95281219482422
 20
31.36819839477539
 30
0.0
 11
-95.69402313232422
 21
29.028499603271484
 31
0.0
  0
LINE
  8
0
 10
-95.69402313232422
 20
29.028499603271484
 30
0.0
 11
-96.37760162353516
 21
26.671310424804688
 31
0.0
  0
LINE
  8
0
 10
-96.37760162353516
 20
26.671310424804688
 30
0.0
 11
-97.00311279296875
 21
24.298057556152344
 31
0.0
  0
LINE
  8
0
 10
-97.00311279296875
 20
24.298057556152344
 30
0.0
 11
-97.57020568847656
 21
21.91016960144043
 31
0.0
  0
LINE
  8
0
 10
-97.57020568847656
 20
21.91016960144043
 30
0.0
 11
-98.07852172851562
 21
19.509082794189453
 31
0.0
  0
LINE
  8
0
 10
-98.07852172851562
 20
19.509082794189453
 30
0.0
 11
-98.52775573730469
 21
17.096242904663086
 31
0.0
  0
LINE
  8
0
 10
-98.52775573730469
 20
17.096242904663086
 30
0.0
 11
-98.91764068603516
 21
14.673108100891113
 31
0.0
  0
LINE
  8
0
 10
-98.91764068603516
 20
14.673108100891113
 30
0.0
 11
-99.2479476928711
 21
12.241133689880371
 31
0.0
  0
LINE
  8
0
 10
-99.2479476928711
 20
12.241133689880371
 30
0.0
 11
-99.51846313476562
 21
9.80178451538086
 31
0.0
  0
LINE
  8
0
 10
-99.51846313476562
 20
9.80178451538086
 30
0.0
 11
-99.72903442382812
 21
7.356532096862793
 31
0.0
  0
LINE
  8
0
 10
-99.72903442382812
 20
7.356532096862793
 30
0.0
 11
-99.8795394897461
 21
4.906848430633545
 31
0.0
  0
LINE
  8
0
 10
-99.8795394897461
 20
4.906848430633545
 30
0.0
 11
-99.96987915039062
 21
2.4542088508605957
 31
0.0
  0
LINE
  8
0
 10
-99.96987915039062
 20
2.4542088508605957
 30
0.0
 11
-100.0
 21
9.09962909645401e-05
 31
0.0
  0
LINE
  8
0
 10
-100.0
 20
9.09962909645401e-05
 30
0.0
 11
-99.96987915039062
 21
-2.454026937484741
 31
0.0
  0
LINE
  8
0
 10
-99.96987915039062
 20
-2.454026937484741
 30
0.0
 11
-99.87954711914062
 21
-4.9066667556762695
 31
0.0
  0
LINE
  8
0
 10
-99.87954711914062
 20
-4.9066667556762695
 30
0.0
 11
-99.72905731201172
 21
-7.356350898742676
 31
0.0
  0
LINE
  8
0
 10
-99.72905731201172
 20
-7.356350898742676
 30
0.0
 11
-99.51848602294922
 21
-9.801604270935059
 31
0.0
  0
LINE
  8
0
 10
-99.51848602294922
 20
-9.801604270935059
 30
0.0
 11
-99.24797058105469
 21
-12.240952491760254
 31
0.0
  0
LINE
  8
0
 10
-99.24797058105469
 20
-12.240952491760254
 30
0.0
 11
-98.91767120361328
 21
-14.672927856445312
 31
0.0
  0
LINE
  8
0
 10
-98.91767120361328
 20
-14.672927856445312
 30
0.0
 11
-98.52778625488281
 21
-17.096065521240234
 31
0.0
  0
LINE
  8
0
 10
-98.52778625488281
 20
-17.096065521240234
 30
0.0
 11
-98.07855224609375
 21
-19.50890350341797
 31
0.0
  0
LINE
  8
0
 10
-98.07855224609375
 20
-19.50890350341797
 30
0.0
 11
-97.57024383544922
 21
-21.909992218017578
 31
0.0
  0
LINE
  8
0
 10
-97.57024383544922
 20
-21.909992218017578
 30
0.0
 11
-97.00315856933594
 21
-24.297882080078125
 31
0.0
  0
LINE
  8
0
 10
-97.00315856933594
 20
-24.297882080078125
 30
0.0
 11
-96.37764739990234
 21
-26.67113494873047
 31
0.0
  0
LINE
  8
0
 10
-96.37764739990234
 20
-26.67113494873047
 30
0.0
 11
-95.69407653808594
 21
-29.028324127197266
 31
0.0
  0
LINE
  8
0
 10
-95.69407653808594
 20
-29.028324127197266
 30
0.0
 11
-94.95286560058594
 21
-31.368026733398438
 31
0.0
  0
LINE
  8
0
 10
-94.95286560058594
 20
-31.368026733398438
 30
0.0
 11
-94.15445709228516
 21
-33.68883514404297
 31
0.0
  0
LINE
  8
0
 10
-94.15445709228516
 20
-33.68883514404297
 30
0.0
 11
-93.2993392944336
 21
-35.989349365234375
 31
0.0
  0
LINE
  8
0
 10
-93.2993392944336
 20
-35.989349365234375
 30
0.0
 11
-92.38801574707031
 21
-38.268184661865234
 31
0.0
  0
LINE
  8
0
 10
-92.38801574707031
 20
-38.268184661865234
 30
0.0
 11
-91.4210433959961
 21
-40.52397155761719
 31
0.0
  0
LINE
  8
0
 10
-91.4210433959961
 20
-40.52397155761719
 30
0.0
 11
-90.39900207519531
 21
-42.75535583496094
 31
0.0
  0
LINE
  8
0
 10
-90.39900207519531
 20
-42.75535583496094
 30
0.0
 11
-89.32250213623047
 21
-44.96098709106445
 31
0.0
  0
LINE
  8
0
 10
-89.32250213623047
 20
-44.96098709106445
 30
0.0
 11
-88.19219970703125
 21
-47.1395378112793
 31
0.0
  0
LINE
  8
0
 10
-88.19219970703125
 20
-47.1395378112793
 30
0.0
 11
-87.00877380371094
 21
-49.28969192504883
 31
0.0
  0
LINE
  8
0
 10
-87.00877380371094
 20
-49.28969192504883
 30
0.0
 11
-85.77293395996094
 21
-51.41015625
 31
0.0
  0
LINE
  8
0
 10
-85.77293395996094
 20
-51.41015625
 30
0.0
 11
-84.48542785644531
 21
-53.49964904785156
 31
0.0
  0
LINE
  8
0
 10
-84.48542785644531
 20
-53.49964904785156
 30
0.0
 11
-83.14703369140625
 21
-55.556915283203125
 31
0.0
  0
LINE
  8
0
 10
-83.14703369140625
 20
-55.556915283203125
 30
0.0
 11
-81.75855255126953
 21
-57.58072280883789
 31
0.0
  0
LINE
  8
0
 10
-81.75855255126953
 20
-57.58072280883789
 30
0.0
 11
-80.3208236694336
 21
-59.56984329223633
 31
0.0
  0
LINE
  8
0
 10
-80.3208236694336
 20
-59.56984329223633
 30
0.0
 11
-78.83470916748047
 21
-61.523075103759766
 31
0.0
  0
LINE
  8
0
 10
-78.83470916748047
 20
-61.523075103759766
 30
0.0
 11
-77.30110931396484
 21
-63.43925094604492
 31
0.0
  0
LINE
  8
0
 10
-77.30110931396484
 20
-63.43925094604492
 30
0.0
 11
-75.72093963623047
 21
-65.31721496582031
 31
0.0
  0
LINE
  8
0
 10
-75.72093963623047
 20
-65.31721496582031
 30
0.0
 11
-74.09516906738281
 21
-67.15583038330078
 31
0.0
  0
LINE
  8
0
 10
-74.09516906738281
 20
-67.15583038330078
 30
0.0
 11
-72.42476654052734
 21
-68.95399475097656
 31
0.0
  0
LINE
  8
0
 10
-72.42476654052734
 20
-68.95399475097656
 30
0.0
 11
-70.71073150634766
 21
-70.71063232421875
 31
0.0
  0
LINE
  8
0
 10
-70.71073150634766
 20
-70.71063232421875
 30
0.0
 11
-68.9541015625
 21
-72.4246597290039
 31
0.0
  0
LINE
  8
0
 10
-68.9541015625
 20
-72.4246597290039
 30
0.0
 11
-67.15593719482422
 21
-74.09507751464844
 31
0.0
  0
LINE
  8
0
 10
-67.15593719482422
 20
-74.09507751464844
 30
0.0
 11
-65.31732177734375
 21
-75.72085571289062
 31
0.0
  0
LINE
  8
0
 10
-65.31732177734375
 20
-75.72085571289062
 30
0.0
 11
-63.439361572265625
 21
-77.30101776123047
 31
0.0
  0
LINE
  8
0
 10
-63.439361572265625
 20
-77.30101776123047
 30
0.0
 11
-61.52318572998047
 21
-78.83462524414062
 31
0.0
  0
LINE
  8
0
 10
-61.52318572998047
 20
-78.83462524414062
 30
0.0
 11
-59.56995391845703
 21
-80.32073211669922
 31
0.0
  0
LINE
  8
0
 10
-59.56995391845703
 20
-80.32073211669922
 30
0.0
 11
-57.580833435058594
 21
-81.75846862792969
 31
0.0
  0
LINE
  8
0
 10
-57.580833435058594
 20
-81.75846862792969
 30
0.0
 11
-55.557037353515625
 21
-83.14695739746094
 31
0.0
  0
LINE
  8
0
 10
-55.557037353515625
 20
-83.14695739746094
 30
0.0
 11
-53.49977111816406
 21
-84.4853515625
 31
0.0
  0
LINE
  8
0
 10
-53.49977111816406
 20
-84.4853515625
 30
0.0
 11
-51.410274505615234
 21
-85.77285766601562
 31
0.0
  0
LINE
  8
0
 10
-51.410274505615234
 20
-85.77285766601562
 30
0.0
 11
-49.28981399536133
 21
-87.00870513916016
 31
0.0
  0
LINE
  8
0
 10
-49.28981399536133
 20
-87.00870513916016
 30
0.0
 11
-47.13966369628906
 21
-88.192138671875
 31
0.0
  0
LINE
  8
0
 10
-47.13966369628906
 20
-88.192138671875
 30
0.0
 11
-44.961116790771484
 21
-89.32244110107422
 31
0.0
  0
LINE
  8
0
 10
-44.961116790771484
 20
-89.32244110107422
 30
0.0
 11
-42.75548553466797
 21
-90.39894104003906
 31
0.0
  0
LINE
  8
0
 10
-42.75548553466797
 20
-90.39894104003906
 30
0.0
 11
-40.52410125732422
 21
-91.42098999023438
 31
0.0
  0
LINE
  8
0
 10
-40.52410125732422
 20
-91.42098999023438
 30
0.0
 11
-38.268306732177734
 21
-92.38796997070312
 31
0.0
  0
LINE
  8
0
 10
-38.268306732177734
 20
-92.38796997070312
 30
0.0
 11
-35.98945999145508
 21
-93.29930114746094
 31
0.0
  0
LINE
  8
0
 10
-35.98945999145508
 20
-93.29930114746094
 30
0.0
 11
-33.688934326171875
 21
-94.15442657470703
 31
0.0
  0
LINE
  8
0
 10
-33.688934326171875
 20
-94.15442657470703
 30
0.0
 11
-31.36811637878418
 21
-94.95284271240234
 31
0.0
  0
LINE
  8
0
 10
-31.36811637878418
 20
-94.95284271240234
 30
0.0
 11
-29.028404235839844
 21
-95.69405364990234
 31
0.0
  0
LINE
  8
0
 10
-29.028404235839844
 20
-95.69405364990234
 30
0.0
 11
-26.67120361328125
 21
-96.37763214111328
 31
0.0
  0
LINE
  8
0
 10
-26.67120361328125
 20
-96.37763214111328
 30
0.0
 11
-24.297937393188477
 21
-97.00314331054688
 31
0.0
  0
LINE
  8
0
 10
-24.297937393188477
 20
-97.00314331054688
 30
0.0
 11
-21.910037994384766
 21
-97.57023620605469
 31
0.0
  0
LINE
  8
0
 10
-21.910037994384766
 20
-97.57023620605469
 30
0.0
 11
-19.50893783569336
 21
-98.07855224609375
 31
0.0
  0
LINE
  8
0
 10
-19.50893783569336
 20
-98.07855224609375
 30
0.0
 11
-17.096086502075195
 21
-98.52778625488281
 31
0.0
  0
LINE
  8
0
 10
-17.096086502075195
 20
-98.52778625488281
 30
0.0
 11
-14.672938346862793
 21
-98.91767120361328
 31
0.0
  0
LINE
  8
0
 10
-14.672938346862793
 20
-98.91767120361328
 30
0.0
 11
-12.240951538085938
 21
-99.24797058105469
 31
0.0
  0
LINE
  8
0
 10
-12.240951538085938
 20
-99.24797058105469
 30
0.0
 11
-9.801589965820312
 21
-99.51848602294922
 31
0.0
  0
LINE
  8
0
 10
-9.801589965820312
 20
-99.51848602294922
 30
0.0
 11
-7.356325626373291
 21
-99.72905731201172
 31
0.0
  0
LINE
  8
0
 10
-7.356325626373291
 20
-99.72905731201172
 30
0.0
 11
-4.90662956237793
 21
-99.87954711914062
 31
0.0
  0
LINE
  8
0
 10
-4.90662956237793
 20
-99.87954711914062
 30
0.0
 11
-2.4539780616760254
 21
-99.96988677978516
 31
0.0
  0
LINE
  8
0
 10
-2.4539780616760254
 20
-99.96988677978516
 30
0.0
 11
0.0001517934288131073
 21
-100.0
 31
0.0
  0
LINE
  8
0
 10
0.0001517934288131073
 20
-100.0
 30
0.0
 11
2.4542815685272217
 21
-99.96987915039062
 31
0.0
  0
LINE
  8
0
 10
2.4542815685272217
 20
-99.96987915039062
 30
0.0
 11
4.906932830810547
 21
-99.8795394897461
 31
0.0
  0
LINE
  8
0
 10
4.906932830810547
 20
-99.8795394897461
 30
0.0
 11
7.356628894805908
 21
-99.72903442382812
 31
0.0
  0
LINE
  8
0
 10
7.356628894805908
 20
-99.72903442382812
 30
0.0
 11
9.80189323425293
 21
-99.5184555053711
 31
0.0
  0
LINE
  8
0
 10
9.80189323425293
 20
-99.5184555053711
 30
0.0
 11
12.241252899169922
 21
-99.24793243408203
 31
0.0
  0
LINE
  8
0
 10
12.241252899169922
 20
-99.24793243408203
 30
0.0
 11
14.673238754272461
 21
-98.91761779785156
 31
0.0
  0
LINE
  8
0
 10
14.673238754272461
 20
-98.91761779785156
 30
0.0
 11
17.096385955810547
 21
-98.5277328491211
 31
0.0
  0
LINE
  8
0
 10
17.096385955810547
 20
-98.5277328491211
 30
0.0
 11
19.509235382080078
 21
-98.0784912109375
 31
0.0
  0
LINE
  8
0
 10
19.509235382080078
 20
-98.0784912109375
 30
0.0
 11
21.91033363342285
 21
-97.5701675415039
 31
0.0
  0
LINE
  8
0
 10
21.91033363342285
 20
-97.5701675415039
 30
0.0
 11
24.298233032226562
 21
-97.0030746459961
 31
0.0
  0
LINE
  8
0
 10
24.298233032226562
 20
-97.0030746459961
 30
0.0
 11
26.67149543762207
 21
-96.37754821777344
 31
0.0
  0
LINE
  8
0
 10
26.67149543762207
 20
-96.37754821777344
 30
0.0
 11
29.0286922454834
 21
-95.69396209716797
 31
0.0
  0
LINE
  8
0
 10
29.0286922454834
 20
-95.69396209716797
 30
0.0
 11
31.368404388427734
 21
-94.95274353027344
 31
0.0
  0
LINE
  8
0
 10
31.368404388427734
 20
-94.95274353027344
 30
0.0
 11
33.6892204284668
 21
-94.1543197631836
 31
0.0
  0
LINE
  8
0
 10
33.6892204284668
 20
-94.1543197631836
 30
0.0
 11
35.989742279052734
 21
-93.29918670654297
 31
0.0
  0
LINE
  8
0
 10
35.989742279052734
 20
-93.29918670654297
 30
0.0
 11
38.268585205078125
 21
-92.38785552978516
 31
0.0
  0
LINE
  8
0
 10
38.268585205078125
 20
-92.38785552978516
 30
0.0
 11
40.52437973022461
 21
-91.42086791992188
 31
0.0
  0
LINE
  8
0
 10
40.52437973022461
 20
-91.42086791992188
 30
0.0
 11
42.755760192871094
 21
-90.39881134033203
 31
0.0
  0
LINE
  8
0
 10
42.755760192871094
 20
-90.39881134033203
 30
0.0
 11
44.961387634277344
 21
-89.32230377197266
 31
0.0
  0
LINE
  8
0
 10
44.961387634277344
 20
-89.32230377197266
 30
0.0
 11
47.139930725097656
 21
-88.1919937133789
 31
0.0
  0
LINE
  8
0
 10
47.139930725097656
 20
-88.1919937133789
 30
0.0
 11
49.290077209472656
 21
-87.00855255126953
 31
0.0
  0
LINE
  8
0
 10
49.290077209472656
 20
-87.00855255126953
 30
0.0
 11
51.41053771972656
 21
-85.772705078125
 31
0.0
  0
LINE
  8
0
 10
51.41053771972656
 20
-85.772705078125
 30
0.0
 11
53.50002670288086
 21
-84.48519134521484
 31
0.0
  0
LINE
  8
0
 10
53.50002670288086
 20
-84.48519134521484
 30
0.0
 11
55.55728530883789
 21
-83.14678955078125
 31
0.0
  0
LINE
  8
0
 10
55.55728530883789
 20
-83.14678955078125
 30
0.0
 11
57.581085205078125
 21
-81.75829315185547
 31
0.0
  0
LINE
  8
0
 10
57.581085205078125
 20
-81.75829315185547
 30
0.0
 11
59.57019805908203
 21
-80.320556640625
 31
0.0
  0
LINE
  8
0
 10
59.57019805908203
 20
-80.320556640625
 30
0.0
 11
61.5234260559082
 21
-78.83443450927734
 31
0.0
  0
LINE
  8
0
 10
61.5234260559082
 20
-78.83443450927734
 30
0.0
 11
63.43959426879883
 21
-77.30081939697266
 31
0.0
  0
LINE
  8
0
 10
63.43959426879883
 20
-77.30081939697266
 30
0.0
 11
65.31755065917969
 21
-75.72065734863281
 31
0.0
  0
LINE
  8
0
 10
65.31755065917969
 20
-75.72065734863281
 30
0.0
 11
67.15615844726562
 21
-74.09486389160156
 31
0.0
  0
LINE
  8
0
 10
67.15615844726562
 20
-74.09486389160156
 30
0.0
 11
68.95431518554688
 21
-72.42445373535156
 31
0.0
  0
LINE
  8
0
 10
68.95431518554688
 20
-72.42445373535156
 30
0.0
 11
70.71094512939453
 21
-70.71041107177734
 31
0.0
  0
LINE
  8
0
 10
70.71094512939453
 20
-70.71041107177734
 30
0.0
 11
72.42497253417969
 21
-68.95377349853516
 31
0.0
  0
LINE
  8
0
 10
72.42497253417969
 20
-68.95377349853516
 30
0.0
 11
74.09537506103516
 21
-67.15560913085938
 31
0.0
  0
LINE
  8
0
 10
74.09537506103516
 20
-67.15560913085938
 30
0.0
 11
75.72113037109375
 21
-65.31700134277344
 31
0.0
  0
LINE
  8
0
 10
75.72113037109375
 20
-65.31700134277344
 30
0.0
 11
77.30128479003906
 21
-63.43903350830078
 31
0.0
  0
LINE
  8
0
 10
77.30128479003906
 20
-63.43903350830078
 30
0.0
 11
78.83487701416016
 21
-61.52285385131836
 31
0.0
  0
LINE
  8
0
 10
78.83487701416016
 20
-61.52285385131836
 30
0.0
 11
80.32098388671875
 21
-59.56961441040039
 31
0.0
  0
LINE
  8
0
 10
80.32098388671875
 20
-59.56961441040039
 30
0.0
 11
81.75871276855469
 21
-57.58049392700195
 31
0.0
  0
LINE
  8
0
 10
81.75871276855469
 20
-57.58049392700195
 30
0.0
 11
83.14718627929688
 21
-55.55668640136719
 31
0.0
  0
LINE
  8
0
 10
83.14718627929688
 20
-55.55668640136719
 30
0.0
 11
84.48558044433594
 21
-53.499412536621094
 31
0.0
  0
LINE
  8
0
 10
84.48558044433594
 20
-53.499412536621094
 30
0.0
 11
85.7730712890625
 21
-51.409912109375
 31
0.0
  0
LINE
  8
0
 10
85.7730712890625
 20
-51.409912109375
 30
0.0
 11
87.0089111328125
 21
-49.28944778442383
 31
0.0
  0
LINE
  8
0
 10
87.0089111328125
 20
-49.28944778442383
 30
0.0
 11
88.19232940673828
 21
-47.13928985595703
 31
0.0
  0
LINE
  8
0
 10
88.19232940673828
 20
-47.13928985595703
 30
0.0
 11
89.32262420654297
 21
-44.96073913574219
 31
0.0
  0
LINE
  8
0
 10
89.32262420654297
 20
-44.96073913574219
 30
0.0
 11
90.39912414550781
 21
-42.755104064941406
 31
0.0
  0
LINE
  8
0
 10
90.39912414550781
 20
-42.755104064941406
 30
0.0
 11
91.42115783691406
 21
-40.52371597290039
 31
0.0
  0
LINE
  8
0
 10
91.42115783691406
 20
-40.52371597290039
 30
0.0
 11
92.38813018798828
 21
-38.26791763305664
 31
0.0
  0
LINE
  8
0
 10
92.38813018798828
 20
-38.26791763305664
 30
0.0
 11
93.29944610595703
 21
-35.98906707763672
 31
0.0
  0
LINE
  8
0
 10
93.29944610595703
 20
-35.98906707763672
 30
0.0
 11
94.1545639038086
 21
-33.68853759765625
 31
0.0
  0
LINE
  8
0
 10
94.1545639038086
 20
-33.68853759765625
 30
0.0
 11
94.95297241210938
 21
-31.36771583557129
 31
0.0
  0
LINE
  8
0
 10
94.95297241210938
 20
-31.36771583557129
 30
0.0
 11
95.69417572021484
 21
-29.027997970581055
 31
0.0
  0
LINE
  8
0
 10
95.69417572021484
 20
-29.027997970581055
 30
0.0
 11
96.37773895263672
 21
-26.670795440673828
 31
0.0
  0
LINE
  8
0
 10
96.37773895263672
 20
-26.670795440673828
 30
0.0
 11
97.00324249267578
 21
-24.297529220581055
 31
0.0
  0
LINE
  8
0
 10
97.00324249267578
 20
-24.297529220581055
 30
0.0
 11
97.57032775878906
 21
-21.909626007080078
 31
0.0
  0
LINE
  8
0
 10
97.57032775878906
 20
-21.909626007080078
 30
0.0
 11
98.07862854003906
 21
-19.50852394104004
 31
0.0
  0
LINE
  8
0
 10
98.07862854003906
 20
-19.50852394104004
 30
0.0
 11
98.5278549194336
 21
-17.095670700073242
 31
0.0
  0
LINE
  8
0
 10
98.5278549194336
 20
-17.095670700073242
 30
0.0
 11
98.91773223876953
 21
-14.67252254486084
 31
0.0
  0
LINE
  8
0
 10
98.91773223876953
 20
-14.67252254486084
 30
0.0
 11
99.2480239868164
 21
-12.240532875061035
 31
0.0
  0
LINE
  8
0
 10
99.2480239868164
 20
-12.240532875061035
 30
0.0
 11
99.51852416992188
 21
-9.80117130279541
 31
0.0
  0
LINE
  8
0
 10
99.51852416992188
 20
-9.80117130279541
 30
0.0
 11
99.72908782958984
 21
-7.355905532836914
 31
0.0
  0
LINE
  8
0
 10
99.72908782958984
 20
-7.355905532836914
 30
0.0
 11
99.87957763671875
 21
-4.9062089920043945
 31
0.0
  0
LINE
  8
0
 10
99.87957763671875
 20
-4.9062089920043945
 30
0.0
 11
99.96989440917969
 21
-2.453556537628174
 31
0.0
  0
LINE
  8
0
 10
99.96989440917969
 20
-2.453556537628174
 30
0.0
 11
100.0
 21
0.0005733970901928842
 31
0.0
  0
LINE
  8
0
 10
100.0
 20
0.0005733970901928842
 30
0.0
 11
99.9698715209961
 21
2.4547030925750732
 31
0.0
  0
LINE
  8
0
 10
99.9698715209961
 20
2.4547030925750732
 30
0.0
 11
99.8795166015625
 21
4.90735387802124
 31
0.0
  0
LINE
  8
0
 10
99.8795166015625
 20
4.90735387802124
 30
0.0
 11
99.72900390625
 21
7.357048988342285
 31
0.0
  0
LINE
  8
0
 10
99.72900390625
 20
7.357048988342285
 30
0.0
 11
99.5184097290039
 21
9.802312850952148
 31
0.0
  0
LINE
  8
0
 10
99.5184097290039
 20
9.802312850952148
 30
0.0
 11
99.24787902832031
 21
12.241671562194824
 31
0.0
  0
LINE
  8
0
 10
99.24787902832031
 20
12.241671562194824
 30
0.0
 11
98.91756439208984
 21
14.673656463623047
 31
0.0
  0
LINE
  8
0
 10
98.91756439208984
 20
14.673656463623047
 30
0.0
 11
98.52765655517578
 21
17.0968017578125
 31
0.0
  0
LINE
  8
0
 10
98.52765655517578
 20
17.0968017578125
 30
0.0
 11
98.07840728759766
 21
19.5096492767334
 31
0.0
  0
LINE
  8
0
 10
98.07840728759766
 20
19.5096492767334
 30
0.0
 11
97.57007598876953
 21
21.91074562072754
 31
0.0
  0
LINE
  8
0
 10
97.57007598876953
 20
21.91074562072754
 30
0.0
 11
97.00296783447266
 21
24.298641204833984
 31
0.0
  0
LINE
  8
0
 10
97.00296783447266
 20
24.298641204833984
 30
0.0
 11
96.37743377685547
 21
26.67190170288086
 31
0.0
  0
LINE
  8
0
 10
96.37743377685547
 20
26.67190170288086
 30
0.0
 11
95.69384765625
 21
29.029094696044922
 31
0.0
  0
LINE
  8
0
 10
95.69384765625
 20
29.029094696044922
 30
0.0
 11
94.95260620117188
 21
31.368804931640625
 31
0.0
  0
LINE
  8
0
 10
94.95260620117188
 20
31.368804931640625
 30
0.0
 11
94.15418243408203
 21
33.68961715698242
 31
0.0
  0
LINE
  8
0
 10
94.15418243408203
 20
33.68961715698242
 30
0.0
 11
93.29903411865234
 21
35.990135192871094
 31
0.0
  0
LINE
  8
0
 10
93.29903411865234
 20
35.990135192871094
 30
0.0
 11
92.3876953125
 21
38.26897430419922
 31
0.0
  0
LINE
  8
0
 10
92.3876953125
 20
38.26897430419922
 30
0.0
 11
91.42070007324219
 21
40.52476119995117
 31
0.0
  0
LINE
  8
0
 10
91.42070007324219
 20
40.52476119995117
 30
0.0
 11
90.39863586425781
 21
42.756141662597656
 31
0.0
  0
LINE
  8
0
 10
90.39863586425781
 20
42.756141662597656
 30
0.0
 11
89.32211303710938
 21
44.961761474609375
 31
0.0
  0
LINE
  8
0
 10
89.32211303710938
 20
44.961761474609375
 30
0.0
 11
88.19178771972656
 21
47.14030456542969
 31
0.0
  0
LINE
  8
0
 10
88.19178771972656
 20
47.14030456542969
 30
0.0
 11
87.00834655761719
 21
49.29044723510742
 31
0.0
  0
LINE
  8
0
 10
87.00834655761719
 20
49.29044723510742
 30
0.0
 11
85.7724838256836
 21
51.41089630126953
 31
0.0
  0
LINE
  8
0
 10
85.7724838256836
 20
51.41089630126953
 30
0.0
 11
84.4849624633789
 21
53.50038528442383
 31
0.0
  0
LINE
  8
0
 10
84.4849624633789
 20
53.50038528442383
 30
0.0
 11
83.14654541015625
 21
55.557640075683594
 31
0.0
  0
LINE
  8
0
 10
83.14654541015625
 20
55.557640075683594
 30
0.0
 11
81.75804901123047
 21
57.5814323425293
 31
0.0
  0
LINE
  8
0
 10
81.75804901123047
 20
57.5814323425293
 30
0.0
 11
80.32030487060547
 21
59.57053756713867
 31
0.0
  0
LINE
  8
0
 10
80.32030487060547
 20
59.57053756713867
 30
0.0
 11
78.83417510986328
 21
61.52375793457031
 31
0.0
  0
LINE
  8
0
 10
78.83417510986328
 20
61.52375793457031
 30
0.0
 11
77.3005599975586
 21
63.43992233276367
 31
0.0
  0
LINE
  8
0
 10
77.3005599975586
 20
63.43992233276367
 30
0.0
 11
75.72037506103516
 21
65.31787109375
 31
0.0
  0
LINE
  8
0
 10
75.72037506103516
 20
65.31787109375
 30
0.0
 11
74.09458923339844
 21
67.15647888183594
 31
0.0
  0
LINE
  8
0
 10
74.09458923339844
 20
67.15647888183594
 30
0.0
 11
72.42416381835938
 21
68.95462799072266
 31
0.0
  0
LINE
  8
0
 10
72.42416381835938
 20
68.95462799072266
 30
0.0
 11
70.71011352539062
 21
70.71124267578125
 31
0.0
  0
LINE
  8
0
 10
70.71011352539062
 20
70.71124267578125
 30
0.0
 11
68.95347595214844
 21
72.42526245117188
 31
0.0
  0
LINE
  8
0
 10
68.95347595214844
 20
72.42526245117188
 30
0.0
 11
67.1552963256836
 21
74.09565734863281
 31
0.0
  0
LINE
  8
0
 10
67.1552963256836
 20
74.09565734863281
 30
0.0
 11
65.31666564941406
 21
75.72142028808594
 31
0.0
  0
LINE
  8
0
 10
65.31666564941406
 20
75.72142028808594
 30
0.0
 11
63.438690185546875
 21
77.30156707763672
 31
0.0
  0
LINE
  8
0
 10
63.438690185546875
 20
77.30156707763672
 30
0.0
 11
61.52250289916992
 21
78.83515167236328
 31
0.0
  0
LINE
  8
0
 10
61.52250289916992
 20
78.83515167236328
 30
0.0
 11
59.56925582885742
 21
80.32125091552734
 31
0.0
  0
LINE
  8
0
 10
59.56925582885742
 20
80.32125091552734
 30
0.0
 11
57.58013153076172
 21
81.75897216796875
 31
0.0
  0
LINE
  8
0
 10
57.58013153076172
 20
81.75897216796875
 30
0.0
 11
55.55631637573242
 21
83.1474380493164
 31
0.0
  0
LINE
  8
0
 10
55.55631637573242
 20
83.1474380493164
 30
0.0
 11
53.49903869628906
 21
84.4858169555664
 31
0.0
  0
LINE
  8
0
 10
53.49903869628906
 20
84.4858169555664
 30
0.0
 11
51.40953063964844
 21
85.77330780029297
 31
0.0
  0
LINE
  8
0
 10
51.40953063964844
 20
85.77330780029297
 30
0.0
 11
49.289058685302734
 21
87.0091323852539
 31
0.0
  0
LINE
  8
0
 10
49.289058685302734
 20
87.0091323852539
 30
0.0
 11
47.13889694213867
 21
88.19254302978516
 31
0.0
  0
LINE
  8
0
 10
47.13889694213867
 20
88.19254302978516
 30
0.0
 11
44.96034240722656
 21
89.32283020019531
 31
0.0
  0
LINE
  8
0
 10
44.96034240722656
 20
89.32283020019531
 30
0.0
 11
42.75469970703125
 21
90.3993148803711
 31
0.0
  0
LINE
  8
0
 10
42.75469970703125
 20
90.3993148803711
 30
0.0
 11
40.52330780029297
 21
91.42134094238281
 31
0.0
  0
LINE
  8
0
 10
40.52330780029297
 20
91.42134094238281
 30
0.0
 11
38.26750564575195
 21
92.3883056640625
 31
0.0
  0
LINE
  8
0
 10
38.26750564575195
 20
92.3883056640625
 30
0.0
 11
35.988651275634766
 21
93.29960632324219
 31
0.0
  0
LINE
  8
0
 10
35.988651275634766
 20
93.29960632324219
 30
0.0
 11
33.68811798095703
 21
94.15471649169922
 31
0.0
  0
LINE
  8
0
 10
33.68811798095703
 20
94.15471649169922
 30
0.0
 11
31.367292404174805
 21
94.95310974121094
 31
0.0
  0
LINE
  8
0
 10
31.367292404174805
 20
94.95310974121094
 30
0.0
 11
29.027572631835938
 21
95.69430541992188
 31
0.0
  0
LINE
  8
0
 10
29.027572631835938
 20
95.69430541992188
 30
0.0
 11
26.670366287231445
 21
96.37785339355469
 31
0.0
  0
LINE
  8
0
 10
26.670366287231445
 20
96.37785339355469
 30
0.0
 11
24.29709815979004
 21
97.00335693359375
 31
0.0
  0
LINE
  8
0
 10
24.29709815979004
 20
97.00335693359375
 30
0.0
 11
21.909191131591797
 21
97.57042694091797
 31
0.0
  0
LINE
  8
0
 10
21.909191131591797
 20
97.57042694091797
 30
0.0
 11
19.508087158203125
 21
98.0787124633789
 31
0.0
  0
LINE
  8
0
 10
19.508087158203125
 20
98.0787124633789
 30
0.0
 11
17.095233917236328
 21
98.5279312133789
 31
0.0
  0
LINE
  8
0
 10
17.095233917236328
 20
98.5279312133789
 30
0.0
 11
14.672080993652344
 21
98.91779327392578
 31
0.0
  0
LINE
  8
0
 10
14.672080993652344
 20
98.91779327392578
 30
0.0
 11
12.240091323852539
 21
99.24807739257812
 31
0.0
  0
LINE
  8
0
 10
12.240091323852539
 20
99.24807739257812
 30
0.0
 11
9.800727844238281
 21
99.51856994628906
 31
0.0
  0
LINE
  8
0
 10
9.800727844238281
 20
99.51856994628906
 30
0.0
 11
7.355461120605469
 21
99.72911834716797
 31
0.0
  0
LINE
  8
0
 10
7.355461120605469
 20
99.72911834716797
 30
0.0
 11
4.905763626098633
 21
99.87959289550781
 31
0.0
  0
LINE
  8
0
 10
4.905763626098633
 20
99.87959289550781
 30
0.0
 11
2.453111410140991
 21
99.96990203857422
 31
0.0
  0
LINE
  8
0
 10
0.0
 20
100.0
 30
0.0
 11
2.453111410140991
 21
99.96990203857422
 31
0.0
  0
LINE
  8
0
 10
0.0
 20
2.0
 30
0.0
 11
-0.04908245801925659
 21
1.9993976354599
 31
0.0
  0
LINE
  8
0
 10
-0.04908245801925659
 20
1.9993976354599
 30
0.0
 11
-0.09813535213470459
 21
1.9975908994674683
 31
0.0
  0
LINE
  8
0
 10
-0.09813535213470459
 20
1.9975908994674683
 30
0.0
 11
-0.1471291333436966
 21
1.994580864906311
 31
0.0
  0
LINE
  8
0
 10
-0.1471291333436966
 20
1.994580864906311
 30
0.0
 11
-0.1960342824459076
 21
1.990369439125061
 31
0.0
  0
LINE
  8
0
 10
-0.1960342824459076
 20
1.990369439125061
 30
0.0
 11
-0.24482135474681854
 21
1.9849591255187988
 31
0.0
  0
LINE
  8
0
 10
-0.24482135474681854
 20
1.9849591255187988
 30
0.0
 11
-0.2934609353542328
 21
1.9783530235290527
 31
0.0
  0
LINE
  8
0
 10
-0.2934609353542328
 20
1.9783530235290527
 30
0.0
 11
-0.3419237732887268
 21
1.970555305480957
 31
0.0
  0
LINE
  8
0
 10
-0.3419237732887268
 20
1.970555305480957
 30
0.0
 11
-0.3901806175708771
 21
1.9615706205368042
 31
0.0
  0
LINE
  8
0
 10
-0.3901806175708771
 20
1.9615706205368042
 30
0.0
 11
-0.438202440738678
 21
1.9514042139053345
 31
0.0
  0
LINE
  8
0
 10
-0.438202440738678
 20
1.9514042139053345
 30
0.0
 11
-0.48596033453941345
 21
1.9400625228881836
 31
0.0
  0
LINE
  8
0
 10
-0.48596033453941345
 20
1.9400625228881836
 30
0.0
 11
-0.533425509929657
 21
1.9275521039962769
 31
0.0
  0
LINE
  8
0
 10
-0.533425509929657
 20
1.9275521039962769
 30
0.0
 11
-0.580569326877594
 21
1.913880705833435
 31
0.0
  0
LINE
  8
0
 10
-0.580569326877594
 20
1.913880705833435
 30
0.0
 11
-0.6273635029792786
 21
1.899056315422058
 31
0.0
  0
LINE
  8
0
 10
-0.6273635029792786
 20
1.899056315422058
 30
0.0
 11
-0.6737797260284424
 21
1.8830881118774414
 31
0.0
  0
LINE
  8
0
 10
-0.6737797260284424
 20
1.8830881118774414
 30
0.0
 11
-0.7197901010513306
 21
1.865985631942749
 31
0.0
  0
LINE
  8
0
 10
-0.7197901010513306
 20
1.865985631942749
 30
0.0
 11
-0.7653669118881226
 21
1.8477590084075928
 31
0.0
  0
LINE
  8
0
 10
-0.7653669118881226
 20
1.8477590084075928
 30
0.0
 11
-0.8104827404022217
 21
1.8284194469451904
 31
0.0
  0
LINE
  8
0
 10
-0.8104827404022217
 20
1.8284194469451904
 30
0.0
 11
-0.8551102876663208
 21
1.8079785108566284
 31
0.0
  0
LINE
  8
0
 10
-0.8551102876663208
 20
1.8079785108566284
 30
0.0
 11
-0.8992227911949158
 21
1.78644859790802
 31
0.0
  0
LINE
  8
0
 10
-0.8992227911949158
 20
1.78644859790802
 30
0.0
 11
-0.942793607711792
 21
1.7638424634933472
 31
0.0
  0
LINE
  8
0
 10
-0.942793607711792
 20
1.7638424634933472
 30
0.0
 11
-0.9857965707778931
 21
1.7401739358901978
 31
0.0
  0
LINE
  8
0
 10
-0.9857965707778931
 20
1.7401739358901978
 30
0.0
 11
-1.0282056331634521
 21
1.7154570817947388
 31
0.0
  0
LINE
  8
0
 10
-1.0282056331634521
 20
1.7154570817947388
 30
0.0
 11
-1.069995403289795
 21
1.6897070407867432
 31
0.0
  0
LINE
  8
0
 10
-1.069995403289795
 20
1.6897070407867432
 30
0.0
 11
-1.1111406087875366
 21
1.6629390716552734
 31
0.0
  0
LINE
  8
0
 10
-1.1111406087875366
 20
1.6629390716552734
 30
0.0
 11
-1.1516165733337402
 21
1.635169506072998
 31
0.0
  0
LINE
  8
0
 10
-1.1516165733337402
 20
1.635169506072998
 30
0.0
 11
-1.1913988590240479
 21
1.6064149141311646
 31
0.0
  0
LINE
  8
0
 10
-1.1913988590240479
 20
1.6064149141311646
 30
0.0
 11
-1.2304633855819702
 21
1.5766927003860474
 31
0.0
  0
LINE
  8
0
 10
-1.2304633855819702
 20
1.5766927003860474
 30
0.0
 11
-1.2687867879867554
 21
1.546020746231079
 31
0.0
  0
LINE
  8
0
 10
-1.2687867879867554
 20
1.546020746231079
 30
0.0
 11
-1.3063459396362305
 21
1.5144175291061401
 31
0.0
  0
LINE
  8
0
 10
-1.3063459396362305
 20
1.5144175291061401
 30
0.0
 11
-1.3431181907653809
 21
1.481902003288269
 31
0.0
  0
LINE
  8
0
 10
-1.3431181907653809
 20
1.481902003288269
 30
0.0
 11
-1.37908136844635
 21
1.4484939575195312
 31
0.0
  0
LINE
  8
0
 10
-1.37908136844635
 20
1.4484939575195312
 30
0.0
 11
-1.4142138957977295
 21
1.4142132997512817
 31
0.0
  0
LINE
  8
0
 10
-1.4142138957977295
 20
1.4142132997512817
 30
0.0
 11
-1.4484944343566895
 21
1.3790807723999023
 31
0.0
  0
LINE
  8
0
 10
-1.4484944343566895
 20
1.3790807723999023
 30
0.0
 11
-1.4819025993347168
 21
1.343117594718933
 31
0.0
  0
LINE
  8
0
 10
-1.4819025993347168
 20
1.343117594718933
 30
0.0
 11
-1.5144180059432983
 21
1.3063453435897827
 31
0.0
  0
LINE
  8
0
 10
-1.5144180059432983
 20
1.3063453435897827
 30
0.0
 11
-1.5460212230682373
 21
1.2687861919403076
 31
0.0
  0
LINE
  8
0
 10
-1.5460212230682373
 20
1.2687861919403076
 30
0.0
 11
-1.5766931772232056
 21
1.2304627895355225
 31
0.0
  0
LINE
  8
0
 10
-1.5766931772232056
 20
1.2304627895355225
 30
0.0
 11
-1.6064153909683228
 21
1.1913981437683105
 31
0.0
  0
LINE
  8
0
 10
-1.6064153909683228
 20
1.1913981437683105
 30
0.0
 11
-1.6351699829101562
 21
1.1516159772872925
 31
0.0
  0
LINE
  8
0
 10
-1.6351699829101562
 20
1.1516159772872925
 30
0.0
 11
-1.6629395484924316
 21
1.1111400127410889
 31
0.0
  0
LINE
  8
0
 10
-1.6629395484924316
 20
1.1111400127410889
 30
0.0
 11
-1.6897073984146118
 21
1.0699948072433472
 31
0.0
  0
LINE
  8
0
 10
-1.6897073984146118
 20
1.0699948072433472
 30
0.0
 11
-1.7154574394226074
 21
1.028205156326294
 31
0.0
  0
LINE
  8
0
 10
-1.7154574394226074
 20
1.028205156326294
 30
0.0
 11
-1.7401740550994873
 21
0.9857961535453796
 31
0.0
  0
LINE
  8
0
 10
-1.7401740550994873
 20
0.9857961535453796
 30
0.0
 11
-1.7638425827026367
 21
0.9427933096885681
 31
0.0
  0
LINE
  8
0
 10
-1.7638425827026367
 20
0.9427933096885681
 30
0.0
 11
-1.78644859790802
 21
0.8992226123809814
 31
0.0
  0
LINE
  8
0
 10
-1.78644859790802
 20
0.8992226123809814
 30
0.0
 11
-1.807978630065918
 21
0.855110228061676
 31
0.0
  0
LINE
  8
0
 10
-1.807978630065918
 20
0.855110228061676
 30
0.0
 11
-1.8284194469451904
 21
0.8104827404022217
 31
0.0
  0
LINE
  8
0
 10
-1.8284194469451904
 20
0.8104827404022217
 30
0.0
 11
-1.8477590084075928
 21
0.7653670907020569
 31
0.0
  0
LINE
  8
0
 10
-1.8477590084075928
 20
0.7653670907020569
 30
0.0
 11
-1.8659855127334595
 21
0.7197903990745544
 31
0.0
  0
LINE
  8
0
 10
-1.8659855127334595
 20
0.7197903990745544
 30
0.0
 11
-1.8830879926681519
 21
0.673780083656311
 31
0.0
  0
LINE
  8
0
 10
-1.8830879926681519
 20
0.673780083656311
 30
0.0
 11
-1.8990561962127686
 21
0.6273639798164368
 31
0.0
  0
LINE
  8
0
 10
-1.8990561962127686
 20
0.6273639798164368
 30
0.0
 11
-1.913880467414856
 21
0.5805699825286865
 31
0.0
  0
LINE
  8
0
 10
-1.913880467414856
 20
0.5805699825286865
 30
0.0
 11
-1.9275519847869873
 21
0.5334262251853943
 31
0.0
  0
LINE
  8
0
 10
-1.9275519847869873
 20
0.5334262251853943
 30
0.0
 11
-1.9400622844696045
 21
0.4859611690044403
 31
0.0
  0
LINE
  8
0
 10
-1.9400622844696045
 20
0.4859611690044403
 30
0.0
 11
-1.951404094696045
 21
0.4382033944129944
 31
0.0
  0
LINE
  8
0
 10
-1.951404094696045
 20
0.4382033944129944
 30
0.0
 11
-1.961570382118225
 21
0.39018166065216064
 31
0.0
  0
LINE
  8
0
 10
-1.961570382118225
 20
0.39018166065216064
 30
0.0
 11
-1.970555067062378
 21
0.34192487597465515
 31
0.0
  0
LINE
  8
0
 10
-1.970555067062378
 20
0.34192487597465515
 30
0.0
 11
-1.9783527851104736
 21
0.2934621572494507
 31
0.0
  0
LINE
  8
0
 10
-1.9783527851104736
 20
0.2934621572494507
 30
0.0
 11
-1.9849588871002197
 21
0.2448226660490036
 31
0.0
  0
LINE
  8
0
 10
-1.9849588871002197
 20
0.2448226660490036
 30
0.0
 11
-1.9903693199157715
 21
0.196035698056221
 31
0.0
  0
LINE
  8
0
 10
-1.9903693199157715
 20
0.196035698056221
 30
0.0
 11
-1.9945807456970215
 21
0.14713063836097717
 31
0.0
  0
LINE
  8
0
 10
-1.9945807456970215
 20
0.14713063836097717
 30
0.0
 11
-1.9975907802581787
 21
0.09813696891069412
 31
0.0
  0
LINE
  8
0
 10
-1.9975907802581787
 20
0.09813696891069412
 30
0.0
 11
-1.9993976354599
 21
0.04908417537808418
 31
0.0
  0
LINE
  8
0
 10
-1.9993976354599
 20
0.04908417537808418
 30
0.0
 11
-2.0
 21
1.8199258420281694e-06
 31
0.0
  0
LINE
  8
0
 10
-2.0
 20
1.8199258420281694e-06
 30
0.0
 11
-1.9993976354599
 21
-0.049080539494752884
 31
0.0
  0
LINE
  8
0
 10
-1.9993976354599
 20
-0.049080539494752884
 30
0.0
 11
-1.9975910186767578
 21
-0.09813333302736282
 31
0.0
  0
LINE
  8
0
 10
-1.9975910186767578
 20
-0.09813333302736282
 30
0.0
 11
-1.9945811033248901
 21
-0.14712701737880707
 31
0.0
  0
LINE
  8
0
 10
-1.9945811033248901
 20
-0.14712701737880707
 30
0.0
 11
-1.9903696775436401
 21
-0.1960320770740509
 31
0.0
  0
LINE
  8
0
 10
-1.9903696775436401
 20
-0.1960320770740509
 30
0.0
 11
-1.984959363937378
 21
-0.2448190450668335
 31
0.0
  0
LINE
  8
0
 10
-1.984959363937378
 20
-0.2448190450668335
 30
0.0
 11
-1.9783533811569214
 21
-0.2934585511684418
 31
0.0
  0
LINE
  8
0
 10
-1.9783533811569214
 20
-0.2934585511684418
 30
0.0
 11
-1.9705556631088257
 21
-0.34192129969596863
 31
0.0
  0
LINE
  8
0
 10
-1.9705556631088257
 20
-0.34192129969596863
 30
0.0
 11
-1.9615710973739624
 21
-0.3901780843734741
 31
0.0
  0
LINE
  8
0
 10
-1.9615710973739624
 20
-0.3901780843734741
 30
0.0
 11
-1.9514048099517822
 21
-0.43819984793663025
 31
0.0
  0
LINE
  8
0
 10
-1.9514048099517822
 20
-0.43819984793663025
 30
0.0
 11
-1.940063238143921
 21
-0.48595762252807617
 31
0.0
  0
LINE
  8
0
 10
-1.940063238143921
 20
-0.48595762252807617
 30
0.0
 11
-1.9275529384613037
 21
-0.5334227085113525
 31
0.0
  0
LINE
  8
0
 10
-1.9275529384613037
 20
-0.5334227085113525
 30
0.0
 11
-1.913881540298462
 21
-0.5805664658546448
 31
0.0
  0
LINE
  8
0
 10
-1.913881540298462
 20
-0.5805664658546448
 30
0.0
 11
-1.899057388305664
 21
-0.6273605227470398
 31
0.0
  0
LINE
  8
0
 10
-1.899057388305664
 20
-0.6273605227470398
 30
0.0
 11
-1.8830891847610474
 21
-0.6737766861915588
 31
0.0
  0
LINE
  8
0
 10
-1.8830891847610474
 20
-0.6737766861915588
 30
0.0
 11
-1.8659868240356445
 21
-0.7197870016098022
 31
0.0
  0
LINE
  8
0
 10
-1.8659868240356445
 20
-0.7197870016098022
 30
0.0
 11
-1.8477603197097778
 21
-0.7653636932373047
 31
0.0
  0
LINE
  8
0
 10
-1.8477603197097778
 20
-0.7653636932373047
 30
0.0
 11
-1.828420877456665
 21
-0.8104794025421143
 31
0.0
  0
LINE
  8
0
 10
-1.828420877456665
 20
-0.8104794025421143
 30
0.0
 11
-1.8079800605773926
 21
-0.8551071286201477
 31
0.0
  0
LINE
  8
0
 10
-1.8079800605773926
 20
-0.8551071286201477
 30
0.0
 11
-1.7864500284194946
 21
-0.8992197513580322
 31
0.0
  0
LINE
  8
0
 10
-1.7864500284194946
 20
-0.8992197513580322
 30
0.0
 11
-1.7638440132141113
 21
-0.9427907466888428
 31
0.0
  0
LINE
  8
0
 10
-1.7638440132141113
 20
-0.9427907466888428
 30
0.0
 11
-1.740175485610962
 21
-0.9857938289642334
 31
0.0
  0
LINE
  8
0
 10
-1.740175485610962
 20
-0.9857938289642334
 30
0.0
 11
-1.715458631515503
 21
-1.0282031297683716
 31
0.0
  0
LINE
  8
0
 10
-1.715458631515503
 20
-1.0282031297683716
 30
0.0
 11
-1.6897085905075073
 21
-1.069993019104004
 31
0.0
  0
LINE
  8
0
 10
-1.6897085905075073
 20
-1.069993019104004
 30
0.0
 11
-1.6629406213760376
 21
-1.1111383438110352
 31
0.0
  0
LINE
  8
0
 10
-1.6629406213760376
 20
-1.1111383438110352
 30
0.0
 11
-1.6351710557937622
 21
-1.1516144275665283
 31
0.0
  0
LINE
  8
0
 10
-1.6351710557937622
 20
-1.1516144275665283
 30
0.0
 11
-1.6064164638519287
 21
-1.1913968324661255
 31
0.0
  0
LINE
  8
0
 10
-1.6064164638519287
 20
-1.1913968324661255
 30
0.0
 11
-1.576694130897522
 21
-1.2304614782333374
 31
0.0
  0
LINE
  8
0
 10
-1.576694130897522
 20
-1.2304614782333374
 30
0.0
 11
-1.5460221767425537
 21
-1.268784999847412
 31
0.0
  0
LINE
  8
0
 10
-1.5460221767425537
 20
-1.268784999847412
 30
0.0
 11
-1.5144188404083252
 21
-1.3063442707061768
 31
0.0
  0
LINE
  8
0
 10
-1.5144188404083252
 20
-1.3063442707061768
 30
0.0
 11
-1.4819034337997437
 21
-1.3431166410446167
 31
0.0
  0
LINE
  8
0
 10
-1.4819034337997437
 20
-1.3431166410446167
 30
0.0
 11
-1.4484952688217163
 21
-1.3790799379348755
 31
0.0
  0
LINE
  8
0
 10
-1.4484952688217163
 20
-1.3790799379348755
 30
0.0
 11
-1.4142146110534668
 21
-1.4142125844955444
 31
0.0
  0
LINE
  8
0
 10
-1.4142146110534668
 20
-1.4142125844955444
 30
0.0
 11
-1.3790819644927979
 21
-1.448493242263794
 31
0.0
  0
LINE
  8
0
 10
-1.3790819644927979
 20
-1.448493242263794
 30
0.0
 11
-1.3431187868118286
 21
-1.4819015264511108
 31
0.0
  0
LINE
  8
0
 10
-1.3431187868118286
 20
-1.4819015264511108
 30
0.0
 11
-1.3063464164733887
 21
-1.514417052268982
 31
0.0
  0
LINE
  8
0
 10
-1.3063464164733887
 20
-1.514417052268982
 30
0.0
 11
-1.2687872648239136
 21
-1.5460203886032104
 31
0.0
  0
LINE
  8
0
 10
-1.2687872648239136
 20
-1.5460203886032104
 30
0.0
 11
-1.2304637432098389
 21
-1.5766924619674683
 31
0.0
  0
LINE
  8
0
 10
-1.2304637432098389
 20
-1.5766924619674683
 30
0.0
 11
-1.191399097442627
 21
-1.6064146757125854
 31
0.0
  0
LINE
  8
0
 10
-1.191399097442627
 20
-1.6064146757125854
 30
0.0
 11
-1.1516166925430298
 21
-1.6351693868637085
 31
0.0
  0
LINE
  8
0
 10
-1.1516166925430298
 20
-1.6351693868637085
 30
0.0
 11
-1.1111407279968262
 21
-1.6629390716552734
 31
0.0
  0
LINE
  8
0
 10
-1.1111407279968262
 20
-1.6629390716552734
 30
0.0
 11
-1.069995403289795
 21
-1.6897070407867432
 31
0.0
  0
LINE
  8
0
 10
-1.069995403289795
 20
-1.6897070407867432
 30
0.0
 11
-1.0282055139541626
 21
-1.7154572010040283
 31
0.0
  0
LINE
  8
0
 10
-1.0282055139541626
 20
-1.7154572010040283
 30
0.0
 11
-0.9857962727546692
 21
-1.7401740550994873
 31
0.0
  0
LINE
  8
0
 10
-0.9857962727546692
 20
-1.7401740550994873
 30
0.0
 11
-0.9427932500839233
 21
-1.7638427019119263
 31
0.0
  0
LINE
  8
0
 10
-0.9427932500839233
 20
-1.7638427019119263
 30
0.0
 11
-0.8992223143577576
 21
-1.7864488363265991
 31
0.0
  0
LINE
  8
0
 10
-0.8992223143577576
 20
-1.7864488363265991
 30
0.0
 11
-0.855109691619873
 21
-1.807978868484497
 31
0.0
  0
LINE
  8
0
 10
-0.855109691619873
 20
-1.807978868484497
 30
0.0
 11
-0.8104820251464844
 21
-1.828419804573059
 31
0.0
  0
LINE
  8
0
 10
-0.8104820251464844
 20
-1.828419804573059
 30
0.0
 11
-0.7653661370277405
 21
-1.8477593660354614
 31
0.0
  0
LINE
  8
0
 10
-0.7653661370277405
 20
-1.8477593660354614
 30
0.0
 11
-0.7197892069816589
 21
-1.8659859895706177
 31
0.0
  0
LINE
  8
0
 10
-0.7197892069816589
 20
-1.8659859895706177
 30
0.0
 11
-0.6737787127494812
 21
-1.88308846950531
 31
0.0
  0
LINE
  8
0
 10
-0.6737787127494812
 20
-1.88308846950531
 30
0.0
 11
-0.6273623108863831
 21
-1.8990567922592163
 31
0.0
  0
LINE
  8
0
 10
-0.6273623108863831
 20
-1.8990567922592163
 30
0.0
 11
-0.5805680751800537
 21
-1.9138810634613037
 31
0.0
  0
LINE
  8
0
 10
-0.5805680751800537
 20
-1.9138810634613037
 30
0.0
 11
-0.5334240794181824
 21
-1.927552580833435
 31
0.0
  0
LINE
  8
0
 10
-0.5334240794181824
 20
-1.927552580833435
 30
0.0
 11
-0.4859587550163269
 21
-1.9400628805160522
 31
0.0
  0
LINE
  8
0
 10
-0.4859587550163269
 20
-1.9400628805160522
 30
0.0
 11
-0.4382007420063019
 21
-1.9514046907424927
 31
0.0
  0
LINE
  8
0
 10
-0.4382007420063019
 20
-1.9514046907424927
 30
0.0
 11
-0.39017876982688904
 21
-1.9615709781646729
 31
0.0
  0
LINE
  8
0
 10
-0.39017876982688904
 20
-1.9615709781646729
 30
0.0
 11
-0.34192174673080444
 21
-1.9705556631088257
 31
0.0
  0
LINE
  8
0
 10
-0.34192174673080444
 20
-1.9705556631088257
 30
0.0
 11
-0.2934587597846985
 21
-1.9783533811569214
 31
0.0
  0
LINE
  8
0
 10
-0.2934587597846985
 20
-1.9783533811569214
 30
0.0
 11
-0.2448190301656723
 21
-1.984959363937378
 31
0.0
  0
LINE
  8
0
 10
-0.2448190301656723
 20
-1.984959363937378
 30
0.0
 11
-0.19603180885314941
 21
-1.9903696775436401
 31
0.0
  0
LINE
  8
0
 10
-0.19603180885314941
 20
-1.9903696775436401
 30
0.0
 11
-0.14712651073932648
 21
-1.9945811033248901
 31
0.0
  0
LINE
  8
0
 10
-0.14712651073932648
 20
-1.9945811033248901
 30
0.0
 11
-0.09813259541988373
 21
-1.9975910186767578
 31
0.0
  0
LINE
  8
0
 10
-0.09813259541988373
 20
-1.9975910186767578
 30
0.0
 11
-0.04907955974340439
 21
-1.9993977546691895
 31
0.0
  0
LINE
  8
0
 10
-0.04907955974340439
 20
-1.9993977546691895
 30
0.0
 11
3.035868530787411e-06
 21
-2.0
 31
0.0
  0
LINE
  8
0
 10
3.035868530787411e-06
 20
-2.0
 30
0.0
 11
0.04908563196659088
 21
-1.9993975162506104
 31
0.0
  0
LINE
  8
0
 10
0.04908563196659088
 20
-1.9993975162506104
 30
0.0
 11
0.09813866019248962
 21
-1.9975907802581787
 31
0.0
  0
LINE
  8
0
 10
0.09813866019248962
 20
-1.9975907802581787
 30
0.0
 11
0.14713257551193237
 21
-1.994580626487732
 31
0.0
  0
LINE
  8
0
 10
0.14713257551193237
 20
-1.994580626487732
 30
0.0
 11
0.19603785872459412
 21
-1.9903690814971924
 31
0.0
  0
LINE
  8
0
 10
0.19603785872459412
 20
-1.9903690814971924
 30
0.0
 11
0.24482505023479462
 21
-1.9849586486816406
 31
0.0
  0
LINE
  8
0
 10
0.24482505023479462
 20
-1.9849586486816406
 30
0.0
 11
0.2934647798538208
 21
-1.978352427482605
 31
0.0
  0
LINE
  8
0
 10
0.2934647798538208
 20
-1.978352427482605
 30
0.0
 11
0.34192773699760437
 21
-1.9705545902252197
 31
0.0
  0
LINE
  8
0
 10
0.34192773699760437
 20
-1.9705545902252197
 30
0.0
 11
0.3901847004890442
 21
-1.9615697860717773
 31
0.0
  0
LINE
  8
0
 10
0.3901847004890442
 20
-1.9615697860717773
 30
0.0
 11
0.43820667266845703
 21
-1.9514033794403076
 31
0.0
  0
LINE
  8
0
 10
0.43820667266845703
 20
-1.9514033794403076
 30
0.0
 11
0.48596465587615967
 21
-1.9400614500045776
 31
0.0
  0
LINE
  8
0
 10
0.48596465587615967
 20
-1.9400614500045776
 30
0.0
 11
0.5334299206733704
 21
-1.9275509119033813
 31
0.0
  0
LINE
  8
0
 10
0.5334299206733704
 20
-1.9275509119033813
 30
0.0
 11
0.5805738568305969
 21
-1.9138792753219604
 31
0.0
  0
LINE
  8
0
 10
0.5805738568305969
 20
-1.9138792753219604
 30
0.0
 11
0.6273680925369263
 21
-1.8990548849105835
 31
0.0
  0
LINE
  8
0
 10
0.6273680925369263
 20
-1.8990548849105835
 30
0.0
 11
0.6737843751907349
 21
-1.8830864429473877
 31
0.0
  0
LINE
  8
0
 10
0.6737843751907349
 20
-1.8830864429473877
 30
0.0
 11
0.7197948694229126
 21
-1.8659837245941162
 31
0.0
  0
LINE
  8
0
 10
0.7197948694229126
 20
-1.8659837245941162
 30
0.0
 11
0.7653717398643494
 21
-1.84775710105896
 31
0.0
  0
LINE
  8
0
 10
0.7653717398643494
 20
-1.84775710105896
 30
0.0
 11
0.8104875683784485
 21
-1.8284173011779785
 31
0.0
  0
LINE
  8
0
 10
0.8104875683784485
 20
-1.8284173011779785
 30
0.0
 11
0.8551151752471924
 21
-1.807976245880127
 31
0.0
  0
LINE
  8
0
 10
0.8551151752471924
 20
-1.807976245880127
 30
0.0
 11
0.8992277383804321
 21
-1.7864460945129395
 31
0.0
  0
LINE
  8
0
 10
0.8992277383804321
 20
-1.7864460945129395
 30
0.0
 11
0.9427986145019531
 21
-1.763839840888977
 31
0.0
  0
LINE
  8
0
 10
0.9427986145019531
 20
-1.763839840888977
 30
0.0
 11
0.9858015775680542
 21
-1.7401710748672485
 31
0.0
  0
LINE
  8
0
 10
0.9858015775680542
 20
-1.7401710748672485
 30
0.0
 11
1.0282107591629028
 21
-1.7154541015625
 31
0.0
  0
LINE
  8
0
 10
1.0282107591629028
 20
-1.7154541015625
 30
0.0
 11
1.0700005292892456
 21
-1.6897038221359253
 31
0.0
  0
LINE
  8
0
 10
1.0700005292892456
 20
-1.6897038221359253
 30
0.0
 11
1.1111457347869873
 21
-1.662935733795166
 31
0.0
  0
LINE
  8
0
 10
1.1111457347869873
 20
-1.662935733795166
 30
0.0
 11
1.151621699333191
 21
-1.6351659297943115
 31
0.0
  0
LINE
  8
0
 10
1.151621699333191
 20
-1.6351659297943115
 30
0.0
 11
1.1914039850234985
 21
-1.606411099433899
 31
0.0
  0
LINE
  8
0
 10
1.1914039850234985
 20
-1.606411099433899
 30
0.0
 11
1.230468511581421
 21
-1.5766886472702026
 31
0.0
  0
LINE
  8
0
 10
1.230468511581421
 20
-1.5766886472702026
 30
0.0
 11
1.268791913986206
 21
-1.5460164546966553
 31
0.0
  0
LINE
  8
0
 10
1.268791913986206
 20
-1.5460164546966553
 30
0.0
 11
1.3063510656356812
 21
-1.5144131183624268
 31
0.0
  0
LINE
  8
0
 10
1.3063510656356812
 20
-1.5144131183624268
 30
0.0
 11
1.343123197555542
 21
-1.4818973541259766
 31
0.0
  0
LINE
  8
0
 10
1.343123197555542
 20
-1.4818973541259766
 30
0.0
 11
1.3790863752365112
 21
-1.4484890699386597
 31
0.0
  0
LINE
  8
0
 10
1.3790863752365112
 20
-1.4484890699386597
 30
0.0
 11
1.4142189025878906
 21
-1.4142082929611206
 31
0.0
  0
LINE
  8
0
 10
1.4142189025878906
 20
-1.4142082929611206
 30
0.0
 11
1.4484994411468506
 21
-1.379075527191162
 31
0.0
  0
LINE
  8
0
 10
1.4484994411468506
 20
-1.379075527191162
 30
0.0
 11
1.4819074869155884
 21
-1.3431121110916138
 31
0.0
  0
LINE
  8
0
 10
1.4819074869155884
 20
-1.3431121110916138
 30
0.0
 11
1.5144225358963013
 21
-1.3063400983810425
 31
0.0
  0
LINE
  8
0
 10
1.5144225358963013
 20
-1.3063400983810425
 30
0.0
 11
1.5460257530212402
 21
-1.2687807083129883
 31
0.0
  0
LINE
  8
0
 10
1.5460257530212402
 20
-1.2687807083129883
 30
0.0
 11
1.576697587966919
 21
-1.230457067489624
 31
0.0
  0
LINE
  8
0
 10
1.576697587966919
 20
-1.230457067489624
 30
0.0
 11
1.6064196825027466
 21
-1.1913923025131226
 31
0.0
  0
LINE
  8
0
 10
1.6064196825027466
 20
-1.1913923025131226
 30
0.0
 11
1.63517427444458
 21
-1.1516098976135254
 31
0.0
  0
LINE
  8
0
 10
1.63517427444458
 20
-1.1516098976135254
 30
0.0
 11
1.662943720817566
 21
-1.1111336946487427
 31
0.0
  0
LINE
  8
0
 10
1.662943720817566
 20
-1.1111336946487427
 30
0.0
 11
1.689711570739746
 21
-1.0699882507324219
 31
0.0
  0
LINE
  8
0
 10
1.689711570739746
 20
-1.0699882507324219
 30
0.0
 11
1.7154614925384521
 21
-1.0281982421875
 31
0.0
  0
LINE
  8
0
 10
1.7154614925384521
 20
-1.0281982421875
 30
0.0
 11
1.7401782274246216
 21
-0.9857889413833618
 31
0.0
  0
LINE
  8
0
 10
1.7401782274246216
 20
-0.9857889413833618
 30
0.0
 11
1.7638466358184814
 21
-0.9427857995033264
 31
0.0
  0
LINE
  8
0
 10
1.7638466358184814
 20
-0.9427857995033264
 30
0.0
 11
1.7864525318145752
 21
-0.8992148041725159
 31
0.0
  0
LINE
  8
0
 10
1.7864525318145752
 20
-0.8992148041725159
 30
0.0
 11
1.8079824447631836
 21
-0.8551020622253418
 31
0.0
  0
LINE
  8
0
 10
1.8079824447631836
 20
-0.8551020622253418
 30
0.0
 11
1.8284231424331665
 21
-0.8104743361473083
 31
0.0
  0
LINE
  8
0
 10
1.8284231424331665
 20
-0.8104743361473083
 30
0.0
 11
1.8477625846862793
 21
-0.7653583288192749
 31
0.0
  0
LINE
  8
0
 10
1.8477625846862793
 20
-0.7653583288192749
 30
0.0
 11
1.8659889698028564
 21
-0.7197813391685486
 31
0.0
  0
LINE
  8
0
 10
1.8659889698028564
 20
-0.7197813391685486
 30
0.0
 11
1.8830913305282593
 21
-0.6737707257270813
 31
0.0
  0
LINE
  8
0
 10
1.8830913305282593
 20
-0.6737707257270813
 30
0.0
 11
1.8990594148635864
 21
-0.6273543238639832
 31
0.0
  0
LINE
  8
0
 10
1.8990594148635864
 20
-0.6273543238639832
 30
0.0
 11
1.9138835668563843
 21
-0.5805599689483643
 31
0.0
  0
LINE
  8
0
 10
1.9138835668563843
 20
-0.5805599689483643
 30
0.0
 11
1.927554726600647
 21
-0.5334159135818481
 31
0.0
  0
LINE
  8
0
 10
1.927554726600647
 20
-0.5334159135818481
 30
0.0
 11
1.9400649070739746
 21
-0.4859505891799927
 31
0.0
  0
LINE
  8
0
 10
1.9400649070739746
 20
-0.4859505891799927
 30
0.0
 11
1.951406478881836
 21
-0.4381925165653229
 31
0.0
  0
LINE
  8
0
 10
1.951406478881836
 20
-0.4381925165653229
 30
0.0
 11
1.961572527885437
 21
-0.39017048478126526
 31
0.0
  0
LINE
  8
0
 10
1.961572527885437
 20
-0.39017048478126526
 30
0.0
 11
1.9705570936203003
 21
-0.3419134318828583
 31
0.0
  0
LINE
  8
0
 10
1.9705570936203003
 20
-0.3419134318828583
 30
0.0
 11
1.978354573249817
 21
-0.2934504449367523
 31
0.0
  0
LINE
  8
0
 10
1.978354573249817
 20
-0.2934504449367523
 30
0.0
 11
1.9849604368209839
 21
-0.24481065571308136
 31
0.0
  0
LINE
  8
0
 10
1.9849604368209839
 20
-0.24481065571308136
 30
0.0
 11
1.990370512008667
 21
-0.19602341949939728
 31
0.0
  0
LINE
  8
0
 10
1.990370512008667
 20
-0.19602341949939728
 30
0.0
 11
1.994581699371338
 21
-0.14711810648441315
 31
0.0
  0
LINE
  8
0
 10
1.994581699371338
 20
-0.14711810648441315
 30
0.0
 11
1.997591495513916
 21
-0.0981241762638092
 31
0.0
  0
LINE
  8
0
 10
1.997591495513916
 20
-0.0981241762638092
 30
0.0
 11
1.999397873878479
 21
-0.04907113313674927
 31
0.0
  0
LINE
  8
0
 10
1.999397873878479
 20
-0.04907113313674927
 30
0.0
 11
2.0
 21
1.1467941476439591e-05
 31
0.0
  0
LINE
  8
0
 10
2.0
 20
1.1467941476439591e-05
 30
0.0
 11
1.9993973970413208
 21
0.0490940622985363
 31
0.0
  0
LINE
  8
0
 10
1.9993973970413208
 20
0.0490940622985363
 30
0.0
 11
1.9975903034210205
 21
0.09814707934856415
 31
0.0
  0
LINE
  8
0
 10
1.9975903034210205
 20
0.09814707934856415
 30
0.0
 11
1.9945800304412842
 21
0.1471409797668457
 31
0.0
  0
LINE
  8
0
 10
1.9945800304412842
 20
0.1471409797668457
 30
0.0
 11
1.9903682470321655
 21
0.19604624807834625
 31
0.0
  0
LINE
  8
0
 10
1.9903682470321655
 20
0.19604624807834625
 30
0.0
 11
1.9849575757980347
 21
0.24483342468738556
 31
0.0
  0
LINE
  8
0
 10
1.9849575757980347
 20
0.24483342468738556
 30
0.0
 11
1.9783512353897095
 21
0.29347312450408936
 31
0.0
  0
LINE
  8
0
 10
1.9783512353897095
 20
0.29347312450408936
 30
0.0
 11
1.9705531597137451
 21
0.34193602204322815
 31
0.0
  0
LINE
  8
0
 10
1.9705531597137451
 20
0.34193602204322815
 30
0.0
 11
1.9615681171417236
 21
0.39019298553466797
 31
0.0
  0
LINE
  8
0
 10
1.9615681171417236
 20
0.39019298553466797
 30
0.0
 11
1.9514014720916748
 21
0.43821489810943604
 31
0.0
  0
LINE
  8
0
 10
1.9514014720916748
 20
0.43821489810943604
 30
0.0
 11
1.9400594234466553
 21
0.4859728217124939
 31
0.0
  0
LINE
  8
0
 10
1.9400594234466553
 20
0.4859728217124939
 30
0.0
 11
1.9275486469268799
 21
0.5334380269050598
 31
0.0
  0
LINE
  8
0
 10
1.9275486469268799
 20
0.5334380269050598
 30
0.0
 11
1.9138768911361694
 21
0.5805819034576416
 31
0.0
  0
LINE
  8
0
 10
1.9138768911361694
 20
0.5805819034576416
 30
0.0
 11
1.8990521430969238
 21
0.6273760795593262
 31
0.0
  0
LINE
  8
0
 10
1.8990521430969238
 20
0.6273760795593262
 30
0.0
 11
1.8830835819244385
 21
0.6737923622131348
 31
0.0
  0
LINE
  8
0
 10
1.8830835819244385
 20
0.6737923622131348
 30
0.0
 11
1.8659807443618774
 21
0.719802737236023
 31
0.0
  0
LINE
  8
0
 10
1.8659807443618774
 20
0.719802737236023
 30
0.0
 11
1.847753882408142
 21
0.7653794884681702
 31
0.0
  0
LINE
  8
0
 10
1.847753882408142
 20
0.7653794884681702
 30
0.0
 11
1.828413963317871
 21
0.8104952573776245
 31
0.0
  0
LINE
  8
0
 10
1.828413963317871
 20
0.8104952573776245
 30
0.0
 11
1.8079726696014404
 21
0.8551228046417236
 31
0.0
  0
LINE
  8
0
 10
1.8079726696014404
 20
0.8551228046417236
 30
0.0
 11
1.7864422798156738
 21
0.8992352485656738
 31
0.0
  0
LINE
  8
0
 10
1.7864422798156738
 20
0.8992352485656738
 30
0.0
 11
1.7638357877731323
 21
0.94280606508255
 31
0.0
  0
LINE
  8
0
 10
1.7638357877731323
 20
0.94280606508255
 30
0.0
 11
1.7401669025421143
 21
0.9858089089393616
 31
0.0
  0
LINE
  8
0
 10
1.7401669025421143
 20
0.9858089089393616
 30
0.0
 11
1.7154496908187866
 21
1.0282179117202759
 31
0.0
  0
LINE
  8
0
 10
1.7154496908187866
 20
1.0282179117202759
 30
0.0
 11
1.6896992921829224
 21
1.0700076818466187
 31
0.0
  0
LINE
  8
0
 10
1.6896992921829224
 20
1.0700076818466187
 30
0.0
 11
1.662930965423584
 21
1.1111527681350708
 31
0.0
  0
LINE
  8
0
 10
1.662930965423584
 20
1.1111527681350708
 30
0.0
 11
1.63516104221344
 21
1.1516286134719849
 31
0.0
  0
LINE
  8
0
 10
1.63516104221344
 20
1.1516286134719849
 30
0.0
 11
1.6064060926437378
 21
1.191410779953003
 31
0.0
  0
LINE
  8
0
 10
1.6064060926437378
 20
1.191410779953003
 30
0.0
 11
1.576683521270752
 21
1.2304751873016357
 31
0.0
  0
LINE
  8
0
 10
1.576683521270752
 20
1.2304751873016357
 30
0.0
 11
1.546011209487915
 21
1.2687984704971313
 31
0.0
  0
LINE
  8
0
 10
1.546011209487915
 20
1.2687984704971313
 30
0.0
 11
1.5144075155258179
 21
1.3063573837280273
 31
0.0
  0
LINE
  8
0
 10
1.5144075155258179
 20
1.3063573837280273
 30
0.0
 11
1.4818917512893677
 21
1.3431295156478882
 31
0.0
  0
LINE
  8
0
 10
1.4818917512893677
 20
1.3431295156478882
 30
0.0
 11
1.4484832286834717
 21
1.3790925741195679
 31
0.0
  0
LINE
  8
0
 10
1.4484832286834717
 20
1.3790925741195679
 30
0.0
 11
1.414202332496643
 21
1.4142248630523682
 31
0.0
  0
LINE
  8
0
 10
1.414202332496643
 20
1.4142248630523682
 30
0.0
 11
1.379069447517395
 21
1.4485052824020386
 31
0.0
  0
LINE
  8
0
 10
1.379069447517395
 20
1.4485052824020386
 30
0.0
 11
1.3431059122085571
 21
1.4819130897521973
 31
0.0
  0
LINE
  8
0
 10
1.3431059122085571
 20
1.4819130897521973
 30
0.0
 11
1.306333303451538
 21
1.5144283771514893
 31
0.0
  0
LINE
  8
0
 10
1.306333303451538
 20
1.5144283771514893
 30
0.0
 11
1.2687737941741943
 21
1.5460313558578491
 31
0.0
  0
LINE
  8
0
 10
1.2687737941741943
 20
1.5460313558578491
 30
0.0
 11
1.2304500341415405
 21
1.5767030715942383
 31
0.0
  0
LINE
  8
0
 10
1.2304500341415405
 20
1.5767030715942383
 30
0.0
 11
1.1913851499557495
 21
1.6064250469207764
 31
0.0
  0
LINE
  8
0
 10
1.1913851499557495
 20
1.6064250469207764
 30
0.0
 11
1.1516026258468628
 21
1.6351794004440308
 31
0.0
  0
LINE
  8
0
 10
1.1516026258468628
 20
1.6351794004440308
 30
0.0
 11
1.1111263036727905
 21
1.662948727607727
 31
0.0
  0
LINE
  8
0
 10
1.1111263036727905
 20
1.662948727607727
 30
0.0
 11
1.0699807405471802
 21
1.6897163391113281
 31
0.0
  0
LINE
  8
0
 10
1.0699807405471802
 20
1.6897163391113281
 30
0.0
 11
1.0281906127929688
 21
1.7154661417007446
 31
0.0
  0
LINE
  8
0
 10
1.0281906127929688
 20
1.7154661417007446
 30
0.0
 11
0.985781192779541
 21
1.740182638168335
 31
0.0
  0
LINE
  8
0
 10
0.985781192779541
 20
1.740182638168335
 30
0.0
 11
0.9427779316902161
 21
1.7638508081436157
 31
0.0
  0
LINE
  8
0
 10
0.9427779316902161
 20
1.7638508081436157
 30
0.0
 11
0.899206817150116
 21
1.78645658493042
 31
0.0
  0
LINE
  8
0
 10
0.899206817150116
 20
1.78645658493042
 30
0.0
 11
0.8550940155982971
 21
1.8079862594604492
 31
0.0
  0
LINE
  8
0
 10
0.8550940155982971
 20
1.8079862594604492
 30
0.0
 11
0.8104661703109741
 21
1.8284268379211426
 31
0.0
  0
LINE
  8
0
 10
0.8104661703109741
 20
1.8284268379211426
 30
0.0
 11
0.7653501033782959
 21
1.8477660417556763
 31
0.0
  0
LINE
  8
0
 10
0.7653501033782959
 20
1.8477660417556763
 30
0.0
 11
0.71977299451828
 21
1.8659921884536743
 31
0.0
  0
LINE
  8
0
 10
0.71977299451828
 20
1.8659921884536743
 30
0.0
 11
0.6737623810768127
 21
1.883094310760498
 31
0.0
  0
LINE
  8
0
 10
0.6737623810768127
 20
1.883094310760498
 30
0.0
 11
0.627345860004425
 21
1.899062156677246
 31
0.0
  0
LINE
  8
0
 10
0.627345860004425
 20
1.899062156677246
 30
0.0
 11
0.5805514454841614
 21
1.9138860702514648
 31
0.0
  0
LINE
  8
0
 10
0.5805514454841614
 20
1.9138860702514648
 30
0.0
 11
0.5334073305130005
 21
1.927557110786438
 31
0.0
  0
LINE
  8
0
 10
0.5334073305130005
 20
1.927557110786438
 30
0.0
 11
0.48594194650650024
 21
1.940067172050476
 31
0.0
  0
LINE
  8
0
 10
0.48594194650650024
 20
1.940067172050476
 30
0.0
 11
0.43818381428718567
 21
1.9514085054397583
 31
0.0
  0
LINE
  8
0
 10
0.43818381428718567
 20
1.9514085054397583
 30
0.0
 11
0.39016175270080566
 21
1.9615743160247803
 31
0.0
  0
LINE
  8
0
 10
0.39016175270080566
 20
1.9615743160247803
 30
0.0
 11
0.3419046700000763
 21
1.9705586433410645
 31
0.0
  0
LINE
  8
0
 10
0.3419046700000763
 20
1.9705586433410645
 30
0.0
 11
0.29344162344932556
 21
1.978355884552002
 31
0.0
  0
LINE
  8
0
 10
0.29344162344932556
 20
1.978355884552002
 30
0.0
 11
0.2448018193244934
 21
1.9849615097045898
 31
0.0
  0
LINE
  8
0
 10
0.2448018193244934
 20
1.9849615097045898
 30
0.0
 11
0.19601455330848694
 21
1.9903713464736938
 31
0.0
  0
LINE
  8
0
 10
0.19601455330848694
 20
1.9903713464736938
 30
0.0
 11
0.1471092253923416
 21
1.9945824146270752
 31
0.0
  0
LINE
  8
0
 10
0.1471092253923416
 20
1.9945824146270752
 30
0.0
 11
0.09811527281999588
 21
1.9975918531417847
 31
0.0
  0
LINE
  8
0
 10
0.09811527281999588
 20
1.9975918531417847
 30
0.0
 11
0.049062225967645645
 21
1.999398112297058
 31
0.0
  0
LINE
  8
0
 10
0.0
 20
2.0
 30
0.0
 11
0.049062225967645645
 21
1.999398112297058
 31
0.0
  0
LINE
  8
0
 10
0.0
 20
98.0
 30
0.0
 11
-2.4050405025482178
 21
97.9704818725586
 31
0.0
  0
LINE
  8
0
 10
-2.4050405025482178
 20
97.9704818725586
 30
0.0
 11
-4.8086323738098145
 21
97.88195037841797
 31
0.0
  0
LINE
  8
0
 10
-4.8086323738098145
 20
97.88195037841797
 30
0.0
 11
-7.209327697753906
 21
97.73445892333984
 31
0.0
  0
LINE
  8
0
 10
-7.209327697753906
 20
97.73445892333984
 30
0.0
 11
-9.605679512023926
 21
97.5280990600586
 31
0.0
  0
LINE
  8
0
 10
-9.605679512023926
 20
97.5280990600586
 30
0.0
 11
-11.996246337890625
 21
97.26300048828125
 31
0.0
  0
LINE
  8
0
 10
-11.996246337890625
 20
97.26300048828125
 30
0.0
 11
-14.379586219787598
 21
96.93930053710938
 31
0.0
  0
LINE
  8
0
 10
-14.379586219787598
 20
96.93930053710938
 30
0.0
 11
-16.75426483154297
 21
96.55721282958984
 31
0.0
  0
LINE
  8
0
 10
-16.75426483154297
 20
96.55721282958984
 30
0.0
 11
-19.118850708007812
 21
96.11695861816406
 31
0.0
  0
LINE
  8
0
 10
-19.118850708007812
 20
96.11695861816406
 30
0.0
 11
-21.471920013427734
 21
95.61880493164062
 31
0.0
  0
LINE
  8
0
 10
-21.471920013427734
 20
95.61880493164062
 30
0.0
 11
-23.812055587768555
 21
95.06306457519531
 31
0.0
  0
LINE
  8
0
 10
-23.812055587768555
 20
95.06306457519531
 30
0.0
 11
-26.137849807739258
 21
94.4500503540039
 31
0.0
  0
LINE
  8
0
 10
-26.137849807739258
 20
94.4500503540039
 30
0.0
 11
-28.44789695739746
 21
93.7801513671875
 31
0.0
  0
LINE
  8
0
 10
-28.44789695739746
 20
93.7801513671875
 30
0.0
 11
-30.740812301635742
 21
93.05375671386719
 31
0.0
  0
LINE
  8
0
 10
-30.740812301635742
 20
93.05375671386719
 30
0.0
 11
-33.01520538330078
 21
92.27131652832031
 31
0.0
  0
LINE
  8
0
 10
-33.01520538330078
 20
92.27131652832031
 30
0.0
 11
-35.26971435546875
 21
91.43329620361328
 31
0.0
  0
LINE
  8
0
 10
-35.26971435546875
 20
91.43329620361328
 30
0.0
 11
-37.50297927856445
 21
90.54019165039062
 31
0.0
  0
LINE
  8
0
 10
-37.50297927856445
 20
90.54019165039062
 30
0.0
 11
-39.713653564453125
 21
89.5925521850586
 31
0.0
  0
LINE
  8
0
 10
-39.713653564453125
 20
89.5925521850586
 30
0.0
 11
-41.90040588378906
 21
88.59095001220703
 31
0.0
  0
LINE
  8
0
 10
-41.90040588378906
 20
88.59095001220703
 30
0.0
 11
-44.06191635131836
 21
87.53598022460938
 31
0.0
  0
LINE
  8
0
 10
-44.06191635131836
 20
87.53598022460938
 30
0.0
 11
-46.1968879699707
 21
86.42828369140625
 31
0.0
  0
LINE
  8
0
 10
-46.1968879699707
 20
86.42828369140625
 30
0.0
 11
-48.30403137207031
 21
85.26852416992188
 31
0.0
  0
LINE
  8
0
 10
-48.30403137207031
 20
85.26852416992188
 30
0.0
 11
-50.382076263427734
 21
84.0573959350586
 31
0.0
  0
LINE
  8
0
 10
-50.382076263427734
 20
84.0573959350586
 30
0.0
 11
-52.42977523803711
 21
82.79564666748047
 31
0.0
  0
LINE
  8
0
 10
-52.42977523803711
 20
82.79564666748047
 30
0.0
 11
-54.44588851928711
 21
81.48401641845703
 31
0.0
  0
LINE
  8
0
 10
-54.44588851928711
 20
81.48401641845703
 30
0.0
 11
-56.4292106628418
 21
80.12330627441406
 31
0.0
  0
LINE
  8
0
 10
-56.4292106628418
 20
80.12330627441406
 30
0.0
 11
-58.378543853759766
 21
78.7143325805664
 31
0.0
  0
LINE
  8
0
 10
-58.378543853759766
 20
78.7143325805664
 30
0.0
 11
-60.29270553588867
 21
77.25794219970703
 31
0.0
  0
LINE
  8
0
 10
-60.29270553588867
 20
77.25794219970703
 30
0.0
 11
-62.17055130004883
 21
75.75502014160156
 31
0.0
  0
LINE
  8
0
 10
-62.17055130004883
 20
75.75502014160156
 30
0.0
 11
-64.01094818115234
 21
74.20645904541016
 31
0.0
  0
LINE
  8
0
 10
-64.01094818115234
 20
74.20645904541016
 30
0.0
 11
-65.81278991699219
 21
72.61319732666016
 31
0.0
  0
LINE
  8
0
 10
-65.81278991699219
 20
72.61319732666016
 30
0.0
 11
-67.57498931884766
 21
70.97620391845703
 31
0.0
  0
LINE
  8
0
 10
-67.57498931884766
 20
70.97620391845703
 30
0.0
 11
-69.29647827148438
 21
69.29645538330078
 31
0.0
  0
LINE
  8
0
 10
-69.29647827148438
 20
69.29645538330078
 30
0.0
 11
-70.97622680664062
 21
67.57495880126953
 31
0.0
  0
LINE
  8
0
 10
-70.97622680664062
 20
67.57495880126953
 30
0.0
 11
-72.61322784423828
 21
65.81275939941406
 31
0.0
  0
LINE
  8
0
 10
-72.61322784423828
 20
65.81275939941406
 30
0.0
 11
-74.20648193359375
 21
64.01092529296875
 31
0.0
  0
LINE
  8
0
 10
-74.20648193359375
 20
64.01092529296875
 30
0.0
 11
-75.75504302978516
 21
62.17052459716797
 31
0.0
  0
LINE
  8
0
 10
-75.75504302978516
 20
62.17052459716797
 30
0.0
 11
-77.25796508789062
 21
60.29267501831055
 31
0.0
  0
LINE
  8
0
 10
-77.25796508789062
 20
60.29267501831055
 30
0.0
 11
-78.71435546875
 21
58.378509521484375
 31
0.0
  0
LINE
  8
0
 10
-78.71435546875
 20
58.378509521484375
 30
0.0
 11
-80.12332916259766
 21
56.42918395996094
 31
0.0
  0
LINE
  8
0
 10
-80.12332916259766
 20
56.42918395996094
 30
0.0
 11
-81.48403930664062
 21
54.44586181640625
 31
0.0
  0
LINE
  8
0
 10
-81.48403930664062
 20
54.44586181640625
 30
0.0
 11
-82.79566192626953
 21
52.429744720458984
 31
0.0
  0
LINE
  8
0
 10
-82.79566192626953
 20
52.429744720458984
 30
0.0
 11
-84.05741119384766
 21
50.38205337524414
 31
0.0
  0
LINE
  8
0
 10
-84.05741119384766
 20
50.38205337524414
 30
0.0
 11
-85.2685317993164
 21
48.304012298583984
 31
0.0
  0
LINE
  8
0
 10
-85.2685317993164
 20
48.304012298583984
 30
0.0
 11
-86.42828369140625
 21
46.19687271118164
 31
0.0
  0
LINE
  8
0
 10
-86.42828369140625
 20
46.19687271118164
 30
0.0
 11
-87.53598022460938
 21
44.06190872192383
 31
0.0
  0
LINE
  8
0
 10
-87.53598022460938
 20
44.06190872192383
 30
0.0
 11
-88.59095001220703
 21
41.9004020690918
 31
0.0
  0
LINE
  8
0
 10
-88.59095001220703
 20
41.9004020690918
 30
0.0
 11
-89.5925521850586
 21
39.713653564453125
 31
0.0
  0
LINE
  8
0
 10
-89.5925521850586
 20
39.713653564453125
 30
0.0
 11
-90.54019165039062
 21
37.502986907958984
 31
0.0
  0
LINE
  8
0
 10
-90.54019165039062
 20
37.502986907958984
 30
0.0
 11
-91.43328857421875
 21
35.26972961425781
 31
0.0
  0
LINE
  8
0
 10
-91.43328857421875
 20
35.26972961425781
 30
0.0
 11
-92.27130889892578
 21
33.01522445678711
 31
0.0
  0
LINE
  8
0
 10
-92.27130889892578
 20
33.01522445678711
 30
0.0
 11
-93.05375671386719
 21
30.740835189819336
 31
0.0
  0
LINE
  8
0
 10
-93.05375671386719
 20
30.740835189819336
 30
0.0
 11
-93.78014373779297
 21
28.44792938232422
 31
0.0
  0
LINE
  8
0
 10
-93.78014373779297
 20
28.44792938232422
 30
0.0
 11
-94.4500503540039
 21
26.13788414001465
 31
0.0
  0
LINE
  8
0
 10
-94.4500503540039
 20
26.13788414001465
 30
0.0
 11
-95.06304931640625
 21
23.812097549438477
 31
0.0
  0
LINE
  8
0
 10
-95.06304931640625
 20
23.812097549438477
 30
0.0
 11
-95.6187973022461
 21
21.471965789794922
 31
0.0
  0
LINE
  8
0
 10
-95.6187973022461
 20
21.471965789794922
 30
0.0
 11
-96.11695098876953
 21
19.1189022064209
 31
0.0
  0
LINE
  8
0
 10
-96.11695098876953
 20
19.1189022064209
 30
0.0
 11
-96.55719757080078
 21
16.754318237304688
 31
0.0
  0
LINE
  8
0
 10
-96.55719757080078
 20
16.754318237304688
 30
0.0
 11
-96.93928527832031
 21
14.379645347595215
 31
0.0
  0
LINE
  8
0
 10
-96.93928527832031
 20
14.379645347595215
 30
0.0
 11
-97.26298522949219
 21
11.996310234069824
 31
0.0
  0
LINE
  8
0
 10
-97.26298522949219
 20
11.996310234069824
 30
0.0
 11
-97.5280990600586
 21
9.605749130249023
 31
0.0
  0
LINE
  8
0
 10
-97.5280990600586
 20
9.605749130249023
 30
0.0
 11
-97.73445892333984
 21
7.2094011306762695
 31
0.0
  0
LINE
  8
0
 10
-97.73445892333984
 20
7.2094011306762695
 30
0.0
 11
-97.88195037841797
 21
4.808711528778076
 31
0.0
  0
LINE
  8
0
 10
-97.88195037841797
 20
4.808711528778076
 30
0.0
 11
-97.9704818725586
 21
2.4051246643066406
 31
0.0
  0
LINE
  8
0
 10
-97.9704818725586
 20
2.4051246643066406
 30
0.0
 11
-98.0
 21
8.917636296246201e-05
 31
0.0
  0
LINE
  8
0
 10
-98.0
 20
8.917636296246201e-05
 30
0.0
 11
-97.9704818725586
 21
-2.4049463272094727
 31
0.0
  0
LINE
  8
0
 10
-97.9704818725586
 20
-2.4049463272094727
 30
0.0
 11
-97.8819580078125
 21
-4.808533191680908
 31
0.0
  0
LINE
  8
0
 10
-97.8819580078125
 20
-4.808533191680908
 30
0.0
 11
-97.7344741821289
 21
-7.209223747253418
 31
0.0
  0
LINE
  8
0
 10
-97.7344741821289
 20
-7.209223747253418
 30
0.0
 11
-97.52811431884766
 21
-9.605571746826172
 31
0.0
  0
LINE
  8
0
 10
-97.52811431884766
 20
-9.605571746826172
 30
0.0
 11
-97.26300811767578
 21
-11.996132850646973
 31
0.0
  0
LINE
  8
0
 10
-97.26300811767578
 20
-11.996132850646973
 30
0.0
 11
-96.93931579589844
 21
-14.37946891784668
 31
0.0
  0
LINE
  8
0
 10
-96.93931579589844
 20
-14.37946891784668
 30
0.0
 11
-96.5572280883789
 21
-16.75414276123047
 31
0.0
  0
LINE
  8
0
 10
-96.5572280883789
 20
-16.75414276123047
 30
0.0
 11
-96.11698150634766
 21
-19.11872673034668
 31
0.0
  0
LINE
  8
0
 10
-96.11698150634766
 20
-19.11872673034668
 30
0.0
 11
-95.61883544921875
 21
-21.471792221069336
 31
0.0
  0
LINE
  8
0
 10
-95.61883544921875
 20
-21.471792221069336
 30
0.0
 11
-95.06309509277344
 21
-23.81192398071289
 31
0.0
  0
LINE
  8
0
 10
-95.06309509277344
 20
-23.81192398071289
 30
0.0
 11
-94.4500961303711
 21
-26.137712478637695
 31
0.0
  0
LINE
  8
0
 10
-94.4500961303711
 20
-26.137712478637695
 30
0.0
 11
-93.78019714355469
 21
-28.447757720947266
 31
0.0
  0
LINE
  8
0
 10
-93.78019714355469
 20
-28.447757720947266
 30
0.0
 11
-93.0538101196289
 21
-30.740665435791016
 31
0.0
  0
LINE
  8
0
 10
-93.0538101196289
 20
-30.740665435791016
 30
0.0
 11
-92.27136993408203
 21
-33.01505661010742
 31
0.0
  0
LINE
  8
0
 10
-92.27136993408203
 20
-33.01505661010742
 30
0.0
 11
-91.43335723876953
 21
-35.269561767578125
 31
0.0
  0
LINE
  8
0
 10
-91.43335723876953
 20
-35.269561767578125
 30
0.0
 11
-90.54025268554688
 21
-37.50282287597656
 31
0.0
  0
LINE
  8
0
 10
-90.54025268554688
 20
-37.50282287597656
 30
0.0
 11
-89.59262084960938
 21
-39.7134895324707
 31
0.0
  0
LINE
  8
0
 10
-89.59262084960938
 20
-39.7134895324707
 30
0.0
 11
-88.59102630615234
 21
-41.90024948120117
 31
0.0
  0
LINE
  8
0
 10
-88.59102630615234
 20
-41.90024948120117
 30
0.0
 11
-87.53604888916016
 21
-44.061767578125
 31
0.0
  0
LINE
  8
0
 10
-87.53604888916016
 20
-44.061767578125
 30
0.0
 11
-86.42835998535156
 21
-46.196746826171875
 31
0.0
  0
LINE
  8
0
 10
-86.42835998535156
 20
-46.196746826171875
 30
0.0
 11
-85.26860046386719
 21
-48.303897857666016
 31
0.0
  0
LINE
  8
0
 10
-85.26860046386719
 20
-48.303897857666016
 30
0.0
 11
-84.0574722290039
 21
-50.381954193115234
 31
0.0
  0
LINE
  8
0
 10
-84.0574722290039
 20
-50.381954193115234
 30
0.0
 11
-82.79572296142578
 21
-52.429656982421875
 31
0.0
  0
LINE
  8
0
 10
-82.79572296142578
 20
-52.429656982421875
 30
0.0
 11
-81.48409271240234
 21
-54.445777893066406
 31
0.0
  0
LINE
  8
0
 10
-81.48409271240234
 20
-54.445777893066406
 30
0.0
 11
-80.12338256835938
 21
-56.429107666015625
 31
0.0
  0
LINE
  8
0
 10
-80.12338256835938
 20
-56.429107666015625
 30
0.0
 11
-78.71440887451172
 21
-58.37844467163086
 31
0.0
  0
LINE
  8
0
 10
-78.71440887451172
 20
-58.37844467163086
 30
0.0
 11
-77.25801086425781
 21
-60.2926139831543
 31
0.0
  0
LINE
  8
0
 10
-77.25801086425781
 20
-60.2926139831543
 30
0.0
 11
-75.75508880615234
 21
-62.17046356201172
 31
0.0
  0
LINE
  8
0
 10
-75.75508880615234
 20
-62.17046356201172
 30
0.0
 11
-74.2065200805664
 21
-64.01087188720703
 31
0.0
  0
LINE
  8
0
 10
-74.2065200805664
 20
-64.01087188720703
 30
0.0
 11
-72.61326599121094
 21
-65.81271362304688
 31
0.0
  0
LINE
  8
0
 10
-72.61326599121094
 20
-65.81271362304688
 30
0.0
 11
-70.97626495361328
 21
-67.57492065429688
 31
0.0
  0
LINE
  8
0
 10
-70.97626495361328
 20
-67.57492065429688
 30
0.0
 11
-69.29651641845703
 21
-69.29641723632812
 31
0.0
  0
LINE
  8
0
 10
-69.29651641845703
 20
-69.29641723632812
 30
0.0
 11
-67.57501983642578
 21
-70.97616577148438
 31
0.0
  0
LINE
  8
0
 10
-67.57501983642578
 20
-70.97616577148438
 30
0.0
 11
-65.81282043457031
 21
-72.61317443847656
 31
0.0
  0
LINE
  8
0
 10
-65.81282043457031
 20
-72.61317443847656
 30
0.0
 11
-64.01097106933594
 21
-74.20643615722656
 31
0.0
  0
LINE
  8
0
 10
-64.01097106933594
 20
-74.20643615722656
 30
0.0
 11
-62.17057418823242
 21
-75.75499725341797
 31
0.0
  0
LINE
  8
0
 10
-62.17057418823242
 20
-75.75499725341797
 30
0.0
 11
-60.292724609375
 21
-77.25792694091797
 31
0.0
  0
LINE
  8
0
 10
-60.292724609375
 20
-77.25792694091797
 30
0.0
 11
-58.37855529785156
 21
-78.71431732177734
 31
0.0
  0
LINE
  8
0
 10
-58.37855529785156
 20
-78.71431732177734
 30
0.0
 11
-56.42921829223633
 21
-80.12329864501953
 31
0.0
  0
LINE
  8
0
 10
-56.42921829223633
 20
-80.12329864501953
 30
0.0
 11
-54.44589614868164
 21
-81.48401641845703
 31
0.0
  0
LINE
  8
0
 10
-54.44589614868164
 20
-81.48401641845703
 30
0.0
 11
-52.42977523803711
 21
-82.79564666748047
 31
0.0
  0
LINE
  8
0
 10
-52.42977523803711
 20
-82.79564666748047
 30
0.0
 11
-50.3820686340332
 21
-84.05740356445312
 31
0.0
  0
LINE
  8
0
 10
-50.3820686340332
 20
-84.05740356445312
 30
0.0
 11
-48.30401611328125
 21
-85.2685317993164
 31
0.0
  0
LINE
  8
0
 10
-48.30401611328125
 20
-85.2685317993164
 30
0.0
 11
-46.196868896484375
 21
-86.42829132080078
 31
0.0
  0
LINE
  8
0
 10
-46.196868896484375
 20
-86.42829132080078
 30
0.0
 11
-44.061893463134766
 21
-87.53599548339844
 31
0.0
  0
LINE
  8
0
 10
-44.061893463134766
 20
-87.53599548339844
 30
0.0
 11
-41.90037536621094
 21
-88.5909652709961
 31
0.0
  0
LINE
  8
0
 10
-41.90037536621094
 20
-88.5909652709961
 30
0.0
 11
-39.713619232177734
 21
-89.59256744384766
 31
0.0
  0
LINE
  8
0
 10
-39.713619232177734
 20
-89.59256744384766
 30
0.0
 11
-37.5029411315918
 21
-90.54020690917969
 31
0.0
  0
LINE
  8
0
 10
-37.5029411315918
 20
-90.54020690917969
 30
0.0
 11
-35.26967239379883
 21
-91.43331146240234
 31
0.0
  0
LINE
  8
0
 10
-35.26967239379883
 20
-91.43331146240234
 30
0.0
 11
-33.01515579223633
 21
-92.27133178710938
 31
0.0
  0
LINE
  8
0
 10
-33.01515579223633
 20
-92.27133178710938
 30
0.0
 11
-30.740753173828125
 21
-93.05377960205078
 31
0.0
  0
LINE
  8
0
 10
-30.740753173828125
 20
-93.05377960205078
 30
0.0
 11
-28.44783592224121
 21
-93.7801742553711
 31
0.0
  0
LINE
  8
0
 10
-28.44783592224121
 20
-93.7801742553711
 30
0.0
 11
-26.137779235839844
 21
-94.4500732421875
 31
0.0
  0
LINE
  8
0
 10
-26.137779235839844
 20
-94.4500732421875
 30
0.0
 11
-23.811979293823242
 21
-95.06307983398438
 31
0.0
  0
LINE
  8
0
 10
-23.811979293823242
 20
-95.06307983398438
 30
0.0
 11
-21.47183609008789
 21
-95.61882781982422
 31
0.0
  0
LINE
  8
0
 10
-21.47183609008789
 20
-95.61882781982422
 30
0.0
 11
-19.118759155273438
 21
-96.11698150634766
 31
0.0
  0
LINE
  8
0
 10
-19.118759155273438
 20
-96.11698150634766
 30
0.0
 11
-16.754165649414062
 21
-96.5572280883789
 31
0.0
  0
LINE
  8
0
 10
-16.754165649414062
 20
-96.5572280883789
 30
0.0
 11
-14.37947940826416
 21
-96.93931579589844
 31
0.0
  0
LINE
  8
0
 10
-14.37947940826416
 20
-96.93931579589844
 30
0.0
 11
-11.996132850646973
 21
-97.26300811767578
 31
0.0
  0
LINE
  8
0
 10
-11.996132850646973
 20
-97.26300811767578
 30
0.0
 11
-9.605558395385742
 21
-97.52811431884766
 31
0.0
  0
LINE
  8
0
 10
-9.605558395385742
 20
-97.52811431884766
 30
0.0
 11
-7.209198951721191
 21
-97.7344741821289
 31
0.0
  0
LINE
  8
0
 10
-7.209198951721191
 20
-97.7344741821289
 30
0.0
 11
-4.808496952056885
 21
-97.8819580078125
 31
0.0
  0
LINE
  8
0
 10
-4.808496952056885
 20
-97.8819580078125
 30
0.0
 11
-2.4048984050750732
 21
-97.97048950195312
 31
0.0
  0
LINE
  8
0
 10
-2.4048984050750732
 20
-97.97048950195312
 30
0.0
 11
0.00014875756460241973
 21
-98.0
 31
0.0
  0
LINE
  8
0
 10
0.00014875756460241973
 20
-98.0
 30
0.0
 11
2.405195951461792
 21
-97.9704818725586
 31
0.0
  0
LINE
  8
0
 10
2.405195951461792
 20
-97.9704818725586
 30
0.0
 11
4.8087944984436035
 21
-97.88195037841797
 31
0.0
  0
LINE
  8
0
 10
4.8087944984436035
 20
-97.88195037841797
 30
0.0
 11
7.209496021270752
 21
-97.73445129394531
 31
0.0
  0
LINE
  8
0
 10
7.209496021270752
 20
-97.73445129394531
 30
0.0
 11
9.605854988098145
 21
-97.52808380126953
 31
0.0
  0
LINE
  8
0
 10
9.605854988098145
 20
-97.52808380126953
 30
0.0
 11
11.996427536010742
 21
-97.26296997070312
 31
0.0
  0
LINE
  8
0
 10
11.996427536010742
 20
-97.26296997070312
 30
0.0
 11
14.37977409362793
 21
-96.93927001953125
 31
0.0
  0
LINE
  8
0
 10
14.37977409362793
 20
-96.93927001953125
 30
0.0
 11
16.754459381103516
 21
-96.55717468261719
 31
0.0
  0
LINE
  8
0
 10
16.754459381103516
 20
-96.55717468261719
 30
0.0
 11
19.119050979614258
 21
-96.1169204711914
 31
0.0
  0
LINE
  8
0
 10
19.119050979614258
 20
-96.1169204711914
 30
0.0
 11
21.472126007080078
 21
-95.61876678466797
 31
0.0
  0
LINE
  8
0
 10
21.472126007080078
 20
-95.61876678466797
 30
0.0
 11
23.812267303466797
 21
-95.0630111694336
 31
0.0
  0
LINE
  8
0
 10
23.812267303466797
 20
-95.0630111694336
 30
0.0
 11
26.138065338134766
 21
-94.44999694824219
 31
0.0
  0
LINE
  8
0
 10
26.138065338134766
 20
-94.44999694824219
 30
0.0
 11
28.448118209838867
 21
-93.78008270263672
 31
0.0
  0
LINE
  8
0
 10
28.448118209838867
 20
-93.78008270263672
 30
0.0
 11
30.741037368774414
 21
-93.0536880493164
 31
0.0
  0
LINE
  8
0
 10
30.741037368774414
 20
-93.0536880493164
 30
0.0
 11
33.01543426513672
 21
-92.27123260498047
 31
0.0
  0
LINE
  8
0
 10
33.01543426513672
 20
-92.27123260498047
 30
0.0
 11
35.26994705200195
 21
-91.4332046508789
 31
0.0
  0
LINE
  8
0
 10
35.26994705200195
 20
-91.4332046508789
 30
0.0
 11
37.50321578979492
 21
-90.54010009765625
 31
0.0
  0
LINE
  8
0
 10
37.50321578979492
 20
-90.54010009765625
 30
0.0
 11
39.713890075683594
 21
-89.59244537353516
 31
0.0
  0
LINE
  8
0
 10
39.713890075683594
 20
-89.59244537353516
 30
0.0
 11
41.90064239501953
 21
-88.59083557128906
 31
0.0
  0
LINE
  8
0
 10
41.90064239501953
 20
-88.59083557128906
 30
0.0
 11
44.06216049194336
 21
-87.53585815429688
 31
0.0
  0
LINE
  8
0
 10
44.06216049194336
 20
-87.53585815429688
 30
0.0
 11
46.1971321105957
 21
-86.42815399169922
 31
0.0
  0
LINE
  8
0
 10
46.1971321105957
 20
-86.42815399169922
 30
0.0
 11
48.30427551269531
 21
-85.26837921142578
 31
0.0
  0
LINE
  8
0
 10
48.30427551269531
 20
-85.26837921142578
 30
0.0
 11
50.382328033447266
 21
-84.0572509765625
 31
0.0
  0
LINE
  8
0
 10
50.382328033447266
 20
-84.0572509765625
 30
0.0
 11
52.43002700805664
 21
-82.79548645019531
 31
0.0
  0
LINE
  8
0
 10
52.43002700805664
 20
-82.79548645019531
 30
0.0
 11
54.44614028930664
 21
-81.48384857177734
 31
0.0
  0
LINE
  8
0
 10
54.44614028930664
 20
-81.48384857177734
 30
0.0
 11
56.42946243286133
 21
-80.12313079833984
 31
0.0
  0
LINE
  8
0
 10
56.42946243286133
 20
-80.12313079833984
 30
0.0
 11
58.3787956237793
 21
-78.71414184570312
 31
0.0
  0
LINE
  8
0
 10
58.3787956237793
 20
-78.71414184570312
 30
0.0
 11
60.2929573059082
 21
-77.25774383544922
 31
0.0
  0
LINE
  8
0
 10
60.2929573059082
 20
-77.25774383544922
 30
0.0
 11
62.17080307006836
 21
-75.75480651855469
 31
0.0
  0
LINE
  8
0
 10
62.17080307006836
 20
-75.75480651855469
 30
0.0
 11
64.01119995117188
 21
-74.20624542236328
 31
0.0
  0
LINE
  8
0
 10
64.01119995117188
 20
-74.20624542236328
 30
0.0
 11
65.81303405761719
 21
-72.61296844482422
 31
0.0
  0
LINE
  8
0
 10
65.81303405761719
 20
-72.61296844482422
 30
0.0
 11
67.57523345947266
 21
-70.97596740722656
 31
0.0
  0
LINE
  8
0
 10
67.57523345947266
 20
-70.97596740722656
 30
0.0
 11
69.29672241210938
 21
-69.29620361328125
 31
0.0
  0
LINE
  8
0
 10
69.29672241210938
 20
-69.29620361328125
 30
0.0
 11
70.97647094726562
 21
-67.57469940185547
 31
0.0
  0
LINE
  8
0
 10
70.97647094726562
 20
-67.57469940185547
 30
0.0
 11
72.61346435546875
 21
-65.81249237060547
 31
0.0
  0
LINE
  8
0
 10
72.61346435546875
 20
-65.81249237060547
 30
0.0
 11
74.20670318603516
 21
-64.01066589355469
 31
0.0
  0
LINE
  8
0
 10
74.20670318603516
 20
-64.01066589355469
 30
0.0
 11
75.75526428222656
 21
-62.17025375366211
 31
0.0
  0
LINE
  8
0
 10
75.75526428222656
 20
-62.17025375366211
 30
0.0
 11
77.2581787109375
 21
-60.292396545410156
 31
0.0
  0
LINE
  8
0
 10
77.2581787109375
 20
-60.292396545410156
 30
0.0
 11
78.71456146240234
 21
-58.37822341918945
 31
0.0
  0
LINE
  8
0
 10
78.71456146240234
 20
-58.37822341918945
 30
0.0
 11
80.12354278564453
 21
-56.42888641357422
 31
0.0
  0
LINE
  8
0
 10
80.12354278564453
 20
-56.42888641357422
 30
0.0
 11
81.48424530029297
 21
-54.445552825927734
 31
0.0
  0
LINE
  8
0
 10
81.48424530029297
 20
-54.445552825927734
 30
0.0
 11
82.79586791992188
 21
-52.42942428588867
 31
0.0
  0
LINE
  8
0
 10
82.79586791992188
 20
-52.42942428588867
 30
0.0
 11
84.05760955810547
 21
-50.3817138671875
 31
0.0
  0
LINE
  8
0
 10
84.05760955810547
 20
-50.3817138671875
 30
0.0
 11
85.26873016357422
 21
-48.30365753173828
 31
0.0
  0
LINE
  8
0
 10
85.26873016357422
 20
-48.30365753173828
 30
0.0
 11
86.42848205566406
 21
-46.196502685546875
 31
0.0
  0
LINE
  8
0
 10
86.42848205566406
 20
-46.196502685546875
 30
0.0
 11
87.53617095947266
 21
-44.061527252197266
 31
0.0
  0
LINE
  8
0
 10
87.53617095947266
 20
-44.061527252197266
 30
0.0
 11
88.59114074707031
 21
-41.900001525878906
 31
0.0
  0
LINE
  8
0
 10
88.59114074707031
 20
-41.900001525878906
 30
0.0
 11
89.59273529052734
 21
-39.71324157714844
 31
0.0
  0
LINE
  8
0
 10
89.59273529052734
 20
-39.71324157714844
 30
0.0
 11
90.54036712646484
 21
-37.502559661865234
 31
0.0
  0
LINE
  8
0
 10
90.54036712646484
 20
-37.502559661865234
 30
0.0
 11
91.43345642089844
 21
-35.269287109375
 31
0.0
  0
LINE
  8
0
 10
91.43345642089844
 20
-35.269287109375
 30
0.0
 11
92.27147674560547
 21
-33.014766693115234
 31
0.0
  0
LINE
  8
0
 10
92.27147674560547
 20
-33.014766693115234
 30
0.0
 11
93.05390930175781
 21
-30.7403621673584
 31
0.0
  0
LINE
  8
0
 10
93.05390930175781
 20
-30.7403621673584
 30
0.0
 11
93.7802963256836
 21
-28.447439193725586
 31
0.0
  0
LINE
  8
0
 10
93.7802963256836
 20
-28.447439193725586
 30
0.0
 11
94.45018005371094
 21
-26.137380599975586
 31
0.0
  0
LINE
  8
0
 10
94.45018005371094
 20
-26.137380599975586
 30
0.0
 11
95.06317901611328
 21
-23.81157875061035
 31
0.0
  0
LINE
  8
0
 10
95.06317901611328
 20
-23.81157875061035
 30
0.0
 11
95.6189193725586
 21
-21.471433639526367
 31
0.0
  0
LINE
  8
0
 10
95.6189193725586
 20
-21.471433639526367
 30
0.0
 11
96.11705017089844
 21
-19.11835289001465
 31
0.0
  0
LINE
  8
0
 10
96.11705017089844
 20
-19.11835289001465
 30
0.0
 11
96.55729675292969
 21
-16.75375747680664
 31
0.0
  0
LINE
  8
0
 10
96.55729675292969
 20
-16.75375747680664
 30
0.0
 11
96.93937683105469
 21
-14.379072189331055
 31
0.0
  0
LINE
  8
0
 10
96.93937683105469
 20
-14.379072189331055
 30
0.0
 11
97.2630615234375
 21
-11.995721817016602
 31
0.0
  0
LINE
  8
0
 10
97.2630615234375
 20
-11.995721817016602
 30
0.0
 11
97.52815246582031
 21
-9.605147361755371
 31
0.0
  0
LINE
  8
0
 10
97.52815246582031
 20
-9.605147361755371
 30
0.0
 11
97.73450469970703
 21
-7.208787441253662
 31
0.0
  0
LINE
  8
0
 10
97.73450469970703
 20
-7.208787441253662
 30
0.0
 11
97.8819808959961
 21
-4.808084487915039
 31
0.0
  0
LINE
  8
0
 10
97.8819808959961
 20
-4.808084487915039
 30
0.0
 11
97.97049713134766
 21
-2.4044854640960693
 31
0.0
  0
LINE
  8
0
 10
97.97049713134766
 20
-2.4044854640960693
 30
0.0
 11
98.0
 21
0.0005619291332550347
 31
0.0
  0
LINE
  8
0
 10
98.0
 20
0.0005619291332550347
 30
0.0
 11
97.97047424316406
 21
2.405609130859375
 31
0.0
  0
LINE
  8
0
 10
97.97047424316406
 20
2.405609130859375
 30
0.0
 11
97.88192749023438
 21
4.809206962585449
 31
0.0
  0
LINE
  8
0
 10
97.88192749023438
 20
4.809206962585449
 30
0.0
 11
97.73442077636719
 21
7.2099080085754395
 31
0.0
  0
LINE
  8
0
 10
97.73442077636719
 20
7.2099080085754395
 30
0.0
 11
97.52804565429688
 21
9.606266021728516
 31
0.0
  0
LINE
  8
0
 10
97.52804565429688
 20
9.606266021728516
 30
0.0
 11
97.26292419433594
 21
11.996837615966797
 31
0.0
  0
LINE
  8
0
 10
97.26292419433594
 20
11.996837615966797
 30
0.0
 11
96.939208984375
 21
14.380183219909668
 31
0.0
  0
LINE
  8
0
 10
96.939208984375
 20
14.380183219909668
 30
0.0
 11
96.5571060180664
 21
16.754865646362305
 31
0.0
  0
LINE
  8
0
 10
96.5571060180664
 20
16.754865646362305
 30
0.0
 11
96.11683654785156
 21
19.119457244873047
 31
0.0
  0
LINE
  8
0
 10
96.11683654785156
 20
19.119457244873047
 30
0.0
 11
95.6186752319336
 21
21.472530364990234
 31
0.0
  0
LINE
  8
0
 10
95.6186752319336
 20
21.472530364990234
 30
0.0
 11
95.06291198730469
 21
23.812667846679688
 31
0.0
  0
LINE
  8
0
 10
95.06291198730469
 20
23.812667846679688
 30
0.0
 11
94.44988250732422
 21
26.138463973999023
 31
0.0
  0
LINE
  8
0
 10
94.44988250732422
 20
26.138463973999023
 30
0.0
 11
93.77996826171875
 21
28.44851303100586
 31
0.0
  0
LINE
  8
0
 10
93.77996826171875
 20
28.44851303100586
 30
0.0
 11
93.05355834960938
 21
30.74142837524414
 31
0.0
  0
LINE
  8
0
 10
93.05355834960938
 20
30.74142837524414
 30
0.0
 11
92.2710952758789
 21
33.01582717895508
 31
0.0
  0
LINE
  8
0
 10
92.2710952758789
 20
33.01582717895508
 30
0.0
 11
91.43305969238281
 21
35.27033233642578
 31
0.0
  0
LINE
  8
0
 10
91.43305969238281
 20
35.27033233642578
 30
0.0
 11
90.5399398803711
 21
37.50359344482422
 31
0.0
  0
LINE
  8
0
 10
90.5399398803711
 20
37.50359344482422
 30
0.0
 11
89.59228515625
 21
39.71426773071289
 31
0.0
  0
LINE
  8
0
 10
89.59228515625
 20
39.71426773071289
 30
0.0
 11
88.59066009521484
 21
41.90101623535156
 31
0.0
  0
LINE
  8
0
 10
88.59066009521484
 20
41.90101623535156
 30
0.0
 11
87.53567504882812
 21
44.06252670288086
 31
0.0
  0
LINE
  8
0
 10
87.53567504882812
 20
44.06252670288086
 30
0.0
 11
86.4279556274414
 21
46.1974983215332
 31
0.0
  0
LINE
  8
0
 10
86.4279556274414
 20
46.1974983215332
 30
0.0
 11
85.26818084716797
 21
48.30463790893555
 31
0.0
  0
LINE
  8
0
 10
85.26818084716797
 20
48.30463790893555
 30
0.0
 11
84.05703735351562
 21
50.3826789855957
 31
0.0
  0
LINE
  8
0
 10
84.05703735351562
 20
50.3826789855957
 30
0.0
 11
82.7952651977539
 21
52.43037796020508
 31
0.0
  0
LINE
  8
0
 10
82.7952651977539
 20
52.43037796020508
 30
0.0
 11
81.4836196899414
 21
54.44648742675781
 31
0.0
  0
LINE
  8
0
 10
81.4836196899414
 20
54.44648742675781
 30
0.0
 11
80.12289428710938
 21
56.42980194091797
 31
0.0
  0
LINE
  8
0
 10
80.12289428710938
 20
56.42980194091797
 30
0.0
 11
78.71389770507812
 21
58.379127502441406
 31
0.0
  0
LINE
  8
0
 10
78.71389770507812
 20
58.379127502441406
 30
0.0
 11
77.25749206542969
 21
60.29328536987305
 31
0.0
  0
LINE
  8
0
 10
77.25749206542969
 20
60.29328536987305
 30
0.0
 11
75.75454711914062
 21
62.17112350463867
 31
0.0
  0
LINE
  8
0
 10
75.75454711914062
 20
62.17112350463867
 30
0.0
 11
74.20597076416016
 21
64.01151275634766
 31
0.0
  0
LINE
  8
0
 10
74.20597076416016
 20
64.01151275634766
 30
0.0
 11
72.6126937866211
 21
65.81334686279297
 31
0.0
  0
LINE
  8
0
 10
72.6126937866211
 20
65.81334686279297
 30
0.0
 11
70.97567749023438
 21
67.5755386352539
 31
0.0
  0
LINE
  8
0
 10
70.97567749023438
 20
67.5755386352539
 30
0.0
 11
69.29591369628906
 21
69.2970199584961
 31
0.0
  0
LINE
  8
0
 10
69.29591369628906
 20
69.2970199584961
 30
0.0
 11
67.57440185546875
 21
70.97676086425781
 31
0.0
  0
LINE
  8
0
 10
67.57440185546875
 20
70.97676086425781
 30
0.0
 11
65.81218719482422
 21
72.61373901367188
 31
0.0
  0
LINE
  8
0
 10
65.81218719482422
 20
72.61373901367188
 30
0.0
 11
64.01033020019531
 21
74.20699310302734
 31
0.0
  0
LINE
  8
0
 10
64.01033020019531
 20
74.20699310302734
 30
0.0
 11
62.16991424560547
 21
75.75553894042969
 31
0.0
  0
LINE
  8
0
 10
62.16991424560547
 20
75.75553894042969
 30
0.0
 11
60.29205322265625
 21
77.25845336914062
 31
0.0
  0
LINE
  8
0
 10
60.29205322265625
 20
77.25845336914062
 30
0.0
 11
58.377872467041016
 21
78.71482849121094
 31
0.0
  0
LINE
  8
0
 10
58.377872467041016
 20
78.71482849121094
 30
0.0
 11
56.42852783203125
 21
80.12378692626953
 31
0.0
  0
LINE
  8
0
 10
56.42852783203125
 20
80.12378692626953
 30
0.0
 11
54.4451904296875
 21
81.48448944091797
 31
0.0
  0
LINE
  8
0
 10
54.4451904296875
 20
81.48448944091797
 30
0.0
 11
52.42905807495117
 21
82.79609680175781
 31
0.0
  0
LINE
  8
0
 10
52.42905807495117
 20
82.79609680175781
 30
0.0
 11
50.38134002685547
 21
84.0578384399414
 31
0.0
  0
LINE
  8
0
 10
50.38134002685547
 20
84.0578384399414
 30
0.0
 11
48.303279876708984
 21
85.26895141601562
 31
0.0
  0
LINE
  8
0
 10
48.303279876708984
 20
85.26895141601562
 30
0.0
 11
46.19611740112305
 21
86.4286880493164
 31
0.0
  0
LINE
  8
0
 10
46.19611740112305
 20
86.4286880493164
 30
0.0
 11
44.061134338378906
 21
87.53636932373047
 31
0.0
  0
LINE
  8
0
 10
44.061134338378906
 20
87.53636932373047
 30
0.0
 11
41.89960861206055
 21
88.59132385253906
 31
0.0
  0
LINE
  8
0
 10
41.89960861206055
 20
88.59132385253906
 30
0.0
 11
39.71284103393555
 21
89.5929183959961
 31
0.0
  0
LINE
  8
0
 10
39.71284103393555
 20
89.5929183959961
 30
0.0
 11
37.50215530395508
 21
90.54053497314453
 31
0.0
  0
LINE
  8
0
 10
37.50215530395508
 20
90.54053497314453
 30
0.0
 11
35.26887512207031
 21
91.4336166381836
 31
0.0
  0
LINE
  8
0
 10
35.26887512207031
 20
91.4336166381836
 30
0.0
 11
33.01435852050781
 21
92.27162170410156
 31
0.0
  0
LINE
  8
0
 10
33.01435852050781
 20
92.27162170410156
 30
0.0
 11
30.739946365356445
 21
93.05404663085938
 31
0.0
  0
LINE
  8
0
 10
30.739946365356445
 20
93.05404663085938
 30
0.0
 11
28.447021484375
 21
93.7804183959961
 31
0.0
  0
LINE
  8
0
 10
28.447021484375
 20
93.7804183959961
 30
0.0
 11
26.136959075927734
 21
94.45030212402344
 31
0.0
  0
LINE
  8
0
 10
26.136959075927734
 20
94.45030212402344
 30
0.0
 11
23.811155319213867
 21
95.06329345703125
 31
0.0
  0
LINE
  8
0
 10
23.811155319213867
 20
95.06329345703125
 30
0.0
 11
21.471006393432617
 21
95.6190185546875
 31
0.0
  0
LINE
  8
0
 10
21.471006393432617
 20
95.6190185546875
 30
0.0
 11
19.1179256439209
 21
96.11714172363281
 31
0.0
  0
LINE
  8
0
 10
19.1179256439209
 20
96.11714172363281
 30
0.0
 11
16.753328323364258
 21
96.557373046875
 31
0.0
  0
LINE
  8
0
 10
16.753328323364258
 20
96.557373046875
 30
0.0
 11
14.378639221191406
 21
96.93943786621094
 31
0.0
  0
LINE
  8
0
 10
14.378639221191406
 20
96.93943786621094
 30
0.0
 11
11.995288848876953
 21
97.26311492919922
 31
0.0
  0
LINE
  8
0
 10
11.995288848876953
 20
97.26311492919922
 30
0.0
 11
9.604713439941406
 21
97.5281982421875
 31
0.0
  0
LINE
  8
0
 10
9.604713439941406
 20
97.5281982421875
 30
0.0
 11
7.208352088928223
 21
97.73453521728516
 31
0.0
  0
LINE
  8
0
 10
7.208352088928223
 20
97.73453521728516
 30
0.0
 11
4.807648181915283
 21
97.88200378417969
 31
0.0
  0
LINE
  8
0
 10
4.807648181915283
 20
97.88200378417969
 30
0.0
 11
2.4040491580963135
 21
97.97050476074219
 31
0.0
  0
LINE
  8
0
 10
0.0
 20
98.0
 30
0.0
 11
2.4040491580963135
 21
97.97050476074219
 31
0.0
  0
LINE
  8
0
 10
0.0
 20
95.0
 30
0.0
 11
-2.3314168453216553
 21
94.97138977050781
 31
0.0
  0
LINE
  8
0
 10
-2.3314168453216553
 20
94.97138977050781
 30
0.0
 11
-4.661429405212402
 21
94.88556671142578
 31
0.0
  0
LINE
  8
0
 10
-4.661429405212402
 20
94.88556671142578
 30
0.0
 11
-6.988633632659912
 21
94.74259185791016
 31
0.0
  0
LINE
  8
0
 10
-6.988633632659912
 20
94.74259185791016
 30
0.0
 11
-9.311628341674805
 21
94.54254913330078
 31
0.0
  0
LINE
  8
0
 10
-9.311628341674805
 20
94.54254913330078
 30
0.0
 11
-11.629014015197754
 21
94.28556060791016
 31
0.0
  0
LINE
  8
0
 10
-11.629014015197754
 20
94.28556060791016
 30
0.0
 11
-13.939393997192383
 21
93.97177124023438
 31
0.0
  0
LINE
  8
0
 10
-13.939393997192383
 20
93.97177124023438
 30
0.0
 11
-16.241378784179688
 21
93.60137939453125
 31
0.0
  0
LINE
  8
0
 10
-16.241378784179688
 20
93.60137939453125
 30
0.0
 11
-18.533578872680664
 21
93.17460632324219
 31
0.0
  0
LINE
  8
0
 10
-18.533578872680664
 20
93.17460632324219
 30
0.0
 11
-20.81461524963379
 21
92.69170379638672
 31
0.0
  0
LINE
  8
0
 10
-20.81461524963379
 20
92.69170379638672
 30
0.0
 11
-23.08311653137207
 21
92.15296936035156
 31
0.0
  0
LINE
  8
0
 10
-23.08311653137207
 20
92.15296936035156
 30
0.0
 11
-25.337711334228516
 21
91.55872344970703
 31
0.0
  0
LINE
  8
0
 10
-25.337711334228516
 20
91.55872344970703
 30
0.0
 11
-27.577043533325195
 21
90.90933227539062
 31
0.0
  0
LINE
  8
0
 10
-27.577043533325195
 20
90.90933227539062
 30
0.0
 11
-29.799766540527344
 21
90.2051773071289
 31
0.0
  0
LINE
  8
0
 10
-29.799766540527344
 20
90.2051773071289
 30
0.0
 11
-32.00453567504883
 21
89.44668579101562
 31
0.0
  0
LINE
  8
0
 10
-32.00453567504883
 20
89.44668579101562
 30
0.0
 11
-34.19002914428711
 21
88.63431549072266
 31
0.0
  0
LINE
  8
0
 10
-34.19002914428711
 20
88.63431549072266
 30
0.0
 11
-36.35492706298828
 21
87.7685546875
 31
0.0
  0
LINE
  8
0
 10
-36.35492706298828
 20
87.7685546875
 30
0.0
 11
-38.497928619384766
 21
86.84992218017578
 31
0.0
  0
LINE
  8
0
 10
-38.497928619384766
 20
86.84992218017578
 30
0.0
 11
-40.61773681640625
 21
85.87898254394531
 31
0.0
  0
LINE
  8
0
 10
-40.61773681640625
 20
85.87898254394531
 30
0.0
 11
-42.71308135986328
 21
84.85630798339844
 31
0.0
  0
LINE
  8
0
 10
-42.71308135986328
 20
84.85630798339844
 30
0.0
 11
-44.78269577026367
 21
83.78251647949219
 31
0.0
  0
LINE
  8
0
 10
-44.78269577026367
 20
83.78251647949219
 30
0.0
 11
-46.82533645629883
 21
82.65826416015625
 31
0.0
  0
LINE
  8
0
 10
-46.82533645629883
 20
82.65826416015625
 30
0.0
 11
-48.83976745605469
 21
81.48421478271484
 31
0.0
  0
LINE
  8
0
 10
-48.83976745605469
 20
81.48421478271484
 30
0.0
 11
-50.82478332519531
 21
80.2610855102539
 31
0.0
  0
LINE
  8
0
 10
-50.82478332519531
 20
80.2610855102539
 30
0.0
 11
-52.779178619384766
 21
78.98960876464844
 31
0.0
  0
LINE
  8
0
 10
-52.779178619384766
 20
78.98960876464844
 30
0.0
 11
-54.701786041259766
 21
77.6705551147461
 31
0.0
  0
LINE
  8
0
 10
-54.701786041259766
 20
77.6705551147461
 30
0.0
 11
-56.59144592285156
 21
76.3047103881836
 31
0.0
  0
LINE
  8
0
 10
-56.59144592285156
 20
76.3047103881836
 30
0.0
 11
-58.4470100402832
 21
74.89290618896484
 31
0.0
  0
LINE
  8
0
 10
-58.4470100402832
 20
74.89290618896484
 30
0.0
 11
-60.267372131347656
 21
73.43598175048828
 31
0.0
  0
LINE
  8
0
 10
-60.267372131347656
 20
73.43598175048828
 30
0.0
 11
-62.05143356323242
 21
71.93482971191406
 31
0.0
  0
LINE
  8
0
 10
-62.05143356323242
 20
71.93482971191406
 30
0.0
 11
-63.79811477661133
 21
70.39034271240234
 31
0.0
  0
LINE
  8
0
 10
-63.79811477661133
 20
70.39034271240234
 30
0.0
 11
-65.50636291503906
 21
68.803466796875
 31
0.0
  0
LINE
  8
0
 10
-65.50636291503906
 20
68.803466796875
 30
0.0
 11
-67.17516326904297
 21
67.17513275146484
 31
0.0
  0
LINE
  8
0
 10
-67.17516326904297
 20
67.17513275146484
 30
0.0
 11
-68.80348205566406
 21
65.50634002685547
 31
0.0
  0
LINE
  8
0
 10
-68.80348205566406
 20
65.50634002685547
 30
0.0
 11
-70.39037322998047
 21
63.7980842590332
 31
0.0
  0
LINE
  8
0
 10
-70.39037322998047
 20
63.7980842590332
 30
0.0
 11
-71.93485260009766
 21
62.0514030456543
 31
0.0
  0
LINE
  8
0
 10
-71.93485260009766
 20
62.0514030456543
 30
0.0
 11
-73.43600463867188
 21
60.2673454284668
 31
0.0
  0
LINE
  8
0
 10
-73.43600463867188
 20
60.2673454284668
 30
0.0
 11
-74.89292907714844
 21
58.446983337402344
 31
0.0
  0
LINE
  8
0
 10
-74.89292907714844
 20
58.446983337402344
 30
0.0
 11
-76.30473327636719
 21
56.59141159057617
 31
0.0
  0
LINE
  8
0
 10
-76.30473327636719
 20
56.59141159057617
 30
0.0
 11
-77.67057800292969
 21
54.701759338378906
 31
0.0
  0
LINE
  8
0
 10
-77.67057800292969
 20
54.701759338378906
 30
0.0
 11
-78.98963165283203
 21
52.779151916503906
 31
0.0
  0
LINE
  8
0
 10
-78.98963165283203
 20
52.779151916503906
 30
0.0
 11
-80.26110076904297
 21
50.82475280761719
 31
0.0
  0
LINE
  8
0
 10
-80.26110076904297
 20
50.82475280761719
 30
0.0
 11
-81.4842300415039
 21
48.839744567871094
 31
0.0
  0
LINE
  8
0
 10
-81.4842300415039
 20
48.839744567871094
 30
0.0
 11
-82.65826416015625
 21
46.8253173828125
 31
0.0
  0
LINE
  8
0
 10
-82.65826416015625
 20
46.8253173828125
 30
0.0
 11
-83.78252410888672
 21
44.78268051147461
 31
0.0
  0
LINE
  8
0
 10
-83.78252410888672
 20
44.78268051147461
 30
0.0
 11
-84.85630798339844
 21
42.71307373046875
 31
0.0
  0
LINE
  8
0
 10
-84.85630798339844
 20
42.71307373046875
 30
0.0
 11
-85.87898254394531
 21
40.61773681640625
 31
0.0
  0
LINE
  8
0
 10
-85.87898254394531
 20
40.61773681640625
 30
0.0
 11
-86.84992218017578
 21
38.497928619384766
 31
0.0
  0
LINE
  8
0
 10
-86.84992218017578
 20
38.497928619384766
 30
0.0
 11
-87.7685546875
 21
36.35493850708008
 31
0.0
  0
LINE
  8
0
 10
-87.7685546875
 20
36.35493850708008
 30
0.0
 11
-88.63431549072266
 21
34.19004440307617
 31
0.0
  0
LINE
  8
0
 10
-88.63431549072266
 20
34.19004440307617
 30
0.0
 11
-89.4466781616211
 21
32.004554748535156
 31
0.0
  0
LINE
  8
0
 10
-89.4466781616211
 20
32.004554748535156
 30
0.0
 11
-90.20516967773438
 21
29.799789428710938
 31
0.0
  0
LINE
  8
0
 10
-90.20516967773438
 20
29.799789428710938
 30
0.0
 11
-90.9093246459961
 21
27.57707405090332
 31
0.0
  0
LINE
  8
0
 10
-90.9093246459961
 20
27.57707405090332
 30
0.0
 11
-91.5587158203125
 21
25.337745666503906
 31
0.0
  0
LINE
  8
0
 10
-91.5587158203125
 20
25.337745666503906
 30
0.0
 11
-92.15296173095703
 21
23.083154678344727
 31
0.0
  0
LINE
  8
0
 10
-92.15296173095703
 20
23.083154678344727
 30
0.0
 11
-92.69169616699219
 21
20.814661026000977
 31
0.0
  0
LINE
  8
0
 10
-92.69169616699219
 20
20.814661026000977
 30
0.0
 11
-93.17459106445312
 21
18.533628463745117
 31
0.0
  0
LINE
  8
0
 10
-93.17459106445312
 20
18.533628463745117
 30
0.0
 11
-93.60136413574219
 21
16.241432189941406
 31
0.0
  0
LINE
  8
0
 10
-93.60136413574219
 20
16.241432189941406
 30
0.0
 11
-93.97175598144531
 21
13.939452171325684
 31
0.0
  0
LINE
  8
0
 10
-93.97175598144531
 20
13.939452171325684
 30
0.0
 11
-94.2855453491211
 21
11.629076957702637
 31
0.0
  0
LINE
  8
0
 10
-94.2855453491211
 20
11.629076957702637
 30
0.0
 11
-94.54254150390625
 21
9.31169605255127
 31
0.0
  0
LINE
  8
0
 10
-94.54254150390625
 20
9.31169605255127
 30
0.0
 11
-94.74258422851562
 21
6.988705158233643
 31
0.0
  0
LINE
  8
0
 10
-94.74258422851562
 20
6.988705158233643
 30
0.0
 11
-94.88555908203125
 21
4.661506175994873
 31
0.0
  0
LINE
  8
0
 10
-94.88555908203125
 20
4.661506175994873
 30
0.0
 11
-94.97138977050781
 21
2.331498384475708
 31
0.0
  0
LINE
  8
0
 10
-94.97138977050781
 20
2.331498384475708
 30
0.0
 11
-95.0
 21
8.644647459732369e-05
 31
0.0
  0
LINE
  8
0
 10
-95.0
 20
8.644647459732369e-05
 30
0.0
 11
-94.97138977050781
 21
-2.3313255310058594
 31
0.0
  0
LINE
  8
0
 10
-94.97138977050781
 20
-2.3313255310058594
 30
0.0
 11
-94.88557434082031
 21
-4.661333084106445
 31
0.0
  0
LINE
  8
0
 10
-94.88557434082031
 20
-4.661333084106445
 30
0.0
 11
-94.74259948730469
 21
-6.9885334968566895
 31
0.0
  0
LINE
  8
0
 10
-94.74259948730469
 20
-6.9885334968566895
 30
0.0
 11
-94.54255676269531
 21
-9.3115234375
 31
0.0
  0
LINE
  8
0
 10
-94.54255676269531
 20
-9.3115234375
 30
0.0
 11
-94.28556823730469
 21
-11.628904342651367
 31
0.0
  0
LINE
  8
0
 10
-94.28556823730469
 20
-11.628904342651367
 30
0.0
 11
-93.97178649902344
 21
-13.939281463623047
 31
0.0
  0
LINE
  8
0
 10
-93.97178649902344
 20
-13.939281463623047
 30
0.0
 11
-93.60139465332031
 21
-16.241262435913086
 31
0.0
  0
LINE
  8
0
 10
-93.60139465332031
 20
-16.241262435913086
 30
0.0
 11
-93.17462921142578
 21
-18.533458709716797
 31
0.0
  0
LINE
  8
0
 10
-93.17462921142578
 20
-18.533458709716797
 30
0.0
 11
-92.69172668457031
 21
-20.81449317932129
 31
0.0
  0
LINE
  8
0
 10
-92.69172668457031
 20
-20.81449317932129
 30
0.0
 11
-92.15300750732422
 21
-23.08298683166504
 31
0.0
  0
LINE
  8
0
 10
-92.15300750732422
 20
-23.08298683166504
 30
0.0
 11
-91.55876159667969
 21
-25.33757781982422
 31
0.0
  0
LINE
  8
0
 10
-91.55876159667969
 20
-25.33757781982422
 30
0.0
 11
-90.90937042236328
 21
-27.576906204223633
 31
0.0
  0
LINE
  8
0
 10
-90.90937042236328
 20
-27.576906204223633
 30
0.0
 11
-90.2052230834961
 21
-29.799625396728516
 31
0.0
  0
LINE
  8
0
 10
-90.2052230834961
 20
-29.799625396728516
 30
0.0
 11
-89.44673919677734
 21
-32.004390716552734
 31
0.0
  0
LINE
  8
0
 10
-89.44673919677734
 20
-32.004390716552734
 30
0.0
 11
-88.6343765258789
 21
-34.189884185791016
 31
0.0
  0
LINE
  8
0
 10
-88.6343765258789
 20
-34.189884185791016
 30
0.0
 11
-87.76861572265625
 21
-36.354774475097656
 31
0.0
  0
LINE
  8
0
 10
-87.76861572265625
 20
-36.354774475097656
 30
0.0
 11
-86.84999084472656
 21
-38.497772216796875
 31
0.0
  0
LINE
  8
0
 10
-86.84999084472656
 20
-38.497772216796875
 30
0.0
 11
-85.8790512084961
 21
-40.61758804321289
 31
0.0
  0
LINE
  8
0
 10
-85.8790512084961
 20
-40.61758804321289
 30
0.0
 11
-84.85637664794922
 21
-42.71293640136719
 31
0.0
  0
LINE
  8
0
 10
-84.85637664794922
 20
-42.71293640136719
 30
0.0
 11
-83.7825927734375
 21
-44.782562255859375
 31
0.0
  0
LINE
  8
0
 10
-83.7825927734375
 20
-44.782562255859375
 30
0.0
 11
-82.65833282470703
 21
-46.8252067565918
 31
0.0
  0
LINE
  8
0
 10
-82.65833282470703
 20
-46.8252067565918
 30
0.0
 11
-81.48428344726562
 21
-48.83964920043945
 31
0.0
  0
LINE
  8
0
 10
-81.48428344726562
 20
-48.83964920043945
 30
0.0
 11
-80.26116180419922
 21
-50.824668884277344
 31
0.0
  0
LINE
  8
0
 10
-80.26116180419922
 20
-50.824668884277344
 30
0.0
 11
-78.98967742919922
 21
-52.77907180786133
 31
0.0
  0
LINE
  8
0
 10
-78.98967742919922
 20
-52.77907180786133
 30
0.0
 11
-77.67062377929688
 21
-54.70168685913086
 31
0.0
  0
LINE
  8
0
 10
-77.67062377929688
 20
-54.70168685913086
 30
0.0
 11
-76.30477905273438
 21
-56.59135055541992
 31
0.0
  0
LINE
  8
0
 10
-76.30477905273438
 20
-56.59135055541992
 30
0.0
 11
-74.89297485351562
 21
-58.44691848754883
 31
0.0
  0
LINE
  8
0
 10
-74.89297485351562
 20
-58.44691848754883
 30
0.0
 11
-73.43605041503906
 21
-60.26728820800781
 31
0.0
  0
LINE
  8
0
 10
-73.43605041503906
 20
-60.26728820800781
 30
0.0
 11
-71.93489837646484
 21
-62.051353454589844
 31
0.0
  0
LINE
  8
0
 10
-71.93489837646484
 20
-62.051353454589844
 30
0.0
 11
-70.39041137695312
 21
-63.79804229736328
 31
0.0
  0
LINE
  8
0
 10
-70.39041137695312
 20
-63.79804229736328
 30
0.0
 11
-68.80352783203125
 21
-65.50629425048828
 31
0.0
  0
LINE
  8
0
 10
-68.80352783203125
 20
-65.50629425048828
 30
0.0
 11
-67.1751937866211
 21
-67.17509460449219
 31
0.0
  0
LINE
  8
0
 10
-67.1751937866211
 20
-67.17509460449219
 30
0.0
 11
-65.50639343261719
 21
-68.80342864990234
 31
0.0
  0
LINE
  8
0
 10
-65.50639343261719
 20
-68.80342864990234
 30
0.0
 11
-63.79814147949219
 21
-70.39031982421875
 31
0.0
  0
LINE
  8
0
 10
-63.79814147949219
 20
-70.39031982421875
 30
0.0
 11
-62.051456451416016
 21
-71.93480682373047
 31
0.0
  0
LINE
  8
0
 10
-62.051456451416016
 20
-71.93480682373047
 30
0.0
 11
-60.26739501953125
 21
-73.43596649169922
 31
0.0
  0
LINE
  8
0
 10
-60.26739501953125
 20
-73.43596649169922
 30
0.0
 11
-58.44702911376953
 21
-74.89289093017578
 31
0.0
  0
LINE
  8
0
 10
-58.44702911376953
 20
-74.89289093017578
 30
0.0
 11
-56.59145736694336
 21
-76.30469512939453
 31
0.0
  0
LINE
  8
0
 10
-56.59145736694336
 20
-76.30469512939453
 30
0.0
 11
-54.7017936706543
 21
-77.67054748535156
 31
0.0
  0
LINE
  8
0
 10
-54.7017936706543
 20
-77.67054748535156
 30
0.0
 11
-52.7791862487793
 21
-78.98960876464844
 31
0.0
  0
LINE
  8
0
 10
-52.7791862487793
 20
-78.98960876464844
 30
0.0
 11
-50.82478332519531
 21
-80.2610855102539
 31
0.0
  0
LINE
  8
0
 10
-50.82478332519531
 20
-80.2610855102539
 30
0.0
 11
-48.83976364135742
 21
-81.48421478271484
 31
0.0
  0
LINE
  8
0
 10
-48.83976364135742
 20
-81.48421478271484
 30
0.0
 11
-46.825321197509766
 21
-82.65826416015625
 31
0.0
  0
LINE
  8
0
 10
-46.825321197509766
 20
-82.65826416015625
 30
0.0
 11
-44.78268051147461
 21
-83.78253173828125
 31
0.0
  0
LINE
  8
0
 10
-44.78268051147461
 20
-83.78253173828125
 30
0.0
 11
-42.71305847167969
 21
-84.8563232421875
 31
0.0
  0
LINE
  8
0
 10
-42.71305847167969
 20
-84.8563232421875
 30
0.0
 11
-40.61771011352539
 21
-85.87899780273438
 31
0.0
  0
LINE
  8
0
 10
-40.61771011352539
 20
-85.87899780273438
 30
0.0
 11
-38.497894287109375
 21
-86.84993743896484
 31
0.0
  0
LINE
  8
0
 10
-38.497894287109375
 20
-86.84993743896484
 30
0.0
 11
-36.35489273071289
 21
-87.76856994628906
 31
0.0
  0
LINE
  8
0
 10
-36.35489273071289
 20
-87.76856994628906
 30
0.0
 11
-34.18998718261719
 21
-88.63433074951172
 31
0.0
  0
LINE
  8
0
 10
-34.18998718261719
 20
-88.63433074951172
 30
0.0
 11
-32.00448989868164
 21
-89.44670104980469
 31
0.0
  0
LINE
  8
0
 10
-32.00448989868164
 20
-89.44670104980469
 30
0.0
 11
-29.79970932006836
 21
-90.2052001953125
 31
0.0
  0
LINE
  8
0
 10
-29.79970932006836
 20
-90.2052001953125
 30
0.0
 11
-27.576984405517578
 21
-90.90934753417969
 31
0.0
  0
LINE
  8
0
 10
-27.576984405517578
 20
-90.90934753417969
 30
0.0
 11
-25.337644577026367
 21
-91.55874633789062
 31
0.0
  0
LINE
  8
0
 10
-25.337644577026367
 20
-91.55874633789062
 30
0.0
 11
-23.083040237426758
 21
-92.15298461914062
 31
0.0
  0
LINE
  8
0
 10
-23.083040237426758
 20
-92.15298461914062
 30
0.0
 11
-20.81453514099121
 21
-92.69171905517578
 31
0.0
  0
LINE
  8
0
 10
-20.81453514099121
 20
-92.69171905517578
 30
0.0
 11
-18.533491134643555
 21
-93.17462158203125
 31
0.0
  0
LINE
  8
0
 10
-18.533491134643555
 20
-93.17462158203125
 30
0.0
 11
-16.241283416748047
 21
-93.60139465332031
 31
0.0
  0
LINE
  8
0
 10
-16.241283416748047
 20
-93.60139465332031
 30
0.0
 11
-13.939291000366211
 21
-93.97178649902344
 31
0.0
  0
LINE
  8
0
 10
-13.939291000366211
 20
-93.97178649902344
 30
0.0
 11
-11.628904342651367
 21
-94.28556823730469
 31
0.0
  0
LINE
  8
0
 10
-11.628904342651367
 20
-94.28556823730469
 30
0.0
 11
-9.311511039733887
 21
-94.54255676269531
 31
0.0
  0
LINE
  8
0
 10
-9.311511039733887
 20
-94.54255676269531
 30
0.0
 11
-6.988509178161621
 21
-94.74259948730469
 31
0.0
  0
LINE
  8
0
 10
-6.988509178161621
 20
-94.74259948730469
 30
0.0
 11
-4.6612982749938965
 21
-94.88557434082031
 31
0.0
  0
LINE
  8
0
 10
-4.6612982749938965
 20
-94.88557434082031
 30
0.0
 11
-2.3312790393829346
 21
-94.97138977050781
 31
0.0
  0
LINE
  8
0
 10
-2.3312790393829346
 20
-94.97138977050781
 30
0.0
 11
0.00014420376101043075
 21
-95.0
 31
0.0
  0
LINE
  8
0
 10
0.00014420376101043075
 20
-95.0
 30
0.0
 11
2.3315675258636475
 21
-94.97138214111328
 31
0.0
  0
LINE
  8
0
 10
2.3315675258636475
 20
-94.97138214111328
 30
0.0
 11
4.661586284637451
 21
-94.88555908203125
 31
0.0
  0
LINE
  8
0
 10
4.661586284637451
 20
-94.88555908203125
 30
0.0
 11
6.988797187805176
 21
-94.7425765991211
 31
0.0
  0
LINE
  8
0
 10
6.988797187805176
 20
-94.7425765991211
 30
0.0
 11
9.311798095703125
 21
-94.54253387451172
 31
0.0
  0
LINE
  8
0
 10
9.311798095703125
 20
-94.54253387451172
 30
0.0
 11
11.629189491271973
 21
-94.28553771972656
 31
0.0
  0
LINE
  8
0
 10
11.629189491271973
 20
-94.28553771972656
 30
0.0
 11
13.939577102661133
 21
-93.97174072265625
 31
0.0
  0
LINE
  8
0
 10
13.939577102661133
 20
-93.97174072265625
 30
0.0
 11
16.241567611694336
 21
-93.6013412475586
 31
0.0
  0
LINE
  8
0
 10
16.241567611694336
 20
-93.6013412475586
 30
0.0
 11
18.53377342224121
 21
-93.17456817626953
 31
0.0
  0
LINE
  8
0
 10
18.53377342224121
 20
-93.17456817626953
 30
0.0
 11
20.814817428588867
 21
-92.69165802001953
 31
0.0
  0
LINE
  8
0
 10
20.814817428588867
 20
-92.69165802001953
 30
0.0
 11
23.08332061767578
 21
-92.15291595458984
 31
0.0
  0
LINE
  8
0
 10
23.08332061767578
 20
-92.15291595458984
 30
0.0
 11
25.337921142578125
 21
-91.55867004394531
 31
0.0
  0
LINE
  8
0
 10
25.337921142578125
 20
-91.55867004394531
 30
0.0
 11
27.577259063720703
 21
-90.90926361083984
 31
0.0
  0
LINE
  8
0
 10
27.577259063720703
 20
-90.90926361083984
 30
0.0
 11
29.799983978271484
 21
-90.20510864257812
 31
0.0
  0
LINE
  8
0
 10
29.799983978271484
 20
-90.20510864257812
 30
0.0
 11
32.004756927490234
 21
-89.44660949707031
 31
0.0
  0
LINE
  8
0
 10
32.004756927490234
 20
-89.44660949707031
 30
0.0
 11
34.19025802612305
 21
-88.63422393798828
 31
0.0
  0
LINE
  8
0
 10
34.19025802612305
 20
-88.63422393798828
 30
0.0
 11
36.35515594482422
 21
-87.76846313476562
 31
0.0
  0
LINE
  8
0
 10
36.35515594482422
 20
-87.76846313476562
 30
0.0
 11
38.49816131591797
 21
-86.84982299804688
 31
0.0
  0
LINE
  8
0
 10
38.49816131591797
 20
-86.84982299804688
 30
0.0
 11
40.61796951293945
 21
-85.87886810302734
 31
0.0
  0
LINE
  8
0
 10
40.61796951293945
 20
-85.87886810302734
 30
0.0
 11
42.71331787109375
 21
-84.85618591308594
 31
0.0
  0
LINE
  8
0
 10
42.71331787109375
 20
-84.85618591308594
 30
0.0
 11
44.782936096191406
 21
-83.78239440917969
 31
0.0
  0
LINE
  8
0
 10
44.782936096191406
 20
-83.78239440917969
 30
0.0
 11
46.82557678222656
 21
-82.65812683105469
 31
0.0
  0
LINE
  8
0
 10
46.82557678222656
 20
-82.65812683105469
 30
0.0
 11
48.84001159667969
 21
-81.48406982421875
 31
0.0
  0
LINE
  8
0
 10
48.84001159667969
 20
-81.48406982421875
 30
0.0
 11
50.82502365112305
 21
-80.26093292236328
 31
0.0
  0
LINE
  8
0
 10
50.82502365112305
 20
-80.26093292236328
 30
0.0
 11
52.779422760009766
 21
-78.98944854736328
 31
0.0
  0
LINE
  8
0
 10
52.779422760009766
 20
-78.98944854736328
 30
0.0
 11
54.702030181884766
 21
-77.67037963867188
 31
0.0
  0
LINE
  8
0
 10
54.702030181884766
 20
-77.67037963867188
 30
0.0
 11
56.59169006347656
 21
-76.30452728271484
 31
0.0
  0
LINE
  8
0
 10
56.59169006347656
 20
-76.30452728271484
 30
0.0
 11
58.4472541809082
 21
-74.89270782470703
 31
0.0
  0
LINE
  8
0
 10
58.4472541809082
 20
-74.89270782470703
 30
0.0
 11
60.267616271972656
 21
-73.43578338623047
 31
0.0
  0
LINE
  8
0
 10
60.267616271972656
 20
-73.43578338623047
 30
0.0
 11
62.051673889160156
 21
-71.93462371826172
 31
0.0
  0
LINE
  8
0
 10
62.051673889160156
 20
-71.93462371826172
 30
0.0
 11
63.7983512878418
 21
-70.39012145996094
 31
0.0
  0
LINE
  8
0
 10
63.7983512878418
 20
-70.39012145996094
 30
0.0
 11
65.50659942626953
 21
-68.80323028564453
 31
0.0
  0
LINE
  8
0
 10
65.50659942626953
 20
-68.80323028564453
 30
0.0
 11
67.17539978027344
 21
-67.17489624023438
 31
0.0
  0
LINE
  8
0
 10
67.17539978027344
 20
-67.17489624023438
 30
0.0
 11
68.80372619628906
 21
-65.50608825683594
 31
0.0
  0
LINE
  8
0
 10
68.80372619628906
 20
-65.50608825683594
 30
0.0
 11
70.3906021118164
 21
-63.79782485961914
 31
0.0
  0
LINE
  8
0
 10
70.3906021118164
 20
-63.79782485961914
 30
0.0
 11
71.93507385253906
 21
-62.05115509033203
 31
0.0
  0
LINE
  8
0
 10
71.93507385253906
 20
-62.05115509033203
 30
0.0
 11
73.43622589111328
 21
-60.26708221435547
 31
0.0
  0
LINE
  8
0
 10
73.43622589111328
 20
-60.26708221435547
 30
0.0
 11
74.89313507080078
 21
-58.446712493896484
 31
0.0
  0
LINE
  8
0
 10
74.89313507080078
 20
-58.446712493896484
 30
0.0
 11
76.304931640625
 21
-56.59113311767578
 31
0.0
  0
LINE
  8
0
 10
76.304931640625
 20
-56.59113311767578
 30
0.0
 11
77.6707763671875
 21
-54.70146942138672
 31
0.0
  0
LINE
  8
0
 10
77.6707763671875
 20
-54.70146942138672
 30
0.0
 11
78.98983001708984
 21
-52.77885055541992
 31
0.0
  0
LINE
  8
0
 10
78.98983001708984
 20
-52.77885055541992
 30
0.0
 11
80.26129913330078
 21
-50.824440002441406
 31
0.0
  0
LINE
  8
0
 10
80.26129913330078
 20
-50.824440002441406
 30
0.0
 11
81.48442077636719
 21
-48.83941650390625
 31
0.0
  0
LINE
  8
0
 10
81.48442077636719
 20
-48.83941650390625
 30
0.0
 11
82.65846252441406
 21
-46.824974060058594
 31
0.0
  0
LINE
  8
0
 10
82.65846252441406
 20
-46.824974060058594
 30
0.0
 11
83.78271484375
 21
-44.782325744628906
 31
0.0
  0
LINE
  8
0
 10
83.78271484375
 20
-44.782325744628906
 30
0.0
 11
84.85649871826172
 21
-42.712703704833984
 31
0.0
  0
LINE
  8
0
 10
84.85649871826172
 20
-42.712703704833984
 30
0.0
 11
85.87916564941406
 21
-40.617347717285156
 31
0.0
  0
LINE
  8
0
 10
85.87916564941406
 20
-40.617347717285156
 30
0.0
 11
86.85009765625
 21
-38.49753189086914
 31
0.0
  0
LINE
  8
0
 10
86.85009765625
 20
-38.49753189086914
 30
0.0
 11
87.76872253417969
 21
-36.35451889038086
 31
0.0
  0
LINE
  8
0
 10
87.76872253417969
 20
-36.35451889038086
 30
0.0
 11
88.63447570800781
 21
-34.189613342285156
 31
0.0
  0
LINE
  8
0
 10
88.63447570800781
 20
-34.189613342285156
 30
0.0
 11
89.44683837890625
 21
-32.00410842895508
 31
0.0
  0
LINE
  8
0
 10
89.44683837890625
 20
-32.00410842895508
 30
0.0
 11
90.205322265625
 21
-29.79932975769043
 31
0.0
  0
LINE
  8
0
 10
90.205322265625
 20
-29.79932975769043
 30
0.0
 11
90.90946960449219
 21
-27.57659912109375
 31
0.0
  0
LINE
  8
0
 10
90.90946960449219
 20
-27.57659912109375
 30
0.0
 11
91.55885314941406
 21
-25.337255477905273
 31
0.0
  0
LINE
  8
0
 10
91.55885314941406
 20
-25.337255477905273
 30
0.0
 11
92.15308380126953
 21
-23.082653045654297
 31
0.0
  0
LINE
  8
0
 10
92.15308380126953
 20
-23.082653045654297
 30
0.0
 11
92.69181060791016
 21
-20.814144134521484
 31
0.0
  0
LINE
  8
0
 10
92.69181060791016
 20
-20.814144134521484
 30
0.0
 11
93.17469787597656
 21
-18.533098220825195
 31
0.0
  0
LINE
  8
0
 10
93.17469787597656
 20
-18.533098220825195
 30
0.0
 11
93.6014633178711
 21
-16.240888595581055
 31
0.0
  0
LINE
  8
0
 10
93.6014633178711
 20
-16.240888595581055
 30
0.0
 11
93.97183990478516
 21
-13.938896179199219
 31
0.0
  0
LINE
  8
0
 10
93.97183990478516
 20
-13.938896179199219
 30
0.0
 11
94.2856216430664
 21
-11.62850570678711
 31
0.0
  0
LINE
  8
0
 10
94.2856216430664
 20
-11.62850570678711
 30
0.0
 11
94.5426025390625
 21
-9.311112403869629
 31
0.0
  0
LINE
  8
0
 10
94.5426025390625
 20
-9.311112403869629
 30
0.0
 11
94.74263000488281
 21
-6.988110065460205
 31
0.0
  0
LINE
  8
0
 10
94.74263000488281
 20
-6.988110065460205
 30
0.0
 11
94.8855972290039
 21
-4.660898208618164
 31
0.0
  0
LINE
  8
0
 10
94.8855972290039
 20
-4.660898208618164
 30
0.0
 11
94.97139739990234
 21
-2.330878734588623
 31
0.0
  0
LINE
  8
0
 10
94.97139739990234
 20
-2.330878734588623
 30
0.0
 11
95.0
 21
0.0005447271978482604
 31
0.0
  0
LINE
  8
0
 10
95.0
 20
0.0005447271978482604
 30
0.0
 11
94.97137451171875
 21
2.331968069076538
 31
0.0
  0
LINE
  8
0
 10
94.97137451171875
 20
2.331968069076538
 30
0.0
 11
94.88553619384766
 21
4.661986351013184
 31
0.0
  0
LINE
  8
0
 10
94.88553619384766
 20
4.661986351013184
 30
0.0
 11
94.7425537109375
 21
6.98919677734375
 31
0.0
  0
LINE
  8
0
 10
94.7425537109375
 20
6.98919677734375
 30
0.0
 11
94.54248809814453
 21
9.312196731567383
 31
0.0
  0
LINE
  8
0
 10
94.54248809814453
 20
9.312196731567383
 30
0.0
 11
94.28548431396484
 21
11.62958812713623
 31
0.0
  0
LINE
  8
0
 10
94.28548431396484
 20
11.62958812713623
 30
0.0
 11
93.97168731689453
 21
13.939973831176758
 31
0.0
  0
LINE
  8
0
 10
93.97168731689453
 20
13.939973831176758
 30
0.0
 11
93.60127258300781
 21
16.241960525512695
 31
0.0
  0
LINE
  8
0
 10
93.60127258300781
 20
16.241960525512695
 30
0.0
 11
93.17448425292969
 21
18.53416633605957
 31
0.0
  0
LINE
  8
0
 10
93.17448425292969
 20
18.53416633605957
 30
0.0
 11
92.69156646728516
 21
20.815208435058594
 31
0.0
  0
LINE
  8
0
 10
92.69156646728516
 20
20.815208435058594
 30
0.0
 11
92.15282440185547
 21
23.083709716796875
 31
0.0
  0
LINE
  8
0
 10
92.15282440185547
 20
23.083709716796875
 30
0.0
 11
91.55856323242188
 21
25.338306427001953
 31
0.0
  0
LINE
  8
0
 10
91.55856323242188
 20
25.338306427001953
 30
0.0
 11
90.90914916992188
 21
27.577640533447266
 31
0.0
  0
LINE
  8
0
 10
90.90914916992188
 20
27.577640533447266
 30
0.0
 11
90.2049789428711
 21
29.800363540649414
 31
0.0
  0
LINE
  8
0
 10
90.2049789428711
 20
29.800363540649414
 30
0.0
 11
89.44647216796875
 21
32.0051383972168
 31
0.0
  0
LINE
  8
0
 10
89.44647216796875
 20
32.0051383972168
 30
0.0
 11
88.63408660888672
 21
34.19063186645508
 31
0.0
  0
LINE
  8
0
 10
88.63408660888672
 20
34.19063186645508
 30
0.0
 11
87.768310546875
 21
36.355525970458984
 31
0.0
  0
LINE
  8
0
 10
87.768310546875
 20
36.355525970458984
 30
0.0
 11
86.84966278076172
 21
38.4985237121582
 31
0.0
  0
LINE
  8
0
 10
86.84966278076172
 20
38.4985237121582
 30
0.0
 11
85.87870025634766
 21
40.61833190917969
 31
0.0
  0
LINE
  8
0
 10
85.87870025634766
 20
40.61833190917969
 30
0.0
 11
84.85601043701172
 21
42.71367263793945
 31
0.0
  0
LINE
  8
0
 10
84.85601043701172
 20
42.71367263793945
 30
0.0
 11
83.7822036743164
 21
44.783287048339844
 31
0.0
  0
LINE
  8
0
 10
83.7822036743164
 20
44.783287048339844
 30
0.0
 11
82.65792846679688
 21
46.825923919677734
 31
0.0
  0
LINE
  8
0
 10
82.65792846679688
 20
46.825923919677734
 30
0.0
 11
81.4838638305664
 21
48.84035110473633
 31
0.0
  0
LINE
  8
0
 10
81.4838638305664
 20
48.84035110473633
 30
0.0
 11
80.2607192993164
 21
50.82536315917969
 31
0.0
  0
LINE
  8
0
 10
80.2607192993164
 20
50.82536315917969
 30
0.0
 11
78.98921966552734
 21
52.779754638671875
 31
0.0
  0
LINE
  8
0
 10
78.98921966552734
 20
52.779754638671875
 30
0.0
 11
77.67015075683594
 21
54.70235824584961
 31
0.0
  0
LINE
  8
0
 10
77.67015075683594
 20
54.70235824584961
 30
0.0
 11
76.30429077148438
 21
56.592010498046875
 31
0.0
  0
LINE
  8
0
 10
76.30429077148438
 20
56.592010498046875
 30
0.0
 11
74.89246368408203
 21
58.44757080078125
 31
0.0
  0
LINE
  8
0
 10
74.89246368408203
 20
58.44757080078125
 30
0.0
 11
73.43553161621094
 21
60.26792907714844
 31
0.0
  0
LINE
  8
0
 10
73.43553161621094
 20
60.26792907714844
 30
0.0
 11
71.93435668945312
 21
62.05197525024414
 31
0.0
  0
LINE
  8
0
 10
71.93435668945312
 20
62.05197525024414
 30
0.0
 11
70.38985443115234
 21
63.79865264892578
 31
0.0
  0
LINE
  8
0
 10
70.38985443115234
 20
63.79865264892578
 30
0.0
 11
68.8029556274414
 21
65.50689697265625
 31
0.0
  0
LINE
  8
0
 10
68.8029556274414
 20
65.50689697265625
 30
0.0
 11
67.17461395263672
 21
67.1756820678711
 31
0.0
  0
LINE
  8
0
 10
67.17461395263672
 20
67.1756820678711
 30
0.0
 11
65.50579833984375
 21
68.80400085449219
 31
0.0
  0
LINE
  8
0
 10
65.50579833984375
 20
68.80400085449219
 30
0.0
 11
63.79753112792969
 21
70.390869140625
 31
0.0
  0
LINE
  8
0
 10
63.79753112792969
 20
70.390869140625
 30
0.0
 11
62.05083084106445
 21
71.93534851074219
 31
0.0
  0
LINE
  8
0
 10
62.05083084106445
 20
71.93534851074219
 30
0.0
 11
60.266754150390625
 21
73.43649291992188
 31
0.0
  0
LINE
  8
0
 10
60.266754150390625
 20
73.43649291992188
 30
0.0
 11
58.44637680053711
 21
74.89339447021484
 31
0.0
  0
LINE
  8
0
 10
58.44637680053711
 20
74.89339447021484
 30
0.0
 11
56.59079360961914
 21
76.30519104003906
 31
0.0
  0
LINE
  8
0
 10
56.59079360961914
 20
76.30519104003906
 30
0.0
 11
54.70112609863281
 21
77.6710205078125
 31
0.0
  0
LINE
  8
0
 10
54.70112609863281
 20
77.6710205078125
 30
0.0
 11
52.778499603271484
 21
78.99006652832031
 31
0.0
  0
LINE
  8
0
 10
52.778499603271484
 20
78.99006652832031
 30
0.0
 11
50.8240852355957
 21
80.26152801513672
 31
0.0
  0
LINE
  8
0
 10
50.8240852355957
 20
80.26152801513672
 30
0.0
 11
48.839054107666016
 21
81.4846420288086
 31
0.0
  0
LINE
  8
0
 10
48.839054107666016
 20
81.4846420288086
 30
0.0
 11
46.824607849121094
 21
82.65867614746094
 31
0.0
  0
LINE
  8
0
 10
46.824607849121094
 20
82.65867614746094
 30
0.0
 11
44.781951904296875
 21
83.78291320800781
 31
0.0
  0
LINE
  8
0
 10
44.781951904296875
 20
83.78291320800781
 30
0.0
 11
42.71232223510742
 21
84.856689453125
 31
0.0
  0
LINE
  8
0
 10
42.71232223510742
 20
84.856689453125
 30
0.0
 11
40.616966247558594
 21
85.87934875488281
 31
0.0
  0
LINE
  8
0
 10
40.616966247558594
 20
85.87934875488281
 30
0.0
 11
38.49714279174805
 21
86.85027313232422
 31
0.0
  0
LINE
  8
0
 10
38.49714279174805
 20
86.85027313232422
 30
0.0
 11
36.354129791259766
 21
87.76889038085938
 31
0.0
  0
LINE
  8
0
 10
36.354129791259766
 20
87.76889038085938
 30
0.0
 11
34.18921661376953
 21
88.63462829589844
 31
0.0
  0
LINE
  8
0
 10
34.18921661376953
 20
88.63462829589844
 30
0.0
 11
32.00371170043945
 21
89.44698333740234
 31
0.0
  0
LINE
  8
0
 10
32.00371170043945
 20
89.44698333740234
 30
0.0
 11
29.79892921447754
 21
90.20545196533203
 31
0.0
  0
LINE
  8
0
 10
29.79892921447754
 20
90.20545196533203
 30
0.0
 11
27.57619285583496
 21
90.90959167480469
 31
0.0
  0
LINE
  8
0
 10
27.57619285583496
 20
90.90959167480469
 30
0.0
 11
25.33684730529785
 21
91.5589599609375
 31
0.0
  0
LINE
  8
0
 10
25.33684730529785
 20
91.5589599609375
 30
0.0
 11
23.082242965698242
 21
92.15319061279297
 31
0.0
  0
LINE
  8
0
 10
23.082242965698242
 20
92.15319061279297
 30
0.0
 11
20.813730239868164
 21
92.69190216064453
 31
0.0
  0
LINE
  8
0
 10
20.813730239868164
 20
92.69190216064453
 30
0.0
 11
18.532682418823242
 21
93.1747817993164
 31
0.0
  0
LINE
  8
0
 10
18.532682418823242
 20
93.1747817993164
 30
0.0
 11
16.24047088623047
 21
93.60153198242188
 31
0.0
  0
LINE
  8
0
 10
16.24047088623047
 20
93.60153198242188
 30
0.0
 11
13.938477516174316
 21
93.9719009399414
 31
0.0
  0
LINE
  8
0
 10
13.938477516174316
 20
93.9719009399414
 30
0.0
 11
11.62808609008789
 21
94.28567504882812
 31
0.0
  0
LINE
  8
0
 10
11.62808609008789
 20
94.28567504882812
 30
0.0
 11
9.310690879821777
 21
94.54264068603516
 31
0.0
  0
LINE
  8
0
 10
9.310690879821777
 20
94.54264068603516
 30
0.0
 11
6.987688064575195
 21
94.74266815185547
 31
0.0
  0
LINE
  8
0
 10
6.987688064575195
 20
94.74266815185547
 30
0.0
 11
4.660475254058838
 21
94.88561248779297
 31
0.0
  0
LINE
  8
0
 10
4.660475254058838
 20
94.88561248779297
 30
0.0
 11
2.330455780029297
 21
94.9714126586914
 31
0.0
  0
LINE
  8
0
 10
0.0
 20
95.0
 30
0.0
 11
2.330455780029297
 21
94.9714126586914
 31
0.0
  0
ENDSEC
  0
EOF
