  0
SECTION
  2
HEADER
  9
$ACADVER
  1
AC1018
  9
$ACADMAINTVER
 70
     0
  9
$DWGCODEPAGE
  3
ASCII
  9
$INSBASE
 10
0.0
 20
0.0
 30
0.0
  9
$EXTMIN
 10
1.000000000000000E+20
 20
1.000000000000000E+20
 30
1.000000000000000E+20
  9
$EXTMAX
 10
-1.000000000000000E+20
 20
-1.000000000000000E+20
 30
-1.000000000000000E+20
  9
$LIMMIN
 10
0.0
 20
0.0
  9
$LIMMAX
 10
12.0
 20
9.0
  9
$ORTHOMODE
 70
     0
  9
$REGENMODE
 70
     1
  9
$FILLMODE
 70
     1
  9
$QTEXTMODE
 70
     0
  9
$MIRRTEXT
 70
     1
  9
$LTSCALE
 40
1.0
  9
$ATTMODE
 70
     1
  9
$TEXTSIZE
 40
0.2
  9
$TRACEWID
 40
0.05
  9
$TEXTSTYLE
  7
Standard
  9
$CLAYER
  8
0
  9
$CELTYPE
  6
ByLayer
  9
$CECOLOR
 62
   256
  9
$CELTSCALE
 40
1.0
  9
$DISPSILH
 70
     0
  9
$DIMSCALE
 40
1.0
  9
$DIMASZ
 40
0.18
  9
$DIMEXO
 40
0.0625
  9
$DIMDLI
 40
0.38
  9
$DIMRND
 40
0.0
  9
$DIMDLE
 40
0.0
  9
$DIMEXE
 40
0.18
  9
$DIMTP
 40
0.0
  9
$DIMTM
 40
0.0
  9
$DIMTXT
 40
0.18
  9
$DIMCEN
 40
0.09
  9
$DIMTSZ
 40
0.0
  9
$DIMTOL
 70
     0
  9
$DIMLIM
 70
     0
  9
$DIMTIH
 70
     1
  9
$DIMTOH
 70
     1
  9
$DIMSE1
 70
     0
  9
$DIMSE2
 70
     0
  9
$DIMTAD
 70
     0
  9
$DIMZIN
 70
     0
  9
$DIMBLK
  1

  9
$DIMASO
 70
     1
  9
$DIMSHO
 70
     1
  9
$DIMPOST
  1

  9
$DIMAPOST
  1

  9
$DIMALT
 70
     0
  9
$DIMALTD
 70
     2
  9
$DIMALTF
 40
25.4
  9
$DIMLFAC
 40
1.0
  9
$DIMTOFL
 70
     0
  9
$DIMTVP
 40
0.0
  9
$DIMTIX
 70
     0
  9
$DIMSOXD
 70
     0
  9
$DIMSAH
 70
     0
  9
$DIMBLK1
  1

  9
$DIMBLK2
  1

  9
$DIMSTYLE
  2
Standard
  9
$DIMCLRD
 70
     0
  9
$DIMCLRE
 70
     0
  9
$DIMCLRT
 70
     0
  9
$DIMTFAC
 40
1.0
  9
$DIMGAP
 40
0.09
  9
$DIMJUST
 70
     0
  9
$DIMSD1
 70
     0
  9
$DIMSD2
 70
     0
  9
$DIMTOLJ
 70
     1
  9
$DIMTZIN
 70
     0
  9
$DIMALTZ
 70
     0
  9
$DIMALTTZ
 70
     0
  9
$DIMUPT
 70
     0
  9
$DIMDEC
 70
     4
  9
$DIMTDEC
 70
     4
  9
$DIMALTU
 70
     2
  9
$DIMALTTD
 70
     2
  9
$DIMTXSTY
  7
Standard
  9
$DIMAUNIT
 70
     0
  9
$DIMADEC
 70
     0
  9
$DIMALTRND
 40
0.0
  9
$DIMAZIN
 70
     0
  9
$DIMDSEP
 70
    46
  9
$DIMATFIT
 70
     3
  9
$DIMFRAC
 70
     0
  9
$DIMLDRBLK
  1

  9
$DIMLUNIT
 70
     2
  9
$DIMLWD
 70
    -2
  9
$DIMLWE
 70
    -2
  9
$DIMTMOVE
 70
     0
  9
$LUNITS
 70
     2
  9
$LUPREC
 70
     4
  9
$SKETCHINC
 40
0.1
  9
$FILLETRAD
 40
0.5
  9
$AUNITS
 70
     0
  9
$AUPREC
 70
     0
  9
$MENU
  1
.
  9
$ELEVATION
 40
0.0
  9
$PELEVATION
 40
0.0
  9
$THICKNESS
 40
0.0
  9
$LIMCHECK
 70
     0
  9
$CHAMFERA
 40
0.5
  9
$CHAMFERB
 40
0.5
  9
$CHAMFERC
 40
1.0
  9
$CHAMFERD
 40
0.0
  9
$SKPOLY
 70
     0
  9
$TDCREATE
 40
2458171.443928287
  9
$TDUCREATE
 40
2458171.40226162
  9
$TDUPDATE
 40
2458171.443928299
  9
$TDUUPDATE
 40
2458171.402261632
  9
$TDINDWG
 40
0.0000000116
  9
$TDUSRTIMER
 40
0.0000000116
  9
$USRTIMER
 70
     1
  9
$ANGBASE
 50
0.0
  9
$ANGDIR
 70
     0
  9
$PDMODE
 70
     0
  9
$PDSIZE
 40
0.0
  9
$PLINEWID
 40
0.0
  9
$SPLFRAME
 70
     0
  9
$SPLINETYPE
 70
     6
  9
$SPLINESEGS
 70
     8
  9
$HANDSEED
  5
7D
  9
$SURFTAB1
 70
     6
  9
$SURFTAB2
 70
     6
  9
$SURFTYPE
 70
     6
  9
$SURFU
 70
     6
  9
$SURFV
 70
     6
  9
$UCSBASE
  2

  9
$UCSNAME
  2

  9
$UCSORG
 10
0.0
 20
0.0
 30
0.0
  9
$UCSXDIR
 10
1.0
 20
0.0
 30
0.0
  9
$UCSYDIR
 10
0.0
 20
1.0
 30
0.0
  9
$UCSORTHOREF
  2

  9
$UCSORTHOVIEW
 70
     0
  9
$UCSORGTOP
 10
0.0
 20
0.0
 30
0.0
  9
$UCSORGBOTTOM
 10
0.0
 20
0.0
 30
0.0
  9
$UCSORGLEFT
 10
0.0
 20
0.0
 30
0.0
  9
$UCSORGRIGHT
 10
0.0
 20
0.0
 30
0.0
  9
$UCSORGFRONT
 10
0.0
 20
0.0
 30
0.0
  9
$UCSORGBACK
 10
0.0
 20
0.0
 30
0.0
  9
$PUCSBASE
  2

  9
$PUCSNAME
  2

  9
$PUCSORG
 10
0.0
 20
0.0
 30
0.0
  9
$PUCSXDIR
 10
1.0
 20
0.0
 30
0.0
  9
$PUCSYDIR
 10
0.0
 20
1.0
 30
0.0
  9
$PUCSORTHOREF
  2

  9
$PUCSORTHOVIEW
 70
     0
  9
$PUCSORGTOP
 10
0.0
 20
0.0
 30
0.0
  9
$PUCSORGBOTTOM
 10
0.0
 20
0.0
 30
0.0
  9
$PUCSORGLEFT
 10
0.0
 20
0.0
 30
0.0
  9
$PUCSORGRIGHT
 10
0.0
 20
0.0
 30
0.0
  9
$PUCSORGFRONT
 10
0.0
 20
0.0
 30
0.0
  9
$PUCSORGBACK
 10
0.0
 20
0.0
 30
0.0
  9
$USERI1
 70
     0
  9
$USERI2
 70
     0
  9
$USERI3
 70
     0
  9
$USERI4
 70
     0
  9
$USERI5
 70
     0
  9
$USERR1
 40
0.0
  9
$USERR2
 40
0.0
  9
$USERR3
 40
0.0
  9
$USERR4
 40
0.0
  9
$USERR5
 40
0.0
  9
$WORLDVIEW
 70
     1
  9
$SHADEDGE
 70
     3
  9
$SHADEDIF
 70
    70
  9
$TILEMODE
 70
     1
  9
$MAXACTVP
 70
    64
  9
$PINSBASE
 10
0.0
 20
0.0
 30
0.0
  9
$PLIMCHECK
 70
     0
  9
$PEXTMIN
 10
1.000000000000000E+20
 20
1.000000000000000E+20
 30
1.000000000000000E+20
  9
$PEXTMAX
 10
-1.000000000000000E+20
 20
-1.000000000000000E+20
 30
-1.000000000000000E+20
  9
$PLIMMIN
 10
0.0
 20
0.0
  9
$PLIMMAX
 10
12.0
 20
9.0
  9
$UNITMODE
 70
     0
  9
$VISRETAIN
 70
     1
  9
$PLINEGEN
 70
     0
  9
$PSLTSCALE
 70
     1
  9
$TREEDEPTH
 70
  3020
  9
$CMLSTYLE
  2
Standard
  9
$CMLJUST
 70
     0
  9
$CMLSCALE
 40
1.0
  9
$PROXYGRAPHICS
 70
     1
  9
$MEASUREMENT
 70
     0
  9
$CELWEIGHT
370
    -1
  9
$ENDCAPS
280
     0
  9
$JOINSTYLE
280
     0
  9
$LWDISPLAY
290
     1
  9
$INSUNITS
 70
     1
  9
$HYPERLINKBASE
  1

  9
$STYLESHEET
  1

  9
$XEDIT
290
     1
  9
$CEPSNTYPE
380
     0
  9
$PSTYLEMODE
290
     1
  9
$FINGERPRINTGUID
  2
{981AA805-BE47-424E-86FA-F2FBF7462108}
  9
$VERSIONGUID
  2
{FAEB1C32-E019-11D5-929B-00C0DF256EC4}
  9
$EXTNAMES
290
     1
  9
$PSVPSCALE
 40
0.0
  9
$OLESTARTUP
290
     0
  9
$SORTENTS
280
   127
  9
$INDEXCTL
280
     0
  9
$HIDETEXT
280
     1
  9
$XCLIPFRAME
290
     0
  9
$HALOGAP
280
     0
  9
$OBSCOLOR
 70
   257
  9
$OBSLTYPE
280
     0
  9
$INTERSECTIONDISPLAY
280
     0
  9
$INTERSECTIONCOLOR
 70
   257
  9
$DIMASSOC
280
     2
  9
$PROJECTNAME
  1

  0
ENDSEC
  0
SECTION
  2
CLASSES
  0
CLASS
  1
ACDBDICTIONARYWDFLT
  2
AcDbDictionaryWithDefault
  3
ObjectDBX Classes
 90
        0
 91
        3
280
     0
281
     0
  0
CLASS
  1
VISUALSTYLE
  2
AcDbVisualStyle
  3
ObjectDBX Classes
 90
     4095
 91
        3
280
     0
281
     0
  0
ENDSEC
  0
SECTION
  2
TABLES
  0
TABLE
  2
VPORT
  5
8
330
0
100
AcDbSymbolTable
 70
     1
  0
VPORT
  5
29
330
8
100
AcDbSymbolTableRecord
100
AcDbViewportTableRecord
  2
*Active
 70
     0
 10
0.0
 20
0.0
 11
1.0
 21
1.0
 12
0.0
 22
0.0
 13
0.0
 23
0.0
 14
0.5
 24
0.5
 15
0.5
 25
0.5
 16
0.0
 26
0.0
 36
1.0
 17
1224.0
 27
792.0
 37
0.0
 40
1584.0
 41
1.545454545454545
 42
50.0
 43
0.0
 44
0.0
 50
0.0
 51
0.0
 71
     0
 72
   100
 73
     1
 74
     3
 75
     0
 76
     0
 77
     0
 78
     0
281
     0
 65
     1
110
0.0
120
0.0
130
0.0
111
1.0
121
0.0
131
0.0
112
0.0
122
1.0
132
0.0
 79
     0
146
0.0
  0
ENDTAB
  0
TABLE
  2
LTYPE
  5
5
330
0
100
AcDbSymbolTable
 70
     1
  0
LTYPE
  5
14
330
5
100
AcDbSymbolTableRecord
100
AcDbLinetypeTableRecord
  2
ByBlock
 70
     0
  3

 72
    65
 73
     0
 40
0.0
  0
LTYPE
  5
15
330
5
100
AcDbSymbolTableRecord
100
AcDbLinetypeTableRecord
  2
ByLayer
 70
     0
  3

 72
    65
 73
     0
 40
0.0
  0
LTYPE
  5
16
330
5
100
AcDbSymbolTableRecord
100
AcDbLinetypeTableRecord
  2
Continuous
 70
     0
  3
Solid line
 72
    65
 73
     0
 40
0.0
  0
ENDTAB
  0
TABLE
  2
LAYER
  5
2
330
0
100
AcDbSymbolTable
 70
     2
  0
LAYER
  5
10
330
2
100
AcDbSymbolTableRecord
100
AcDbLayerTableRecord
  2
0
 70
     0
 62
     7
  6
Continuous
370
    -3
390
F
  0
LAYER
  5
3B
330
2
100
AcDbSymbolTableRecord
100
AcDbLayerTableRecord
  2
Layer 1
 70
     0
 62
     7
  6
Continuous
370
    -3
390
F
  0
ENDTAB
  0
TABLE
  2
STYLE
  5
3
330
0
100
AcDbSymbolTable
 70
     1
  0
STYLE
  5
11
330
3
100
AcDbSymbolTableRecord
100
AcDbTextStyleTableRecord
  2
Standard
 70
     0
 40
0.0
 41
1.0
 50
0.0
 71
     0
 42
0.2
  3
txt
  4

  0
ENDTAB
  0
TABLE
  2
VIEW
  5
6
330
0
100
AcDbSymbolTable
 70
     0
  0
ENDTAB
  0
TABLE
  2
UCS
  5
7
330
0
100
AcDbSymbolTable
 70
     0
  0
ENDTAB
  0
TABLE
  2
APPID
  5
9
330
0
100
AcDbSymbolTable
 70
     1
  0
APPID
  5
12
330
9
100
AcDbSymbolTableRecord
100
AcDbRegAppTableRecord
  2
ACAD
 70
     0
  0
ENDTAB
  0
TABLE
  2
DIMSTYLE
  5
A
330
0
100
AcDbSymbolTable
 70
     1
100
AcDbDimStyleTable
  0
DIMSTYLE
105
27
330
A
100
AcDbSymbolTableRecord
100
AcDbDimStyleTableRecord
  2
Standard
 70
     0
340
11
  0
ENDTAB
  0
TABLE
  2
BLOCK_RECORD
  5
1
330
0
100
AcDbSymbolTable
 70
    12
  0
BLOCK_RECORD
  5
1F
330
1
100
AcDbSymbolTableRecord
100
AcDbBlockTableRecord
  2
*Model_Space
340
22
  0
BLOCK_RECORD
  5
1B
330
1
100
AcDbSymbolTableRecord
100
AcDbBlockTableRecord
  2
*Paper_Space
340
1E
  0
BLOCK_RECORD
  5
23
330
1
100
AcDbSymbolTableRecord
100
AcDbBlockTableRecord
  2
*Paper_Space0
340
26
  0
BLOCK_RECORD
  5
3C
330
1
100
AcDbSymbolTableRecord
100
AcDbBlockTableRecord
  2
block 2
340
0
102
{BLKREFS
331
3D
102
}
  0
BLOCK_RECORD
  5
40
330
1
100
AcDbSymbolTableRecord
100
AcDbBlockTableRecord
  2
block 3
340
0
102
{BLKREFS
331
41
102
}
  0
BLOCK_RECORD
  5
46
330
1
100
AcDbSymbolTableRecord
100
AcDbBlockTableRecord
  2
block 4
340
0
102
{BLKREFS
331
47
102
}
  0
BLOCK_RECORD
  5
4C
330
1
100
AcDbSymbolTableRecord
100
AcDbBlockTableRecord
  2
block 5
340
0
102
{BLKREFS
331
4D
102
}
  0
BLOCK_RECORD
  5
52
330
1
100
AcDbSymbolTableRecord
100
AcDbBlockTableRecord
  2
block 6
340
0
102
{BLKREFS
331
53
102
}
  0
BLOCK_RECORD
  5
58
330
1
100
AcDbSymbolTableRecord
100
AcDbBlockTableRecord
  2
block 7
340
0
102
{BLKREFS
331
59
102
}
  0
BLOCK_RECORD
  5
5E
330
1
100
AcDbSymbolTableRecord
100
AcDbBlockTableRecord
  2
block 8
340
0
102
{BLKREFS
331
5F
102
}
  0
BLOCK_RECORD
  5
64
330
1
100
AcDbSymbolTableRecord
100
AcDbBlockTableRecord
  2
block 9
340
0
102
{BLKREFS
331
65
102
}
  0
BLOCK_RECORD
  5
6A
330
1
100
AcDbSymbolTableRecord
100
AcDbBlockTableRecord
  2
block 10
340
0
102
{BLKREFS
331
6B
102
}
  0
BLOCK_RECORD
  5
70
330
1
100
AcDbSymbolTableRecord
100
AcDbBlockTableRecord
  2
block 11
340
0
102
{BLKREFS
331
71
102
}
  0
BLOCK_RECORD
  5
76
330
1
100
AcDbSymbolTableRecord
100
AcDbBlockTableRecord
  2
block 12
340
0
102
{BLKREFS
331
77
102
}
  0
ENDTAB
  0
ENDSEC
  0
SECTION
  2
BLOCKS
  0
BLOCK
  5
20
330
1F
100
AcDbEntity
  8
0
100
AcDbBlockBegin
  2
*Model_Space
 70
     0
 71
     0
 10
0.0
 20
0.0
 30
0.0
  3
*Model_Space
  1

  0
ENDBLK
  5
21
330
1F
100
AcDbEntity
  8
0
100
AcDbBlockEnd
  0
BLOCK
  5
1C
330
1B
100
AcDbEntity
 67
     1
  8
0
100
AcDbBlockBegin
  2
*Paper_Space
 70
     0
 71
     0
 10
0.0
 20
0.0
 30
0.0
  3
*Paper_Space
  1

  0
ENDBLK
  5
1D
330
1B
100
AcDbEntity
 67
     1
  8
0
100
AcDbBlockEnd
  0
BLOCK
  5
24
330
23
100
AcDbEntity
  8
0
100
AcDbBlockBegin
  2
*Paper_Space0
 70
     0
 71
     0
 10
0.0
 20
0.0
 30
0.0
  3
*Paper_Space0
  1

  0
ENDBLK
  5
25
330
23
100
AcDbEntity
  8
0
100
AcDbBlockEnd
  0
BLOCK
  5
3E
330
3C
100
AcDbEntity
  8
0
100
AcDbBlockBegin
  2
block 2
 70
     0
 71
     0
 10
0.0
 20
0.0
 30
0.0
  3
block 2
  1

  0
INSERT
  5
41
330
3C
100
AcDbEntity
  8
Layer 1
100
AcDbBlockReference
  2
block 3
 10
0.0
 20
0.0
 30
0.0
  0
INSERT
  5
47
330
3C
100
AcDbEntity
  8
Layer 1
100
AcDbBlockReference
  2
block 4
 10
0.0
 20
0.0
 30
0.0
  0
INSERT
  5
4D
330
3C
100
AcDbEntity
  8
Layer 1
100
AcDbBlockReference
  2
block 5
 10
0.0
 20
0.0
 30
0.0
  0
INSERT
  5
53
330
3C
100
AcDbEntity
  8
Layer 1
100
AcDbBlockReference
  2
block 6
 10
0.0
 20
0.0
 30
0.0
  0
INSERT
  5
59
330
3C
100
AcDbEntity
  8
Layer 1
100
AcDbBlockReference
  2
block 7
 10
0.0
 20
0.0
 30
0.0
  0
INSERT
  5
5F
330
3C
100
AcDbEntity
  8
Layer 1
100
AcDbBlockReference
  2
block 8
 10
0.0
 20
0.0
 30
0.0
  0
INSERT
  5
65
330
3C
100
AcDbEntity
  8
Layer 1
100
AcDbBlockReference
  2
block 9
 10
0.0
 20
0.0
 30
0.0
  0
INSERT
  5
6B
330
3C
100
AcDbEntity
  8
Layer 1
100
AcDbBlockReference
  2
block 10
 10
0.0
 20
0.0
 30
0.0
  0
INSERT
  5
71
330
3C
100
AcDbEntity
  8
Layer 1
100
AcDbBlockReference
  2
block 11
 10
0.0
 20
0.0
 30
0.0
  0
INSERT
  5
77
330
3C
100
AcDbEntity
  8
Layer 1
100
AcDbBlockReference
  2
block 12
 10
0.0
 20
0.0
 30
0.0
  0
ENDBLK
  5
3F
330
3C
100
AcDbEntity
  8
0
100
AcDbBlockEnd
  0
BLOCK
  5
42
330
40
100
AcDbEntity
  8
0
100
AcDbBlockBegin
  2
block 3
 70
     0
 71
     0
 10
0.0
 20
0.0
 30
0.0
  3
block 3
  1

  0
SPLINE
  5
44
330
40
100
AcDbEntity
  8
Layer 1
370
     0
100
AcDbSpline
210
0.0
220
0.0
230
1.0
 70
    11
 71
     3
 72
    41
 73
    37
 74
     0
 42
0.0000000001
 43
0.0000000001
 40
0.0
 40
0.0
 40
0.0
 40
0.0
 40
1.0
 40
1.0
 40
1.0
 40
2.0
 40
2.0
 40
2.0
 40
3.0
 40
3.0
 40
3.0
 40
4.0
 40
4.0
 40
4.0
 40
5.0
 40
5.0
 40
5.0
 40
6.0
 40
6.0
 40
6.0
 40
7.0
 40
7.0
 40
7.0
 40
8.0
 40
8.0
 40
8.0
 40
9.0
 40
9.0
 40
9.0
 40
10.0
 40
10.0
 40
10.0
 40
11.0
 40
11.0
 40
11.0
 40
12.0
 40
12.0
 40
12.0
 40
12.0
 10
937.158203125
 20
803.56005859375
 30
0.0
 10
937.05908203125
 20
803.56005859375
 30
0.0
 10
936.9619140625
 20
803.5947265625
 30
0.0
 10
936.884765625
 20
803.66064453125
 30
0.0
 10
936.775390625
 20
803.75390625
 30
0.0
 10
936.720703125
 20
803.896484375
 30
0.0
 10
936.740234375
 20
804.0390625
 30
0.0
 10
936.740234375
 20
804.0390625
 30
0.0
 10
991.3046875
 20
1204.27197265625
 30
0.0
 10
991.3046875
 20
1204.27197265625
 30
0.0
 10
991.33642578125
 20
1204.50244140625
 30
0.0
 10
991.5478515625
 20
1204.66796875
 30
0.0
 10
991.77978515625
 20
1204.6328125
 30
0.0
 10
992.0107421875
 20
1204.6015625
 30
0.0
 10
992.17236328125
 20
1204.388671875
 30
0.0
 10
992.140625
 20
1204.15771484375
 30
0.0
 10
992.140625
 20
1204.15771484375
 30
0.0
 10
937.6650390625
 20
804.57666015625
 30
0.0
 10
937.6650390625
 20
804.57666015625
 30
0.0
 10
937.6650390625
 20
804.57666015625
 30
0.0
 10
1268.2197265625
 20
904.93603515625
 30
0.0
 10
1268.2197265625
 20
904.93603515625
 30
0.0
 10
1268.4404296875
 20
905.00390625
 30
0.0
 10
1268.677734375
 20
904.87744140625
 30
0.0
 10
1268.7451171875
 20
904.65478515625
 30
0.0
 10
1268.8134765625
 20
904.431640625
 30
0.0
 10
1268.6875
 20
904.1962890625
 30
0.0
 10
1268.4638671875
 20
904.12841796875
 30
0.0
 10
1268.4638671875
 20
904.12841796875
 30
0.0
 10
937.28076171875
 20
803.578125
 30
0.0
 10
937.28076171875
 20
803.578125
 30
0.0
 10
937.24072265625
 20
803.56591796875
 30
0.0
 10
937.19921875
 20
803.56005859375
 30
0.0
 10
937.158203125
 20
803.56005859375
 30
0.0
 10
937.158203125
 20
803.56005859375
 30
0.0
 10
937.158203125
 20
803.56005859375
 30
0.0
 10
937.158203125
 20
803.56005859375
 30
0.0
  0
HATCH
  5
45
330
40
100
AcDbEntity
  8
Layer 1
 62
     7
420
 16777215
100
AcDbHatch
 10
0.0
 20
0.0
 30
0.0
210
0.0
220
0.0
230
1.0
  2
SOLID
 70
     1
 71
     0
 91
        1
 92
        1
 93
        1
 72
     4
 94
        3
 73
     0
 74
     1
 95
       41
 96
       37
 40
0.0
 40
0.0
 40
0.0
 40
0.0
 40
1.0
 40
1.0
 40
1.0
 40
2.0
 40
2.0
 40
2.0
 40
3.0
 40
3.0
 40
3.0
 40
4.0
 40
4.0
 40
4.0
 40
5.0
 40
5.0
 40
5.0
 40
6.0
 40
6.0
 40
6.0
 40
7.0
 40
7.0
 40
7.0
 40
8.0
 40
8.0
 40
8.0
 40
9.0
 40
9.0
 40
9.0
 40
10.0
 40
10.0
 40
10.0
 40
11.0
 40
11.0
 40
11.0
 40
12.0
 40
12.0
 40
12.0
 40
12.0
 10
937.158203125
 20
803.56005859375
 10
937.05908203125
 20
803.56005859375
 10
936.9619140625
 20
803.5947265625
 10
936.884765625
 20
803.66064453125
 10
936.775390625
 20
803.75390625
 10
936.720703125
 20
803.896484375
 10
936.740234375
 20
804.0390625
 10
936.740234375
 20
804.0390625
 10
991.3046875
 20
1204.27197265625
 10
991.3046875
 20
1204.27197265625
 10
991.33642578125
 20
1204.50244140625
 10
991.5478515625
 20
1204.66796875
 10
991.77978515625
 20
1204.6328125
 10
992.0107421875
 20
1204.6015625
 10
992.17236328125
 20
1204.388671875
 10
992.140625
 20
1204.15771484375
 10
992.140625
 20
1204.15771484375
 10
937.6650390625
 20
804.57666015625
 10
937.6650390625
 20
804.57666015625
 10
937.6650390625
 20
804.57666015625
 10
1268.2197265625
 20
904.93603515625
 10
1268.2197265625
 20
904.93603515625
 10
1268.4404296875
 20
905.00390625
 10
1268.677734375
 20
904.87744140625
 10
1268.7451171875
 20
904.65478515625
 10
1268.8134765625
 20
904.431640625
 10
1268.6875
 20
904.1962890625
 10
1268.4638671875
 20
904.12841796875
 10
1268.4638671875
 20
904.12841796875
 10
937.28076171875
 20
803.578125
 10
937.28076171875
 20
803.578125
 10
937.24072265625
 20
803.56591796875
 10
937.19921875
 20
803.56005859375
 10
937.158203125
 20
803.56005859375
 10
937.158203125
 20
803.56005859375
 10
937.158203125
 20
803.56005859375
 10
937.158203125
 20
803.56005859375
 97
        0
 75
     2
 76
     1
 98
        0
  0
ENDBLK
  5
43
330
40
100
AcDbEntity
  8
0
100
AcDbBlockEnd
  0
BLOCK
  5
48
330
46
100
AcDbEntity
  8
0
100
AcDbBlockBegin
  2
block 4
 70
     0
 71
     0
 10
0.0
 20
0.0
 30
0.0
  3
block 4
  1

  0
SPLINE
  5
4A
330
46
100
AcDbEntity
  8
Layer 1
370
     0
100
AcDbSpline
210
0.0
220
0.0
230
1.0
 70
    11
 71
     3
 72
    29
 73
    25
 74
     0
 42
0.0000000001
 43
0.0000000001
 40
0.0
 40
0.0
 40
0.0
 40
0.0
 40
1.0
 40
1.0
 40
1.0
 40
2.0
 40
2.0
 40
2.0
 40
3.0
 40
3.0
 40
3.0
 40
4.0
 40
4.0
 40
4.0
 40
5.0
 40
5.0
 40
5.0
 40
6.0
 40
6.0
 40
6.0
 40
7.0
 40
7.0
 40
7.0
 40
8.0
 40
8.0
 40
8.0
 40
8.0
 10
1158.650390625
 20
1435.27001953125
 30
0.0
 10
1158.46923828125
 20
1435.27001953125
 30
0.0
 10
1158.30224609375
 20
1435.38720703125
 30
0.0
 10
1158.24658203125
 20
1435.5693359375
 30
0.0
 10
1158.17919921875
 20
1435.7919921875
 30
0.0
 10
1158.3046875
 20
1436.02783203125
 30
0.0
 10
1158.52783203125
 20
1436.095703125
 30
0.0
 10
1158.52783203125
 20
1436.095703125
 30
0.0
 10
1245.0146484375
 20
1462.39306640625
 30
0.0
 10
1245.0146484375
 20
1462.39306640625
 30
0.0
 10
1245.240234375
 20
1462.45947265625
 30
0.0
 10
1245.4736328125
 20
1462.33447265625
 30
0.0
 10
1245.541015625
 20
1462.11181640625
 30
0.0
 10
1245.609375
 20
1461.88916015625
 30
0.0
 10
1245.4833984375
 20
1461.6533203125
 30
0.0
 10
1245.2607421875
 20
1461.58544921875
 30
0.0
 10
1245.2607421875
 20
1461.58544921875
 30
0.0
 10
1158.77294921875
 20
1435.2880859375
 30
0.0
 10
1158.77294921875
 20
1435.2880859375
 30
0.0
 10
1158.732421875
 20
1435.27587890625
 30
0.0
 10
1158.69091796875
 20
1435.27001953125
 30
0.0
 10
1158.650390625
 20
1435.27001953125
 30
0.0
 10
1158.650390625
 20
1435.27001953125
 30
0.0
 10
1158.650390625
 20
1435.27001953125
 30
0.0
 10
1158.650390625
 20
1435.27001953125
 30
0.0
  0
HATCH
  5
4B
330
46
100
AcDbEntity
  8
Layer 1
 62
     7
420
 16777215
100
AcDbHatch
 10
0.0
 20
0.0
 30
0.0
210
0.0
220
0.0
230
1.0
  2
SOLID
 70
     1
 71
     0
 91
        1
 92
        1
 93
        1
 72
     4
 94
        3
 73
     0
 74
     1
 95
       29
 96
       25
 40
0.0
 40
0.0
 40
0.0
 40
0.0
 40
1.0
 40
1.0
 40
1.0
 40
2.0
 40
2.0
 40
2.0
 40
3.0
 40
3.0
 40
3.0
 40
4.0
 40
4.0
 40
4.0
 40
5.0
 40
5.0
 40
5.0
 40
6.0
 40
6.0
 40
6.0
 40
7.0
 40
7.0
 40
7.0
 40
8.0
 40
8.0
 40
8.0
 40
8.0
 10
1158.650390625
 20
1435.27001953125
 10
1158.46923828125
 20
1435.27001953125
 10
1158.30224609375
 20
1435.38720703125
 10
1158.24658203125
 20
1435.5693359375
 10
1158.17919921875
 20
1435.7919921875
 10
1158.3046875
 20
1436.02783203125
 10
1158.52783203125
 20
1436.095703125
 10
1158.52783203125
 20
1436.095703125
 10
1245.0146484375
 20
1462.39306640625
 10
1245.0146484375
 20
1462.39306640625
 10
1245.240234375
 20
1462.45947265625
 10
1245.4736328125
 20
1462.33447265625
 10
1245.541015625
 20
1462.11181640625
 10
1245.609375
 20
1461.88916015625
 10
1245.4833984375
 20
1461.6533203125
 10
1245.2607421875
 20
1461.58544921875
 10
1245.2607421875
 20
1461.58544921875
 10
1158.77294921875
 20
1435.2880859375
 10
1158.77294921875
 20
1435.2880859375
 10
1158.732421875
 20
1435.27587890625
 10
1158.69091796875
 20
1435.27001953125
 10
1158.650390625
 20
1435.27001953125
 10
1158.650390625
 20
1435.27001953125
 10
1158.650390625
 20
1435.27001953125
 10
1158.650390625
 20
1435.27001953125
 97
        0
 75
     2
 76
     1
 98
        0
  0
ENDBLK
  5
49
330
46
100
AcDbEntity
  8
0
100
AcDbBlockEnd
  0
BLOCK
  5
4E
330
4C
100
AcDbEntity
  8
0
100
AcDbBlockBegin
  2
block 5
 70
     0
 71
     0
 10
0.0
 20
0.0
 30
0.0
  3
block 5
  1

  0
SPLINE
  5
50
330
4C
100
AcDbEntity
  8
Layer 1
370
     0
100
AcDbSpline
210
0.0
220
0.0
230
1.0
 70
    11
 71
     3
 72
    32
 73
    28
 74
     0
 42
0.0000000001
 43
0.0000000001
 40
0.0
 40
0.0
 40
0.0
 40
0.0
 40
1.0
 40
1.0
 40
1.0
 40
2.0
 40
2.0
 40
2.0
 40
3.0
 40
3.0
 40
3.0
 40
4.0
 40
4.0
 40
4.0
 40
5.0
 40
5.0
 40
5.0
 40
6.0
 40
6.0
 40
6.0
 40
7.0
 40
7.0
 40
7.0
 40
8.0
 40
8.0
 40
8.0
 40
9.0
 40
9.0
 40
9.0
 40
9.0
 10
1268.482421875
 20
1444.34033203125
 30
0.0
 10
1268.2490234375
 20
1444.34033203125
 30
0.0
 10
1268.060546875
 20
1444.529296875
 30
0.0
 10
1268.060546875
 20
1444.76220703125
 30
0.0
 10
1268.060546875
 20
1450.326171875
 30
0.0
 10
1265.392578125
 20
1455.62646484375
 30
0.0
 10
1260.9228515625
 20
1458.9404296875
 30
0.0
 10
1256.451171875
 20
1462.2548828125
 30
0.0
 10
1250.6015625
 20
1463.2666015625
 30
0.0
 10
1245.2822265625
 20
1461.6494140625
 30
0.0
 10
1245.0546875
 20
1461.58203125
 30
0.0
 10
1244.822265625
 20
1461.70849609375
 30
0.0
 10
1244.755859375
 20
1461.9306640625
 30
0.0
 10
1244.6875
 20
1462.1533203125
 30
0.0
 10
1244.8134765625
 20
1462.38916015625
 30
0.0
 10
1245.0361328125
 20
1462.45703125
 30
0.0
 10
1250.6171875
 20
1464.1513671875
 30
0.0
 10
1256.7412109375
 20
1463.0908203125
 30
0.0
 10
1261.4248046875
 20
1459.6181640625
 30
0.0
 10
1266.1083984375
 20
1456.14599609375
 30
0.0
 10
1268.904296875
 20
1450.59228515625
 30
0.0
 10
1268.904296875
 20
1444.76220703125
 30
0.0
 10
1268.904296875
 20
1444.529296875
 30
0.0
 10
1268.7158203125
 20
1444.34033203125
 30
0.0
 10
1268.482421875
 20
1444.34033203125
 30
0.0
 10
1268.482421875
 20
1444.34033203125
 30
0.0
 10
1268.482421875
 20
1444.34033203125
 30
0.0
 10
1268.482421875
 20
1444.34033203125
 30
0.0
  0
HATCH
  5
51
330
4C
100
AcDbEntity
  8
Layer 1
 62
     7
420
 16777215
100
AcDbHatch
 10
0.0
 20
0.0
 30
0.0
210
0.0
220
0.0
230
1.0
  2
SOLID
 70
     1
 71
     0
 91
        1
 92
        1
 93
        1
 72
     4
 94
        3
 73
     0
 74
     1
 95
       32
 96
       28
 40
0.0
 40
0.0
 40
0.0
 40
0.0
 40
1.0
 40
1.0
 40
1.0
 40
2.0
 40
2.0
 40
2.0
 40
3.0
 40
3.0
 40
3.0
 40
4.0
 40
4.0
 40
4.0
 40
5.0
 40
5.0
 40
5.0
 40
6.0
 40
6.0
 40
6.0
 40
7.0
 40
7.0
 40
7.0
 40
8.0
 40
8.0
 40
8.0
 40
9.0
 40
9.0
 40
9.0
 40
9.0
 10
1268.482421875
 20
1444.34033203125
 10
1268.2490234375
 20
1444.34033203125
 10
1268.060546875
 20
1444.529296875
 10
1268.060546875
 20
1444.76220703125
 10
1268.060546875
 20
1450.326171875
 10
1265.392578125
 20
1455.62646484375
 10
1260.9228515625
 20
1458.9404296875
 10
1256.451171875
 20
1462.2548828125
 10
1250.6015625
 20
1463.2666015625
 10
1245.2822265625
 20
1461.6494140625
 10
1245.0546875
 20
1461.58203125
 10
1244.822265625
 20
1461.70849609375
 10
1244.755859375
 20
1461.9306640625
 10
1244.6875
 20
1462.1533203125
 10
1244.8134765625
 20
1462.38916015625
 10
1245.0361328125
 20
1462.45703125
 10
1250.6171875
 20
1464.1513671875
 10
1256.7412109375
 20
1463.0908203125
 10
1261.4248046875
 20
1459.6181640625
 10
1266.1083984375
 20
1456.14599609375
 10
1268.904296875
 20
1450.59228515625
 10
1268.904296875
 20
1444.76220703125
 10
1268.904296875
 20
1444.529296875
 10
1268.7158203125
 20
1444.34033203125
 10
1268.482421875
 20
1444.34033203125
 10
1268.482421875
 20
1444.34033203125
 10
1268.482421875
 20
1444.34033203125
 10
1268.482421875
 20
1444.34033203125
 97
        0
 75
     2
 76
     1
 98
        0
  0
ENDBLK
  5
4F
330
4C
100
AcDbEntity
  8
0
100
AcDbBlockEnd
  0
BLOCK
  5
54
330
52
100
AcDbEntity
  8
0
100
AcDbBlockBegin
  2
block 6
 70
     0
 71
     0
 10
0.0
 20
0.0
 30
0.0
  3
block 6
  1

  0
SPLINE
  5
56
330
52
100
AcDbEntity
  8
Layer 1
370
     0
100
AcDbSpline
210
0.0
220
0.0
230
1.0
 70
    11
 71
     3
 72
    26
 73
    22
 74
     0
 42
0.0000000001
 43
0.0000000001
 40
0.0
 40
0.0
 40
0.0
 40
0.0
 40
1.0
 40
1.0
 40
1.0
 40
2.0
 40
2.0
 40
2.0
 40
3.0
 40
3.0
 40
3.0
 40
4.0
 40
4.0
 40
4.0
 40
5.0
 40
5.0
 40
5.0
 40
6.0
 40
6.0
 40
6.0
 40
7.0
 40
7.0
 40
7.0
 40
7.0
 10
1268.341796875
 20
904.1103515625
 30
0.0
 10
1268.1083984375
 20
904.1103515625
 30
0.0
 10
1267.919921875
 20
904.29931640625
 30
0.0
 10
1267.919921875
 20
904.5322265625
 30
0.0
 10
1267.919921875
 20
904.5322265625
 30
0.0
 10
1267.919921875
 20
1449.8837890625
 30
0.0
 10
1267.919921875
 20
1449.8837890625
 30
0.0
 10
1267.919921875
 20
1450.11669921875
 30
0.0
 10
1268.1083984375
 20
1450.3056640625
 30
0.0
 10
1268.341796875
 20
1450.3056640625
 30
0.0
 10
1268.5751953125
 20
1450.3056640625
 30
0.0
 10
1268.763671875
 20
1450.11669921875
 30
0.0
 10
1268.763671875
 20
1449.8837890625
 30
0.0
 10
1268.763671875
 20
1449.8837890625
 30
0.0
 10
1268.763671875
 20
904.5322265625
 30
0.0
 10
1268.763671875
 20
904.5322265625
 30
0.0
 10
1268.763671875
 20
904.29931640625
 30
0.0
 10
1268.5751953125
 20
904.1103515625
 30
0.0
 10
1268.341796875
 20
904.1103515625
 30
0.0
 10
1268.341796875
 20
904.1103515625
 30
0.0
 10
1268.341796875
 20
904.1103515625
 30
0.0
 10
1268.341796875
 20
904.1103515625
 30
0.0
  0
HATCH
  5
57
330
52
100
AcDbEntity
  8
Layer 1
 62
     7
420
 16777215
100
AcDbHatch
 10
0.0
 20
0.0
 30
0.0
210
0.0
220
0.0
230
1.0
  2
SOLID
 70
     1
 71
     0
 91
        1
 92
        1
 93
        1
 72
     4
 94
        3
 73
     0
 74
     1
 95
       26
 96
       22
 40
0.0
 40
0.0
 40
0.0
 40
0.0
 40
1.0
 40
1.0
 40
1.0
 40
2.0
 40
2.0
 40
2.0
 40
3.0
 40
3.0
 40
3.0
 40
4.0
 40
4.0
 40
4.0
 40
5.0
 40
5.0
 40
5.0
 40
6.0
 40
6.0
 40
6.0
 40
7.0
 40
7.0
 40
7.0
 40
7.0
 10
1268.341796875
 20
904.1103515625
 10
1268.1083984375
 20
904.1103515625
 10
1267.919921875
 20
904.29931640625
 10
1267.919921875
 20
904.5322265625
 10
1267.919921875
 20
904.5322265625
 10
1267.919921875
 20
1449.8837890625
 10
1267.919921875
 20
1449.8837890625
 10
1267.919921875
 20
1450.11669921875
 10
1268.1083984375
 20
1450.3056640625
 10
1268.341796875
 20
1450.3056640625
 10
1268.5751953125
 20
1450.3056640625
 10
1268.763671875
 20
1450.11669921875
 10
1268.763671875
 20
1449.8837890625
 10
1268.763671875
 20
1449.8837890625
 10
1268.763671875
 20
904.5322265625
 10
1268.763671875
 20
904.5322265625
 10
1268.763671875
 20
904.29931640625
 10
1268.5751953125
 20
904.1103515625
 10
1268.341796875
 20
904.1103515625
 10
1268.341796875
 20
904.1103515625
 10
1268.341796875
 20
904.1103515625
 10
1268.341796875
 20
904.1103515625
 97
        0
 75
     2
 76
     1
 98
        0
  0
ENDBLK
  5
55
330
52
100
AcDbEntity
  8
0
100
AcDbBlockEnd
  0
BLOCK
  5
5A
330
58
100
AcDbEntity
  8
0
100
AcDbBlockBegin
  2
block 7
 70
     0
 71
     0
 10
0.0
 20
0.0
 30
0.0
  3
block 7
  1

  0
SPLINE
  5
5C
330
58
100
AcDbEntity
  8
Layer 1
370
     0
100
AcDbSpline
210
0.0
220
0.0
230
1.0
 70
    11
 71
     3
 72
   221
 73
   217
 74
     0
 42
0.0000000001
 43
0.0000000001
 40
0.0
 40
0.0
 40
0.0
 40
0.0
 40
1.0
 40
1.0
 40
1.0
 40
2.0
 40
2.0
 40
2.0
 40
3.0
 40
3.0
 40
3.0
 40
4.0
 40
4.0
 40
4.0
 40
5.0
 40
5.0
 40
5.0
 40
6.0
 40
6.0
 40
6.0
 40
7.0
 40
7.0
 40
7.0
 40
8.0
 40
8.0
 40
8.0
 40
9.0
 40
9.0
 40
9.0
 40
10.0
 40
10.0
 40
10.0
 40
11.0
 40
11.0
 40
11.0
 40
12.0
 40
12.0
 40
12.0
 40
13.0
 40
13.0
 40
13.0
 40
14.0
 40
14.0
 40
14.0
 40
15.0
 40
15.0
 40
15.0
 40
16.0
 40
16.0
 40
16.0
 40
17.0
 40
17.0
 40
17.0
 40
18.0
 40
18.0
 40
18.0
 40
19.0
 40
19.0
 40
19.0
 40
20.0
 40
20.0
 40
20.0
 40
21.0
 40
21.0
 40
21.0
 40
22.0
 40
22.0
 40
22.0
 40
23.0
 40
23.0
 40
23.0
 40
24.0
 40
24.0
 40
24.0
 40
25.0
 40
25.0
 40
25.0
 40
26.0
 40
26.0
 40
26.0
 40
27.0
 40
27.0
 40
27.0
 40
28.0
 40
28.0
 40
28.0
 40
29.0
 40
29.0
 40
29.0
 40
30.0
 40
30.0
 40
30.0
 40
31.0
 40
31.0
 40
31.0
 40
32.0
 40
32.0
 40
32.0
 40
33.0
 40
33.0
 40
33.0
 40
34.0
 40
34.0
 40
34.0
 40
35.0
 40
35.0
 40
35.0
 40
36.0
 40
36.0
 40
36.0
 40
37.0
 40
37.0
 40
37.0
 40
38.0
 40
38.0
 40
38.0
 40
39.0
 40
39.0
 40
39.0
 40
40.0
 40
40.0
 40
40.0
 40
41.0
 40
41.0
 40
41.0
 40
42.0
 40
42.0
 40
42.0
 40
43.0
 40
43.0
 40
43.0
 40
44.0
 40
44.0
 40
44.0
 40
45.0
 40
45.0
 40
45.0
 40
46.0
 40
46.0
 40
46.0
 40
47.0
 40
47.0
 40
47.0
 40
48.0
 40
48.0
 40
48.0
 40
49.0
 40
49.0
 40
49.0
 40
50.0
 40
50.0
 40
50.0
 40
51.0
 40
51.0
 40
51.0
 40
52.0
 40
52.0
 40
52.0
 40
53.0
 40
53.0
 40
53.0
 40
54.0
 40
54.0
 40
54.0
 40
55.0
 40
55.0
 40
55.0
 40
56.0
 40
56.0
 40
56.0
 40
57.0
 40
57.0
 40
57.0
 40
58.0
 40
58.0
 40
58.0
 40
59.0
 40
59.0
 40
59.0
 40
60.0
 40
60.0
 40
60.0
 40
61.0
 40
61.0
 40
61.0
 40
62.0
 40
62.0
 40
62.0
 40
63.0
 40
63.0
 40
63.0
 40
64.0
 40
64.0
 40
64.0
 40
65.0
 40
65.0
 40
65.0
 40
66.0
 40
66.0
 40
66.0
 40
67.0
 40
67.0
 40
67.0
 40
68.0
 40
68.0
 40
68.0
 40
69.0
 40
69.0
 40
69.0
 40
70.0
 40
70.0
 40
70.0
 40
71.0
 40
71.0
 40
71.0
 40
72.0
 40
72.0
 40
72.0
 40
72.0
 10
991.72314453125
 20
1203.79296875
 30
0.0
 10
991.69970703125
 20
1203.79296875
 30
0.0
 10
991.67626953125
 20
1203.794921875
 30
0.0
 10
991.65234375
 20
1203.798828125
 30
0.0
 10
991.42236328125
 20
1203.837890625
 30
0.0
 10
991.267578125
 20
1204.0556640625
 30
0.0
 10
991.306640625
 20
1204.28515625
 30
0.0
 10
991.306640625
 20
1204.28515625
 30
0.0
 10
992.853515625
 20
1213.42578125
 30
0.0
 10
992.853515625
 20
1213.42578125
 30
0.0
 10
992.853515625
 20
1213.42578125
 30
0.0
 10
994.5419921875
 20
1222.712890625
 30
0.0
 10
994.5419921875
 20
1222.712890625
 30
0.0
 10
994.5419921875
 20
1222.712890625
 30
0.0
 10
996.513671875
 20
1231.8671875
 30
0.0
 10
996.513671875
 20
1231.8671875
 30
0.0
 10
996.513671875
 20
1231.8671875
 30
0.0
 10
998.7666015625
 20
1241.01953125
 30
0.0
 10
998.7666015625
 20
1241.01953125
 30
0.0
 10
998.7666015625
 20
1241.01953125
 30
0.0
 10
1001.1591796875
 20
1250.02783203125
 30
0.0
 10
1001.1591796875
 20
1250.02783203125
 30
0.0
 10
1001.1591796875
 20
1250.02783203125
 30
0.0
 10
1003.97705078125
 20
1258.90673828125
 30
0.0
 10
1003.97705078125
 20
1258.90673828125
 30
0.0
 10
1003.97705078125
 20
1258.90673828125
 30
0.0
 10
1006.93212890625
 20
1267.91064453125
 30
0.0
 10
1006.93212890625
 20
1267.91064453125
 30
0.0
 10
1006.93212890625
 20
1267.91064453125
 30
0.0
 10
1010.171875
 20
1276.6455078125
 30
0.0
 10
1010.171875
 20
1276.6455078125
 30
0.0
 10
1010.171875
 20
1276.6455078125
 30
0.0
 10
1013.69189453125
 20
1285.37548828125
 30
0.0
 10
1013.69189453125
 20
1285.37548828125
 30
0.0
 10
1013.69189453125
 20
1285.37548828125
 30
0.0
 10
1017.35107421875
 20
1293.96142578125
 30
0.0
 10
1017.35107421875
 20
1293.96142578125
 30
0.0
 10
1017.35107421875
 20
1293.96142578125
 30
0.0
 10
1021.29345703125
 20
1302.55029296875
 30
0.0
 10
1021.29345703125
 20
1302.55029296875
 30
0.0
 10
1021.29345703125
 20
1302.55029296875
 30
0.0
 10
1025.376953125
 20
1310.85791015625
 30
0.0
 10
1025.376953125
 20
1310.85791015625
 30
0.0
 10
1025.376953125
 20
1310.85791015625
 30
0.0
 10
1029.7412109375
 20
1319.1650390625
 30
0.0
 10
1029.7412109375
 20
1319.1650390625
 30
0.0
 10
1029.7412109375
 20
1319.1650390625
 30
0.0
 10
1034.38916015625
 20
1327.333984375
 30
0.0
 10
1034.38916015625
 20
1327.333984375
 30
0.0
 10
1034.38916015625
 20
1327.333984375
 30
0.0
 10
1039.318359375
 20
1335.36181640625
 30
0.0
 10
1039.318359375
 20
1335.36181640625
 30
0.0
 10
1039.318359375
 20
1335.36181640625
 30
0.0
 10
1044.38525390625
 20
1343.24462890625
 30
0.0
 10
1044.38525390625
 20
1343.24462890625
 30
0.0
 10
1044.38525390625
 20
1343.24462890625
 30
0.0
 10
1049.59326171875
 20
1350.986328125
 30
0.0
 10
1049.59326171875
 20
1350.986328125
 30
0.0
 10
1049.59326171875
 20
1350.986328125
 30
0.0
 10
1055.22998046875
 20
1358.59619140625
 30
0.0
 10
1055.22998046875
 20
1358.59619140625
 30
0.0
 10
1055.22998046875
 20
1358.59619140625
 30
0.0
 10
1061.00390625
 20
1365.91943359375
 30
0.0
 10
1061.00390625
 20
1365.91943359375
 30
0.0
 10
1061.00390625
 20
1365.91943359375
 30
0.0
 10
1066.91552734375
 20
1373.09814453125
 30
0.0
 10
1066.91552734375
 20
1373.09814453125
 30
0.0
 10
1066.91552734375
 20
1373.09814453125
 30
0.0
 10
1073.255859375
 20
1380.1435546875
 30
0.0
 10
1073.255859375
 20
1380.1435546875
 30
0.0
 10
1073.255859375
 20
1380.1435546875
 30
0.0
 10
1079.73388671875
 20
1386.90380859375
 30
0.0
 10
1079.73388671875
 20
1386.90380859375
 30
0.0
 10
1079.73388671875
 20
1386.90380859375
 30
0.0
 10
1086.49658203125
 20
1393.3857421875
 30
0.0
 10
1086.49658203125
 20
1393.3857421875
 30
0.0
 10
1086.49658203125
 20
1393.3857421875
 30
0.0
 10
1093.54150390625
 20
1399.58544921875
 30
0.0
 10
1093.54150390625
 20
1399.58544921875
 30
0.0
 10
1093.54150390625
 20
1399.58544921875
 30
0.0
 10
1100.86767578125
 20
1405.5029296875
 30
0.0
 10
1100.86767578125
 20
1405.5029296875
 30
0.0
 10
1100.86767578125
 20
1405.5029296875
 30
0.0
 10
1108.33203125
 20
1411.13720703125
 30
0.0
 10
1108.33203125
 20
1411.13720703125
 30
0.0
 10
1108.33203125
 20
1411.13720703125
 30
0.0
 10
1116.2294921875
 20
1416.35546875
 30
0.0
 10
1116.2294921875
 20
1416.35546875
 30
0.0
 10
1116.2294921875
 20
1416.35546875
 30
0.0
 10
1124.26123046875
 20
1421.1474609375
 30
0.0
 10
1124.26123046875
 20
1421.1474609375
 30
0.0
 10
1124.26123046875
 20
1421.1474609375
 30
0.0
 10
1132.43017578125
 20
1425.65478515625
 30
0.0
 10
1132.43017578125
 20
1425.65478515625
 30
0.0
 10
1132.43017578125
 20
1425.65478515625
 30
0.0
 10
1141.03662109375
 20
1429.60595703125
 30
0.0
 10
1141.03662109375
 20
1429.60595703125
 30
0.0
 10
1141.03662109375
 20
1429.60595703125
 30
0.0
 10
1145.263671875
 20
1431.43798828125
 30
0.0
 10
1145.263671875
 20
1431.43798828125
 30
0.0
 10
1145.263671875
 20
1431.43798828125
 30
0.0
 10
1149.638671875
 20
1433.1318359375
 30
0.0
 10
1149.638671875
 20
1433.1318359375
 30
0.0
 10
1149.638671875
 20
1433.1318359375
 30
0.0
 10
1158.51708984375
 20
1436.09228515625
 30
0.0
 10
1158.51708984375
 20
1436.09228515625
 30
0.0
 10
1158.73779296875
 20
1436.16650390625
 30
0.0
 10
1158.9765625
 20
1436.0458984375
 30
0.0
 10
1159.05078125
 20
1435.8251953125
 30
0.0
 10
1159.12451171875
 20
1435.6044921875
 30
0.0
 10
1159.0048828125
 20
1435.365234375
 30
0.0
 10
1158.78369140625
 20
1435.29150390625
 30
0.0
 10
1158.78369140625
 20
1435.29150390625
 30
0.0
 10
1149.92431640625
 20
1432.337890625
 30
0.0
 10
1149.92431640625
 20
1432.337890625
 30
0.0
 10
1149.92431640625
 20
1432.337890625
 30
0.0
 10
1145.583984375
 20
1430.6572265625
 30
0.0
 10
1145.583984375
 20
1430.6572265625
 30
0.0
 10
1145.583984375
 20
1430.6572265625
 30
0.0
 10
1141.38037109375
 20
1428.83544921875
 30
0.0
 10
1141.38037109375
 20
1428.83544921875
 30
0.0
 10
1141.38037109375
 20
1428.83544921875
 30
0.0
 10
1132.8095703125
 20
1424.90185546875
 30
0.0
 10
1132.8095703125
 20
1424.90185546875
 30
0.0
 10
1132.8095703125
 20
1424.90185546875
 30
0.0
 10
1124.68115234375
 20
1420.416015625
 30
0.0
 10
1124.68115234375
 20
1420.416015625
 30
0.0
 10
1124.68115234375
 20
1420.416015625
 30
0.0
 10
1116.67822265625
 20
1415.64111328125
 30
0.0
 10
1116.67822265625
 20
1415.64111328125
 30
0.0
 10
1116.67822265625
 20
1415.64111328125
 30
0.0
 10
1108.81884765625
 20
1410.4482421875
 30
0.0
 10
1108.81884765625
 20
1410.4482421875
 30
0.0
 10
1108.81884765625
 20
1410.4482421875
 30
0.0
 10
1101.38720703125
 20
1404.837890625
 30
0.0
 10
1101.38720703125
 20
1404.837890625
 30
0.0
 10
1101.38720703125
 20
1404.837890625
 30
0.0
 10
1094.08544921875
 20
1398.9404296875
 30
0.0
 10
1094.08544921875
 20
1398.9404296875
 30
0.0
 10
1094.08544921875
 20
1398.9404296875
 30
0.0
 10
1087.0673828125
 20
1392.76416015625
 30
0.0
 10
1087.0673828125
 20
1392.76416015625
 30
0.0
 10
1087.0673828125
 20
1392.76416015625
 30
0.0
 10
1080.33056640625
 20
1386.30712890625
 30
0.0
 10
1080.33056640625
 20
1386.30712890625
 30
0.0
 10
1080.33056640625
 20
1386.30712890625
 30
0.0
 10
1073.8740234375
 20
1379.5693359375
 30
0.0
 10
1073.8740234375
 20
1379.5693359375
 30
0.0
 10
1073.8740234375
 20
1379.5693359375
 30
0.0
 10
1067.5546875
 20
1372.5478515625
 30
0.0
 10
1067.5546875
 20
1372.5478515625
 30
0.0
 10
1067.5546875
 20
1372.5478515625
 30
0.0
 10
1061.66064453125
 20
1365.39013671875
 30
0.0
 10
1061.66064453125
 20
1365.39013671875
 30
0.0
 10
1061.66064453125
 20
1365.39013671875
 30
0.0
 10
1055.89990234375
 20
1358.083984375
 30
0.0
 10
1055.89990234375
 20
1358.083984375
 30
0.0
 10
1055.89990234375
 20
1358.083984375
 30
0.0
 10
1050.2822265625
 20
1350.5
 30
0.0
 10
1050.2822265625
 20
1350.5
 30
0.0
 10
1050.2822265625
 20
1350.5
 30
0.0
 10
1045.09033203125
 20
1342.78125
 30
0.0
 10
1045.09033203125
 20
1342.78125
 30
0.0
 10
1045.09033203125
 20
1342.78125
 30
0.0
 10
1040.03271484375
 20
1334.9130859375
 30
0.0
 10
1040.03271484375
 20
1334.9130859375
 30
0.0
 10
1040.03271484375
 20
1334.9130859375
 30
0.0
 10
1035.115234375
 20
1326.90478515625
 30
0.0
 10
1035.115234375
 20
1326.90478515625
 30
0.0
 10
1035.115234375
 20
1326.90478515625
 30
0.0
 10
1030.4814453125
 20
1318.76025390625
 30
0.0
 10
1030.4814453125
 20
1318.76025390625
 30
0.0
 10
1030.4814453125
 20
1318.76025390625
 30
0.0
 10
1026.12890625
 20
1310.4755859375
 30
0.0
 10
1026.12890625
 20
1310.4755859375
 30
0.0
 10
1026.12890625
 20
1310.4755859375
 30
0.0
 10
1022.05517578125
 20
1302.1884765625
 30
0.0
 10
1022.05517578125
 20
1302.1884765625
 30
0.0
 10
1022.05517578125
 20
1302.1884765625
 30
0.0
 10
1018.12255859375
 20
1293.6201171875
 30
0.0
 10
1018.12255859375
 20
1293.6201171875
 30
0.0
 10
1018.12255859375
 20
1293.6201171875
 30
0.0
 10
1014.47119140625
 20
1285.05224609375
 30
0.0
 10
1014.47119140625
 20
1285.05224609375
 30
0.0
 10
1014.47119140625
 20
1285.05224609375
 30
0.0
 10
1010.95849609375
 20
1276.3408203125
 30
0.0
 10
1010.95849609375
 20
1276.3408203125
 30
0.0
 10
1010.95849609375
 20
1276.3408203125
 30
0.0
 10
1007.728515625
 20
1267.63232421875
 30
0.0
 10
1007.728515625
 20
1267.63232421875
 30
0.0
 10
1007.728515625
 20
1267.63232421875
 30
0.0
 10
1004.7802734375
 20
1258.64794921875
 30
0.0
 10
1004.7802734375
 20
1258.64794921875
 30
0.0
 10
1004.7802734375
 20
1258.64794921875
 30
0.0
 10
1001.96923828125
 20
1249.7919921875
 30
0.0
 10
1001.96923828125
 20
1249.7919921875
 30
0.0
 10
1001.96923828125
 20
1249.7919921875
 30
0.0
 10
999.583984375
 20
1240.810546875
 30
0.0
 10
999.583984375
 20
1240.810546875
 30
0.0
 10
999.583984375
 20
1240.810546875
 30
0.0
 10
997.3359375
 20
1231.67724609375
 30
0.0
 10
997.3359375
 20
1231.67724609375
 30
0.0
 10
997.3359375
 20
1231.67724609375
 30
0.0
 10
995.36962890625
 20
1222.54833984375
 30
0.0
 10
995.36962890625
 20
1222.54833984375
 30
0.0
 10
995.36962890625
 20
1222.54833984375
 30
0.0
 10
993.6845703125
 20
1213.27978515625
 30
0.0
 10
993.6845703125
 20
1213.27978515625
 30
0.0
 10
993.6845703125
 20
1213.27978515625
 30
0.0
 10
992.138671875
 20
1204.14453125
 30
0.0
 10
992.138671875
 20
1204.14453125
 30
0.0
 10
992.10400390625
 20
1203.9384765625
 30
0.0
 10
991.92529296875
 20
1203.79296875
 30
0.0
 10
991.72314453125
 20
1203.79296875
 30
0.0
 10
991.72314453125
 20
1203.79296875
 30
0.0
 10
991.72314453125
 20
1203.79296875
 30
0.0
 10
991.72314453125
 20
1203.79296875
 30
0.0
  0
HATCH
  5
5D
330
58
100
AcDbEntity
  8
Layer 1
 62
     7
420
 16777215
100
AcDbHatch
 10
0.0
 20
0.0
 30
0.0
210
0.0
220
0.0
230
1.0
  2
SOLID
 70
     1
 71
     0
 91
        1
 92
        1
 93
        1
 72
     4
 94
        3
 73
     0
 74
     1
 95
      221
 96
      217
 40
0.0
 40
0.0
 40
0.0
 40
0.0
 40
1.0
 40
1.0
 40
1.0
 40
2.0
 40
2.0
 40
2.0
 40
3.0
 40
3.0
 40
3.0
 40
4.0
 40
4.0
 40
4.0
 40
5.0
 40
5.0
 40
5.0
 40
6.0
 40
6.0
 40
6.0
 40
7.0
 40
7.0
 40
7.0
 40
8.0
 40
8.0
 40
8.0
 40
9.0
 40
9.0
 40
9.0
 40
10.0
 40
10.0
 40
10.0
 40
11.0
 40
11.0
 40
11.0
 40
12.0
 40
12.0
 40
12.0
 40
13.0
 40
13.0
 40
13.0
 40
14.0
 40
14.0
 40
14.0
 40
15.0
 40
15.0
 40
15.0
 40
16.0
 40
16.0
 40
16.0
 40
17.0
 40
17.0
 40
17.0
 40
18.0
 40
18.0
 40
18.0
 40
19.0
 40
19.0
 40
19.0
 40
20.0
 40
20.0
 40
20.0
 40
21.0
 40
21.0
 40
21.0
 40
22.0
 40
22.0
 40
22.0
 40
23.0
 40
23.0
 40
23.0
 40
24.0
 40
24.0
 40
24.0
 40
25.0
 40
25.0
 40
25.0
 40
26.0
 40
26.0
 40
26.0
 40
27.0
 40
27.0
 40
27.0
 40
28.0
 40
28.0
 40
28.0
 40
29.0
 40
29.0
 40
29.0
 40
30.0
 40
30.0
 40
30.0
 40
31.0
 40
31.0
 40
31.0
 40
32.0
 40
32.0
 40
32.0
 40
33.0
 40
33.0
 40
33.0
 40
34.0
 40
34.0
 40
34.0
 40
35.0
 40
35.0
 40
35.0
 40
36.0
 40
36.0
 40
36.0
 40
37.0
 40
37.0
 40
37.0
 40
38.0
 40
38.0
 40
38.0
 40
39.0
 40
39.0
 40
39.0
 40
40.0
 40
40.0
 40
40.0
 40
41.0
 40
41.0
 40
41.0
 40
42.0
 40
42.0
 40
42.0
 40
43.0
 40
43.0
 40
43.0
 40
44.0
 40
44.0
 40
44.0
 40
45.0
 40
45.0
 40
45.0
 40
46.0
 40
46.0
 40
46.0
 40
47.0
 40
47.0
 40
47.0
 40
48.0
 40
48.0
 40
48.0
 40
49.0
 40
49.0
 40
49.0
 40
50.0
 40
50.0
 40
50.0
 40
51.0
 40
51.0
 40
51.0
 40
52.0
 40
52.0
 40
52.0
 40
53.0
 40
53.0
 40
53.0
 40
54.0
 40
54.0
 40
54.0
 40
55.0
 40
55.0
 40
55.0
 40
56.0
 40
56.0
 40
56.0
 40
57.0
 40
57.0
 40
57.0
 40
58.0
 40
58.0
 40
58.0
 40
59.0
 40
59.0
 40
59.0
 40
60.0
 40
60.0
 40
60.0
 40
61.0
 40
61.0
 40
61.0
 40
62.0
 40
62.0
 40
62.0
 40
63.0
 40
63.0
 40
63.0
 40
64.0
 40
64.0
 40
64.0
 40
65.0
 40
65.0
 40
65.0
 40
66.0
 40
66.0
 40
66.0
 40
67.0
 40
67.0
 40
67.0
 40
68.0
 40
68.0
 40
68.0
 40
69.0
 40
69.0
 40
69.0
 40
70.0
 40
70.0
 40
70.0
 40
71.0
 40
71.0
 40
71.0
 40
72.0
 40
72.0
 40
72.0
 40
72.0
 10
991.72314453125
 20
1203.79296875
 10
991.69970703125
 20
1203.79296875
 10
991.67626953125
 20
1203.794921875
 10
991.65234375
 20
1203.798828125
 10
991.42236328125
 20
1203.837890625
 10
991.267578125
 20
1204.0556640625
 10
991.306640625
 20
1204.28515625
 10
991.306640625
 20
1204.28515625
 10
992.853515625
 20
1213.42578125
 10
992.853515625
 20
1213.42578125
 10
992.853515625
 20
1213.42578125
 10
994.5419921875
 20
1222.712890625
 10
994.5419921875
 20
1222.712890625
 10
994.5419921875
 20
1222.712890625
 10
996.513671875
 20
1231.8671875
 10
996.513671875
 20
1231.8671875
 10
996.513671875
 20
1231.8671875
 10
998.7666015625
 20
1241.01953125
 10
998.7666015625
 20
1241.01953125
 10
998.7666015625
 20
1241.01953125
 10
1001.1591796875
 20
1250.02783203125
 10
1001.1591796875
 20
1250.02783203125
 10
1001.1591796875
 20
1250.02783203125
 10
1003.97705078125
 20
1258.90673828125
 10
1003.97705078125
 20
1258.90673828125
 10
1003.97705078125
 20
1258.90673828125
 10
1006.93212890625
 20
1267.91064453125
 10
1006.93212890625
 20
1267.91064453125
 10
1006.93212890625
 20
1267.91064453125
 10
1010.171875
 20
1276.6455078125
 10
1010.171875
 20
1276.6455078125
 10
1010.171875
 20
1276.6455078125
 10
1013.69189453125
 20
1285.37548828125
 10
1013.69189453125
 20
1285.37548828125
 10
1013.69189453125
 20
1285.37548828125
 10
1017.35107421875
 20
1293.96142578125
 10
1017.35107421875
 20
1293.96142578125
 10
1017.35107421875
 20
1293.96142578125
 10
1021.29345703125
 20
1302.55029296875
 10
1021.29345703125
 20
1302.55029296875
 10
1021.29345703125
 20
1302.55029296875
 10
1025.376953125
 20
1310.85791015625
 10
1025.376953125
 20
1310.85791015625
 10
1025.376953125
 20
1310.85791015625
 10
1029.7412109375
 20
1319.1650390625
 10
1029.7412109375
 20
1319.1650390625
 10
1029.7412109375
 20
1319.1650390625
 10
1034.38916015625
 20
1327.333984375
 10
1034.38916015625
 20
1327.333984375
 10
1034.38916015625
 20
1327.333984375
 10
1039.318359375
 20
1335.36181640625
 10
1039.318359375
 20
1335.36181640625
 10
1039.318359375
 20
1335.36181640625
 10
1044.38525390625
 20
1343.24462890625
 10
1044.38525390625
 20
1343.24462890625
 10
1044.38525390625
 20
1343.24462890625
 10
1049.59326171875
 20
1350.986328125
 10
1049.59326171875
 20
1350.986328125
 10
1049.59326171875
 20
1350.986328125
 10
1055.22998046875
 20
1358.59619140625
 10
1055.22998046875
 20
1358.59619140625
 10
1055.22998046875
 20
1358.59619140625
 10
1061.00390625
 20
1365.91943359375
 10
1061.00390625
 20
1365.91943359375
 10
1061.00390625
 20
1365.91943359375
 10
1066.91552734375
 20
1373.09814453125
 10
1066.91552734375
 20
1373.09814453125
 10
1066.91552734375
 20
1373.09814453125
 10
1073.255859375
 20
1380.1435546875
 10
1073.255859375
 20
1380.1435546875
 10
1073.255859375
 20
1380.1435546875
 10
1079.73388671875
 20
1386.90380859375
 10
1079.73388671875
 20
1386.90380859375
 10
1079.73388671875
 20
1386.90380859375
 10
1086.49658203125
 20
1393.3857421875
 10
1086.49658203125
 20
1393.3857421875
 10
1086.49658203125
 20
1393.3857421875
 10
1093.54150390625
 20
1399.58544921875
 10
1093.54150390625
 20
1399.58544921875
 10
1093.54150390625
 20
1399.58544921875
 10
1100.86767578125
 20
1405.5029296875
 10
1100.86767578125
 20
1405.5029296875
 10
1100.86767578125
 20
1405.5029296875
 10
1108.33203125
 20
1411.13720703125
 10
1108.33203125
 20
1411.13720703125
 10
1108.33203125
 20
1411.13720703125
 10
1116.2294921875
 20
1416.35546875
 10
1116.2294921875
 20
1416.35546875
 10
1116.2294921875
 20
1416.35546875
 10
1124.26123046875
 20
1421.1474609375
 10
1124.26123046875
 20
1421.1474609375
 10
1124.26123046875
 20
1421.1474609375
 10
1132.43017578125
 20
1425.65478515625
 10
1132.43017578125
 20
1425.65478515625
 10
1132.43017578125
 20
1425.65478515625
 10
1141.03662109375
 20
1429.60595703125
 10
1141.03662109375
 20
1429.60595703125
 10
1141.03662109375
 20
1429.60595703125
 10
1145.263671875
 20
1431.43798828125
 10
1145.263671875
 20
1431.43798828125
 10
1145.263671875
 20
1431.43798828125
 10
1149.638671875
 20
1433.1318359375
 10
1149.638671875
 20
1433.1318359375
 10
1149.638671875
 20
1433.1318359375
 10
1158.51708984375
 20
1436.09228515625
 10
1158.51708984375
 20
1436.09228515625
 10
1158.73779296875
 20
1436.16650390625
 10
1158.9765625
 20
1436.0458984375
 10
1159.05078125
 20
1435.8251953125
 10
1159.12451171875
 20
1435.6044921875
 10
1159.0048828125
 20
1435.365234375
 10
1158.78369140625
 20
1435.29150390625
 10
1158.78369140625
 20
1435.29150390625
 10
1149.92431640625
 20
1432.337890625
 10
1149.92431640625
 20
1432.337890625
 10
1149.92431640625
 20
1432.337890625
 10
1145.583984375
 20
1430.6572265625
 10
1145.583984375
 20
1430.6572265625
 10
1145.583984375
 20
1430.6572265625
 10
1141.38037109375
 20
1428.83544921875
 10
1141.38037109375
 20
1428.83544921875
 10
1141.38037109375
 20
1428.83544921875
 10
1132.8095703125
 20
1424.90185546875
 10
1132.8095703125
 20
1424.90185546875
 10
1132.8095703125
 20
1424.90185546875
 10
1124.68115234375
 20
1420.416015625
 10
1124.68115234375
 20
1420.416015625
 10
1124.68115234375
 20
1420.416015625
 10
1116.67822265625
 20
1415.64111328125
 10
1116.67822265625
 20
1415.64111328125
 10
1116.67822265625
 20
1415.64111328125
 10
1108.81884765625
 20
1410.4482421875
 10
1108.81884765625
 20
1410.4482421875
 10
1108.81884765625
 20
1410.4482421875
 10
1101.38720703125
 20
1404.837890625
 10
1101.38720703125
 20
1404.837890625
 10
1101.38720703125
 20
1404.837890625
 10
1094.08544921875
 20
1398.9404296875
 10
1094.08544921875
 20
1398.9404296875
 10
1094.08544921875
 20
1398.9404296875
 10
1087.0673828125
 20
1392.76416015625
 10
1087.0673828125
 20
1392.76416015625
 10
1087.0673828125
 20
1392.76416015625
 10
1080.33056640625
 20
1386.30712890625
 10
1080.33056640625
 20
1386.30712890625
 10
1080.33056640625
 20
1386.30712890625
 10
1073.8740234375
 20
1379.5693359375
 10
1073.8740234375
 20
1379.5693359375
 10
1073.8740234375
 20
1379.5693359375
 10
1067.5546875
 20
1372.5478515625
 10
1067.5546875
 20
1372.5478515625
 10
1067.5546875
 20
1372.5478515625
 10
1061.66064453125
 20
1365.39013671875
 10
1061.66064453125
 20
1365.39013671875
 10
1061.66064453125
 20
1365.39013671875
 10
1055.89990234375
 20
1358.083984375
 10
1055.89990234375
 20
1358.083984375
 10
1055.89990234375
 20
1358.083984375
 10
1050.2822265625
 20
1350.5
 10
1050.2822265625
 20
1350.5
 10
1050.2822265625
 20
1350.5
 10
1045.09033203125
 20
1342.78125
 10
1045.09033203125
 20
1342.78125
 10
1045.09033203125
 20
1342.78125
 10
1040.03271484375
 20
1334.9130859375
 10
1040.03271484375
 20
1334.9130859375
 10
1040.03271484375
 20
1334.9130859375
 10
1035.115234375
 20
1326.90478515625
 10
1035.115234375
 20
1326.90478515625
 10
1035.115234375
 20
1326.90478515625
 10
1030.4814453125
 20
1318.76025390625
 10
1030.4814453125
 20
1318.76025390625
 10
1030.4814453125
 20
1318.76025390625
 10
1026.12890625
 20
1310.4755859375
 10
1026.12890625
 20
1310.4755859375
 10
1026.12890625
 20
1310.4755859375
 10
1022.05517578125
 20
1302.1884765625
 10
1022.05517578125
 20
1302.1884765625
 10
1022.05517578125
 20
1302.1884765625
 10
1018.12255859375
 20
1293.6201171875
 10
1018.12255859375
 20
1293.6201171875
 10
1018.12255859375
 20
1293.6201171875
 10
1014.47119140625
 20
1285.05224609375
 10
1014.47119140625
 20
1285.05224609375
 10
1014.47119140625
 20
1285.05224609375
 10
1010.95849609375
 20
1276.3408203125
 10
1010.95849609375
 20
1276.3408203125
 10
1010.95849609375
 20
1276.3408203125
 10
1007.728515625
 20
1267.63232421875
 10
1007.728515625
 20
1267.63232421875
 10
1007.728515625
 20
1267.63232421875
 10
1004.7802734375
 20
1258.64794921875
 10
1004.7802734375
 20
1258.64794921875
 10
1004.7802734375
 20
1258.64794921875
 10
1001.96923828125
 20
1249.7919921875
 10
1001.96923828125
 20
1249.7919921875
 10
1001.96923828125
 20
1249.7919921875
 10
999.583984375
 20
1240.810546875
 10
999.583984375
 20
1240.810546875
 10
999.583984375
 20
1240.810546875
 10
997.3359375
 20
1231.67724609375
 10
997.3359375
 20
1231.67724609375
 10
997.3359375
 20
1231.67724609375
 10
995.36962890625
 20
1222.54833984375
 10
995.36962890625
 20
1222.54833984375
 10
995.36962890625
 20
1222.54833984375
 10
993.6845703125
 20
1213.27978515625
 10
993.6845703125
 20
1213.27978515625
 10
993.6845703125
 20
1213.27978515625
 10
992.138671875
 20
1204.14453125
 10
992.138671875
 20
1204.14453125
 10
992.10400390625
 20
1203.9384765625
 10
991.92529296875
 20
1203.79296875
 10
991.72314453125
 20
1203.79296875
 10
991.72314453125
 20
1203.79296875
 10
991.72314453125
 20
1203.79296875
 10
991.72314453125
 20
1203.79296875
 97
        0
 75
     2
 76
     1
 98
        0
  0
ENDBLK
  5
5B
330
58
100
AcDbEntity
  8
0
100
AcDbBlockEnd
  0
BLOCK
  5
60
330
5E
100
AcDbEntity
  8
0
100
AcDbBlockBegin
  2
block 8
 70
     0
 71
     0
 10
0.0
 20
0.0
 30
0.0
  3
block 8
  1

  0
SPLINE
  5
62
330
5E
100
AcDbEntity
  8
Layer 1
370
     0
100
AcDbSpline
210
0.0
220
0.0
230
1.0
 70
    11
 71
     3
 72
    41
 73
    37
 74
     0
 42
0.0000000001
 43
0.0000000001
 40
0.0
 40
0.0
 40
0.0
 40
0.0
 40
1.0
 40
1.0
 40
1.0
 40
2.0
 40
2.0
 40
2.0
 40
3.0
 40
3.0
 40
3.0
 40
4.0
 40
4.0
 40
4.0
 40
5.0
 40
5.0
 40
5.0
 40
6.0
 40
6.0
 40
6.0
 40
7.0
 40
7.0
 40
7.0
 40
8.0
 40
8.0
 40
8.0
 40
9.0
 40
9.0
 40
9.0
 40
10.0
 40
10.0
 40
10.0
 40
11.0
 40
11.0
 40
11.0
 40
12.0
 40
12.0
 40
12.0
 40
12.0
 10
581.7861328125
 20
807.49755859375
 30
0.0
 10
581.7451171875
 20
807.49755859375
 30
0.0
 10
581.70361328125
 20
807.50341796875
 30
0.0
 10
581.66357421875
 20
807.515625
 30
0.0
 10
581.66357421875
 20
807.515625
 30
0.0
 10
250.62060546875
 20
908.06591796875
 30
0.0
 10
250.62060546875
 20
908.06591796875
 30
0.0
 10
250.3974609375
 20
908.1337890625
 30
0.0
 10
250.27197265625
 20
908.369140625
 30
0.0
 10
250.33935546875
 20
908.59228515625
 30
0.0
 10
250.4072265625
 20
908.81494140625
 30
0.0
 10
250.6416015625
 20
908.93994140625
 30
0.0
 10
250.86572265625
 20
908.87353515625
 30
0.0
 10
250.86572265625
 20
908.87353515625
 30
0.0
 10
581.279296875
 20
808.51416015625
 30
0.0
 10
581.279296875
 20
808.51416015625
 30
0.0
 10
581.279296875
 20
808.51416015625
 30
0.0
 10
526.8037109375
 20
1208.09521484375
 30
0.0
 10
526.8037109375
 20
1208.09521484375
 30
0.0
 10
526.77197265625
 20
1208.326171875
 30
0.0
 10
526.93359375
 20
1208.5390625
 30
0.0
 10
527.16455078125
 20
1208.5703125
 30
0.0
 10
527.39697265625
 20
1208.6064453125
 30
0.0
 10
527.60791015625
 20
1208.43994140625
 30
0.0
 10
527.6396484375
 20
1208.20947265625
 30
0.0
 10
527.6396484375
 20
1208.20947265625
 30
0.0
 10
582.2041015625
 20
807.9765625
 30
0.0
 10
582.2041015625
 20
807.9765625
 30
0.0
 10
582.2236328125
 20
807.833984375
 30
0.0
 10
582.1689453125
 20
807.69140625
 30
0.0
 10
582.0595703125
 20
807.59814453125
 30
0.0
 10
581.982421875
 20
807.5322265625
 30
0.0
 10
581.88525390625
 20
807.49755859375
 30
0.0
 10
581.7861328125
 20
807.49755859375
 30
0.0
 10
581.7861328125
 20
807.49755859375
 30
0.0
 10
581.7861328125
 20
807.49755859375
 30
0.0
 10
581.7861328125
 20
807.49755859375
 30
0.0
  0
HATCH
  5
63
330
5E
100
AcDbEntity
  8
Layer 1
 62
     7
420
 16777215
100
AcDbHatch
 10
0.0
 20
0.0
 30
0.0
210
0.0
220
0.0
230
1.0
  2
SOLID
 70
     1
 71
     0
 91
        1
 92
        1
 93
        1
 72
     4
 94
        3
 73
     0
 74
     1
 95
       41
 96
       37
 40
0.0
 40
0.0
 40
0.0
 40
0.0
 40
1.0
 40
1.0
 40
1.0
 40
2.0
 40
2.0
 40
2.0
 40
3.0
 40
3.0
 40
3.0
 40
4.0
 40
4.0
 40
4.0
 40
5.0
 40
5.0
 40
5.0
 40
6.0
 40
6.0
 40
6.0
 40
7.0
 40
7.0
 40
7.0
 40
8.0
 40
8.0
 40
8.0
 40
9.0
 40
9.0
 40
9.0
 40
10.0
 40
10.0
 40
10.0
 40
11.0
 40
11.0
 40
11.0
 40
12.0
 40
12.0
 40
12.0
 40
12.0
 10
581.7861328125
 20
807.49755859375
 10
581.7451171875
 20
807.49755859375
 10
581.70361328125
 20
807.50341796875
 10
581.66357421875
 20
807.515625
 10
581.66357421875
 20
807.515625
 10
250.62060546875
 20
908.06591796875
 10
250.62060546875
 20
908.06591796875
 10
250.3974609375
 20
908.1337890625
 10
250.27197265625
 20
908.369140625
 10
250.33935546875
 20
908.59228515625
 10
250.4072265625
 20
908.81494140625
 10
250.6416015625
 20
908.93994140625
 10
250.86572265625
 20
908.87353515625
 10
250.86572265625
 20
908.87353515625
 10
581.279296875
 20
808.51416015625
 10
581.279296875
 20
808.51416015625
 10
581.279296875
 20
808.51416015625
 10
526.8037109375
 20
1208.09521484375
 10
526.8037109375
 20
1208.09521484375
 10
526.77197265625
 20
1208.326171875
 10
526.93359375
 20
1208.5390625
 10
527.16455078125
 20
1208.5703125
 10
527.39697265625
 20
1208.6064453125
 10
527.60791015625
 20
1208.43994140625
 10
527.6396484375
 20
1208.20947265625
 10
527.6396484375
 20
1208.20947265625
 10
582.2041015625
 20
807.9765625
 10
582.2041015625
 20
807.9765625
 10
582.2236328125
 20
807.833984375
 10
582.1689453125
 20
807.69140625
 10
582.0595703125
 20
807.59814453125
 10
581.982421875
 20
807.5322265625
 10
581.88525390625
 20
807.49755859375
 10
581.7861328125
 20
807.49755859375
 10
581.7861328125
 20
807.49755859375
 10
581.7861328125
 20
807.49755859375
 10
581.7861328125
 20
807.49755859375
 97
        0
 75
     2
 76
     1
 98
        0
  0
ENDBLK
  5
61
330
5E
100
AcDbEntity
  8
0
100
AcDbBlockEnd
  0
BLOCK
  5
66
330
64
100
AcDbEntity
  8
0
100
AcDbBlockBegin
  2
block 9
 70
     0
 71
     0
 10
0.0
 20
0.0
 30
0.0
  3
block 9
  1

  0
SPLINE
  5
68
330
64
100
AcDbEntity
  8
Layer 1
370
     0
100
AcDbSpline
210
0.0
220
0.0
230
1.0
 70
    11
 71
     3
 72
    29
 73
    25
 74
     0
 42
0.0000000001
 43
0.0000000001
 40
0.0
 40
0.0
 40
0.0
 40
0.0
 40
1.0
 40
1.0
 40
1.0
 40
2.0
 40
2.0
 40
2.0
 40
3.0
 40
3.0
 40
3.0
 40
4.0
 40
4.0
 40
4.0
 40
5.0
 40
5.0
 40
5.0
 40
6.0
 40
6.0
 40
6.0
 40
7.0
 40
7.0
 40
7.0
 40
8.0
 40
8.0
 40
8.0
 40
8.0
 10
360.2939453125
 20
1439.20751953125
 30
0.0
 10
360.25341796875
 20
1439.20751953125
 30
0.0
 10
360.2119140625
 20
1439.21337890625
 30
0.0
 10
360.1708984375
 20
1439.2255859375
 30
0.0
 10
360.1708984375
 20
1439.2255859375
 30
0.0
 10
273.82421875
 20
1465.5234375
 30
0.0
 10
273.82421875
 20
1465.5234375
 30
0.0
 10
273.6015625
 20
1465.59130859375
 30
0.0
 10
273.4755859375
 20
1465.8271484375
 30
0.0
 10
273.54345703125
 20
1466.05029296875
 30
0.0
 10
273.611328125
 20
1466.2724609375
 30
0.0
 10
273.84619140625
 20
1466.39794921875
 30
0.0
 10
274.0703125
 20
1466.3310546875
 30
0.0
 10
274.0703125
 20
1466.3310546875
 30
0.0
 10
360.4169921875
 20
1440.033203125
 30
0.0
 10
360.4169921875
 20
1440.033203125
 30
0.0
 10
360.6396484375
 20
1439.96533203125
 30
0.0
 10
360.765625
 20
1439.7294921875
 30
0.0
 10
360.69775390625
 20
1439.50634765625
 30
0.0
 10
360.64208984375
 20
1439.32470703125
 30
0.0
 10
360.47509765625
 20
1439.20751953125
 30
0.0
 10
360.2939453125
 20
1439.20751953125
 30
0.0
 10
360.2939453125
 20
1439.20751953125
 30
0.0
 10
360.2939453125
 20
1439.20751953125
 30
0.0
 10
360.2939453125
 20
1439.20751953125
 30
0.0
  0
HATCH
  5
69
330
64
100
AcDbEntity
  8
Layer 1
 62
     7
420
 16777215
100
AcDbHatch
 10
0.0
 20
0.0
 30
0.0
210
0.0
220
0.0
230
1.0
  2
SOLID
 70
     1
 71
     0
 91
        1
 92
        1
 93
        1
 72
     4
 94
        3
 73
     0
 74
     1
 95
       29
 96
       25
 40
0.0
 40
0.0
 40
0.0
 40
0.0
 40
1.0
 40
1.0
 40
1.0
 40
2.0
 40
2.0
 40
2.0
 40
3.0
 40
3.0
 40
3.0
 40
4.0
 40
4.0
 40
4.0
 40
5.0
 40
5.0
 40
5.0
 40
6.0
 40
6.0
 40
6.0
 40
7.0
 40
7.0
 40
7.0
 40
8.0
 40
8.0
 40
8.0
 40
8.0
 10
360.2939453125
 20
1439.20751953125
 10
360.25341796875
 20
1439.20751953125
 10
360.2119140625
 20
1439.21337890625
 10
360.1708984375
 20
1439.2255859375
 10
360.1708984375
 20
1439.2255859375
 10
273.82421875
 20
1465.5234375
 10
273.82421875
 20
1465.5234375
 10
273.6015625
 20
1465.59130859375
 10
273.4755859375
 20
1465.8271484375
 10
273.54345703125
 20
1466.05029296875
 10
273.611328125
 20
1466.2724609375
 10
273.84619140625
 20
1466.39794921875
 10
274.0703125
 20
1466.3310546875
 10
274.0703125
 20
1466.3310546875
 10
360.4169921875
 20
1440.033203125
 10
360.4169921875
 20
1440.033203125
 10
360.6396484375
 20
1439.96533203125
 10
360.765625
 20
1439.7294921875
 10
360.69775390625
 20
1439.50634765625
 10
360.64208984375
 20
1439.32470703125
 10
360.47509765625
 20
1439.20751953125
 10
360.2939453125
 20
1439.20751953125
 10
360.2939453125
 20
1439.20751953125
 10
360.2939453125
 20
1439.20751953125
 10
360.2939453125
 20
1439.20751953125
 97
        0
 75
     2
 76
     1
 98
        0
  0
ENDBLK
  5
67
330
64
100
AcDbEntity
  8
0
100
AcDbBlockEnd
  0
BLOCK
  5
6C
330
6A
100
AcDbEntity
  8
0
100
AcDbBlockBegin
  2
block 10
 70
     0
 71
     0
 10
0.0
 20
0.0
 30
0.0
  3
block 10
  1

  0
SPLINE
  5
6E
330
6A
100
AcDbEntity
  8
Layer 1
370
     0
100
AcDbSpline
210
0.0
220
0.0
230
1.0
 70
    11
 71
     3
 72
    32
 73
    28
 74
     0
 42
0.0000000001
 43
0.0000000001
 40
0.0
 40
0.0
 40
0.0
 40
0.0
 40
1.0
 40
1.0
 40
1.0
 40
2.0
 40
2.0
 40
2.0
 40
3.0
 40
3.0
 40
3.0
 40
4.0
 40
4.0
 40
4.0
 40
5.0
 40
5.0
 40
5.0
 40
6.0
 40
6.0
 40
6.0
 40
7.0
 40
7.0
 40
7.0
 40
8.0
 40
8.0
 40
8.0
 40
9.0
 40
9.0
 40
9.0
 40
9.0
 10
250.7431640625
 20
1448.2783203125
 30
0.0
 10
250.51025390625
 20
1448.2783203125
 30
0.0
 10
250.3212890625
 20
1448.46728515625
 30
0.0
 10
250.3212890625
 20
1448.7001953125
 30
0.0
 10
250.3212890625
 20
1454.52978515625
 30
0.0
 10
253.1171875
 20
1460.08349609375
 30
0.0
 10
257.80078125
 20
1463.5556640625
 30
0.0
 10
262.4853515625
 20
1467.02734375
 30
0.0
 10
268.6123046875
 20
1468.08837890625
 30
0.0
 10
274.18896484375
 20
1466.39453125
 30
0.0
 10
274.412109375
 20
1466.32666015625
 30
0.0
 10
274.53759765625
 20
1466.0908203125
 30
0.0
 10
274.47021484375
 20
1465.8681640625
 30
0.0
 10
274.40185546875
 20
1465.64501953125
 30
0.0
 10
274.16650390625
 20
1465.52197265625
 30
0.0
 10
273.94384765625
 20
1465.5869140625
 30
0.0
 10
268.62109375
 20
1467.20556640625
 30
0.0
 10
262.77294921875
 20
1466.19140625
 30
0.0
 10
258.3037109375
 20
1462.8779296875
 30
0.0
 10
253.83349609375
 20
1459.56396484375
 30
0.0
 10
251.1650390625
 20
1454.263671875
 30
0.0
 10
251.1650390625
 20
1448.7001953125
 30
0.0
 10
251.1650390625
 20
1448.46728515625
 30
0.0
 10
250.97607421875
 20
1448.2783203125
 30
0.0
 10
250.7431640625
 20
1448.2783203125
 30
0.0
 10
250.7431640625
 20
1448.2783203125
 30
0.0
 10
250.7431640625
 20
1448.2783203125
 30
0.0
 10
250.7431640625
 20
1448.2783203125
 30
0.0
  0
HATCH
  5
6F
330
6A
100
AcDbEntity
  8
Layer 1
 62
     7
420
 16777215
100
AcDbHatch
 10
0.0
 20
0.0
 30
0.0
210
0.0
220
0.0
230
1.0
  2
SOLID
 70
     1
 71
     0
 91
        1
 92
        1
 93
        1
 72
     4
 94
        3
 73
     0
 74
     1
 95
       32
 96
       28
 40
0.0
 40
0.0
 40
0.0
 40
0.0
 40
1.0
 40
1.0
 40
1.0
 40
2.0
 40
2.0
 40
2.0
 40
3.0
 40
3.0
 40
3.0
 40
4.0
 40
4.0
 40
4.0
 40
5.0
 40
5.0
 40
5.0
 40
6.0
 40
6.0
 40
6.0
 40
7.0
 40
7.0
 40
7.0
 40
8.0
 40
8.0
 40
8.0
 40
9.0
 40
9.0
 40
9.0
 40
9.0
 10
250.7431640625
 20
1448.2783203125
 10
250.51025390625
 20
1448.2783203125
 10
250.3212890625
 20
1448.46728515625
 10
250.3212890625
 20
1448.7001953125
 10
250.3212890625
 20
1454.52978515625
 10
253.1171875
 20
1460.08349609375
 10
257.80078125
 20
1463.5556640625
 10
262.4853515625
 20
1467.02734375
 10
268.6123046875
 20
1468.08837890625
 10
274.18896484375
 20
1466.39453125
 10
274.412109375
 20
1466.32666015625
 10
274.53759765625
 20
1466.0908203125
 10
274.47021484375
 20
1465.8681640625
 10
274.40185546875
 20
1465.64501953125
 10
274.16650390625
 20
1465.52197265625
 10
273.94384765625
 20
1465.5869140625
 10
268.62109375
 20
1467.20556640625
 10
262.77294921875
 20
1466.19140625
 10
258.3037109375
 20
1462.8779296875
 10
253.83349609375
 20
1459.56396484375
 10
251.1650390625
 20
1454.263671875
 10
251.1650390625
 20
1448.7001953125
 10
251.1650390625
 20
1448.46728515625
 10
250.97607421875
 20
1448.2783203125
 10
250.7431640625
 20
1448.2783203125
 10
250.7431640625
 20
1448.2783203125
 10
250.7431640625
 20
1448.2783203125
 10
250.7431640625
 20
1448.2783203125
 97
        0
 75
     2
 76
     1
 98
        0
  0
ENDBLK
  5
6D
330
6A
100
AcDbEntity
  8
0
100
AcDbBlockEnd
  0
BLOCK
  5
72
330
70
100
AcDbEntity
  8
0
100
AcDbBlockBegin
  2
block 11
 70
     0
 71
     0
 10
0.0
 20
0.0
 30
0.0
  3
block 11
  1

  0
SPLINE
  5
74
330
70
100
AcDbEntity
  8
Layer 1
370
     0
100
AcDbSpline
210
0.0
220
0.0
230
1.0
 70
    11
 71
     3
 72
    26
 73
    22
 74
     0
 42
0.0000000001
 43
0.0000000001
 40
0.0
 40
0.0
 40
0.0
 40
0.0
 40
1.0
 40
1.0
 40
1.0
 40
2.0
 40
2.0
 40
2.0
 40
3.0
 40
3.0
 40
3.0
 40
4.0
 40
4.0
 40
4.0
 40
5.0
 40
5.0
 40
5.0
 40
6.0
 40
6.0
 40
6.0
 40
7.0
 40
7.0
 40
7.0
 40
7.0
 10
250.7431640625
 20
908.0478515625
 30
0.0
 10
250.51025390625
 20
908.0478515625
 30
0.0
 10
250.3212890625
 20
908.23681640625
 30
0.0
 10
250.3212890625
 20
908.4697265625
 30
0.0
 10
250.3212890625
 20
908.4697265625
 30
0.0
 10
250.3212890625
 20
1448.6298828125
 30
0.0
 10
250.3212890625
 20
1448.6298828125
 30
0.0
 10
250.3212890625
 20
1448.86279296875
 30
0.0
 10
250.51025390625
 20
1449.0517578125
 30
0.0
 10
250.7431640625
 20
1449.0517578125
 30
0.0
 10
250.97607421875
 20
1449.0517578125
 30
0.0
 10
251.1650390625
 20
1448.86279296875
 30
0.0
 10
251.1650390625
 20
1448.6298828125
 30
0.0
 10
251.1650390625
 20
1448.6298828125
 30
0.0
 10
251.1650390625
 20
908.4697265625
 30
0.0
 10
251.1650390625
 20
908.4697265625
 30
0.0
 10
251.1650390625
 20
908.23681640625
 30
0.0
 10
250.97607421875
 20
908.0478515625
 30
0.0
 10
250.7431640625
 20
908.0478515625
 30
0.0
 10
250.7431640625
 20
908.0478515625
 30
0.0
 10
250.7431640625
 20
908.0478515625
 30
0.0
 10
250.7431640625
 20
908.0478515625
 30
0.0
  0
HATCH
  5
75
330
70
100
AcDbEntity
  8
Layer 1
 62
     7
420
 16777215
100
AcDbHatch
 10
0.0
 20
0.0
 30
0.0
210
0.0
220
0.0
230
1.0
  2
SOLID
 70
     1
 71
     0
 91
        1
 92
        1
 93
        1
 72
     4
 94
        3
 73
     0
 74
     1
 95
       26
 96
       22
 40
0.0
 40
0.0
 40
0.0
 40
0.0
 40
1.0
 40
1.0
 40
1.0
 40
2.0
 40
2.0
 40
2.0
 40
3.0
 40
3.0
 40
3.0
 40
4.0
 40
4.0
 40
4.0
 40
5.0
 40
5.0
 40
5.0
 40
6.0
 40
6.0
 40
6.0
 40
7.0
 40
7.0
 40
7.0
 40
7.0
 10
250.7431640625
 20
908.0478515625
 10
250.51025390625
 20
908.0478515625
 10
250.3212890625
 20
908.23681640625
 10
250.3212890625
 20
908.4697265625
 10
250.3212890625
 20
908.4697265625
 10
250.3212890625
 20
1448.6298828125
 10
250.3212890625
 20
1448.6298828125
 10
250.3212890625
 20
1448.86279296875
 10
250.51025390625
 20
1449.0517578125
 10
250.7431640625
 20
1449.0517578125
 10
250.97607421875
 20
1449.0517578125
 10
251.1650390625
 20
1448.86279296875
 10
251.1650390625
 20
1448.6298828125
 10
251.1650390625
 20
1448.6298828125
 10
251.1650390625
 20
908.4697265625
 10
251.1650390625
 20
908.4697265625
 10
251.1650390625
 20
908.23681640625
 10
250.97607421875
 20
908.0478515625
 10
250.7431640625
 20
908.0478515625
 10
250.7431640625
 20
908.0478515625
 10
250.7431640625
 20
908.0478515625
 10
250.7431640625
 20
908.0478515625
 97
        0
 75
     2
 76
     1
 98
        0
  0
ENDBLK
  5
73
330
70
100
AcDbEntity
  8
0
100
AcDbBlockEnd
  0
BLOCK
  5
78
330
76
100
AcDbEntity
  8
0
100
AcDbBlockBegin
  2
block 12
 70
     0
 71
     0
 10
0.0
 20
0.0
 30
0.0
  3
block 12
  1

  0
SPLINE
  5
7A
330
76
100
AcDbEntity
  8
Layer 1
370
     0
100
AcDbSpline
210
0.0
220
0.0
230
1.0
 70
    11
 71
     3
 72
   221
 73
   217
 74
     0
 42
0.0000000001
 43
0.0000000001
 40
0.0
 40
0.0
 40
0.0
 40
0.0
 40
1.0
 40
1.0
 40
1.0
 40
2.0
 40
2.0
 40
2.0
 40
3.0
 40
3.0
 40
3.0
 40
4.0
 40
4.0
 40
4.0
 40
5.0
 40
5.0
 40
5.0
 40
6.0
 40
6.0
 40
6.0
 40
7.0
 40
7.0
 40
7.0
 40
8.0
 40
8.0
 40
8.0
 40
9.0
 40
9.0
 40
9.0
 40
10.0
 40
10.0
 40
10.0
 40
11.0
 40
11.0
 40
11.0
 40
12.0
 40
12.0
 40
12.0
 40
13.0
 40
13.0
 40
13.0
 40
14.0
 40
14.0
 40
14.0
 40
15.0
 40
15.0
 40
15.0
 40
16.0
 40
16.0
 40
16.0
 40
17.0
 40
17.0
 40
17.0
 40
18.0
 40
18.0
 40
18.0
 40
19.0
 40
19.0
 40
19.0
 40
20.0
 40
20.0
 40
20.0
 40
21.0
 40
21.0
 40
21.0
 40
22.0
 40
22.0
 40
22.0
 40
23.0
 40
23.0
 40
23.0
 40
24.0
 40
24.0
 40
24.0
 40
25.0
 40
25.0
 40
25.0
 40
26.0
 40
26.0
 40
26.0
 40
27.0
 40
27.0
 40
27.0
 40
28.0
 40
28.0
 40
28.0
 40
29.0
 40
29.0
 40
29.0
 40
30.0
 40
30.0
 40
30.0
 40
31.0
 40
31.0
 40
31.0
 40
32.0
 40
32.0
 40
32.0
 40
33.0
 40
33.0
 40
33.0
 40
34.0
 40
34.0
 40
34.0
 40
35.0
 40
35.0
 40
35.0
 40
36.0
 40
36.0
 40
36.0
 40
37.0
 40
37.0
 40
37.0
 40
38.0
 40
38.0
 40
38.0
 40
39.0
 40
39.0
 40
39.0
 40
40.0
 40
40.0
 40
40.0
 40
41.0
 40
41.0
 40
41.0
 40
42.0
 40
42.0
 40
42.0
 40
43.0
 40
43.0
 40
43.0
 40
44.0
 40
44.0
 40
44.0
 40
45.0
 40
45.0
 40
45.0
 40
46.0
 40
46.0
 40
46.0
 40
47.0
 40
47.0
 40
47.0
 40
48.0
 40
48.0
 40
48.0
 40
49.0
 40
49.0
 40
49.0
 40
50.0
 40
50.0
 40
50.0
 40
51.0
 40
51.0
 40
51.0
 40
52.0
 40
52.0
 40
52.0
 40
53.0
 40
53.0
 40
53.0
 40
54.0
 40
54.0
 40
54.0
 40
55.0
 40
55.0
 40
55.0
 40
56.0
 40
56.0
 40
56.0
 40
57.0
 40
57.0
 40
57.0
 40
58.0
 40
58.0
 40
58.0
 40
59.0
 40
59.0
 40
59.0
 40
60.0
 40
60.0
 40
60.0
 40
61.0
 40
61.0
 40
61.0
 40
62.0
 40
62.0
 40
62.0
 40
63.0
 40
63.0
 40
63.0
 40
64.0
 40
64.0
 40
64.0
 40
65.0
 40
65.0
 40
65.0
 40
66.0
 40
66.0
 40
66.0
 40
67.0
 40
67.0
 40
67.0
 40
68.0
 40
68.0
 40
68.0
 40
69.0
 40
69.0
 40
69.0
 40
70.0
 40
70.0
 40
70.0
 40
71.0
 40
71.0
 40
71.0
 40
72.0
 40
72.0
 40
72.0
 40
72.0
 10
527.22119140625
 20
1207.73046875
 30
0.0
 10
527.0166015625
 20
1207.73046875
 30
0.0
 10
526.8369140625
 20
1207.87939453125
 30
0.0
 10
526.8046875
 20
1208.08837890625
 30
0.0
 10
526.8046875
 20
1208.08837890625
 30
0.0
 10
525.3984375
 20
1217.2294921875
 30
0.0
 10
525.3984375
 20
1217.2294921875
 30
0.0
 10
525.3984375
 20
1217.2294921875
 30
0.0
 10
523.712890625
 20
1226.49951171875
 30
0.0
 10
523.712890625
 20
1226.49951171875
 30
0.0
 10
523.712890625
 20
1226.49951171875
 30
0.0
 10
521.74658203125
 20
1235.626953125
 30
0.0
 10
521.74658203125
 20
1235.626953125
 30
0.0
 10
521.74658203125
 20
1235.626953125
 30
0.0
 10
519.49951171875
 20
1244.755859375
 30
0.0
 10
519.49951171875
 20
1244.755859375
 30
0.0
 10
519.49951171875
 20
1244.755859375
 30
0.0
 10
516.9716796875
 20
1253.7431640625
 30
0.0
 10
516.9716796875
 20
1253.7431640625
 30
0.0
 10
516.9716796875
 20
1253.7431640625
 30
0.0
 10
514.30224609375
 20
1262.59521484375
 30
0.0
 10
514.30224609375
 20
1262.59521484375
 30
0.0
 10
514.30224609375
 20
1262.59521484375
 30
0.0
 10
511.35205078125
 20
1271.443359375
 30
0.0
 10
511.35205078125
 20
1271.443359375
 30
0.0
 10
511.35205078125
 20
1271.443359375
 30
0.0
 10
508.12158203125
 20
1280.29150390625
 30
0.0
 10
508.12158203125
 20
1280.29150390625
 30
0.0
 10
508.12158203125
 20
1280.29150390625
 30
0.0
 10
504.611328125
 20
1288.99755859375
 30
0.0
 10
504.611328125
 20
1288.99755859375
 30
0.0
 10
504.611328125
 20
1288.99755859375
 30
0.0
 10
500.9580078125
 20
1297.56787109375
 30
0.0
 10
500.9580078125
 20
1297.56787109375
 30
0.0
 10
500.9580078125
 20
1297.56787109375
 30
0.0
 10
497.02490234375
 20
1306.13623046875
 30
0.0
 10
497.02490234375
 20
1306.13623046875
 30
0.0
 10
497.02490234375
 20
1306.13623046875
 30
0.0
 10
492.8134765625
 20
1314.41796875
 30
0.0
 10
492.8134765625
 20
1314.41796875
 30
0.0
 10
492.8134765625
 20
1314.41796875
 30
0.0
 10
488.45654296875
 20
1322.7099609375
 30
0.0
 10
488.45654296875
 20
1322.7099609375
 30
0.0
 10
488.45654296875
 20
1322.7099609375
 30
0.0
 10
483.9599609375
 20
1330.859375
 30
0.0
 10
483.9599609375
 20
1330.859375
 30
0.0
 10
483.9599609375
 20
1330.859375
 30
0.0
 10
479.04833984375
 20
1338.8583984375
 30
0.0
 10
479.04833984375
 20
1338.8583984375
 30
0.0
 10
479.04833984375
 20
1338.8583984375
 30
0.0
 10
473.990234375
 20
1346.72607421875
 30
0.0
 10
473.990234375
 20
1346.72607421875
 30
0.0
 10
473.990234375
 20
1346.72607421875
 30
0.0
 10
468.79150390625
 20
1354.45361328125
 30
0.0
 10
468.79150390625
 20
1354.45361328125
 30
0.0
 10
468.79150390625
 20
1354.45361328125
 30
0.0
 10
463.177734375
 20
1362.03173828125
 30
0.0
 10
463.177734375
 20
1362.03173828125
 30
0.0
 10
463.177734375
 20
1362.03173828125
 30
0.0
 10
457.41943359375
 20
1369.33447265625
 30
0.0
 10
457.41943359375
 20
1369.33447265625
 30
0.0
 10
457.41943359375
 20
1369.33447265625
 30
0.0
 10
451.380859375
 20
1376.49560546875
 30
0.0
 10
451.380859375
 20
1376.49560546875
 30
0.0
 10
451.380859375
 20
1376.49560546875
 30
0.0
 10
445.19873046875
 20
1383.5205078125
 30
0.0
 10
445.19873046875
 20
1383.5205078125
 30
0.0
 10
445.19873046875
 20
1383.5205078125
 30
0.0
 10
438.7421875
 20
1390.2578125
 30
0.0
 10
438.7421875
 20
1390.2578125
 30
0.0
 10
438.7421875
 20
1390.2578125
 30
0.0
 10
432.0048828125
 20
1396.7138671875
 30
0.0
 10
432.0048828125
 20
1396.7138671875
 30
0.0
 10
432.0048828125
 20
1396.7138671875
 30
0.0
 10
424.986328125
 20
1402.88916015625
 30
0.0
 10
424.986328125
 20
1402.88916015625
 30
0.0
 10
424.986328125
 20
1402.88916015625
 30
0.0
 10
417.68701171875
 20
1408.78466796875
 30
0.0
 10
417.68701171875
 20
1408.78466796875
 30
0.0
 10
417.68701171875
 20
1408.78466796875
 30
0.0
 10
410.24462890625
 20
1414.40087890625
 30
0.0
 10
410.24462890625
 20
1414.40087890625
 30
0.0
 10
410.24462890625
 20
1414.40087890625
 30
0.0
 10
402.39111328125
 20
1419.58935546875
 30
0.0
 10
402.39111328125
 20
1419.58935546875
 30
0.0
 10
402.39111328125
 20
1419.58935546875
 30
0.0
 10
394.3916015625
 20
1424.3603515625
 30
0.0
 10
394.3916015625
 20
1424.3603515625
 30
0.0
 10
394.3916015625
 20
1424.3603515625
 30
0.0
 10
386.24755859375
 20
1428.85302734375
 30
0.0
 10
386.24755859375
 20
1428.85302734375
 30
0.0
 10
386.24755859375
 20
1428.85302734375
 30
0.0
 10
377.697265625
 20
1432.77685546875
 30
0.0
 10
377.697265625
 20
1432.77685546875
 30
0.0
 10
377.697265625
 20
1432.77685546875
 30
0.0
 10
373.48583984375
 20
1434.6015625
 30
0.0
 10
373.48583984375
 20
1434.6015625
 30
0.0
 10
373.48583984375
 20
1434.6015625
 30
0.0
 10
369.005859375
 20
1436.28125
 30
0.0
 10
369.005859375
 20
1436.28125
 30
0.0
 10
369.005859375
 20
1436.28125
 30
0.0
 10
360.16064453125
 20
1439.22900390625
 30
0.0
 10
360.16064453125
 20
1439.22900390625
 30
0.0
 10
359.939453125
 20
1439.302734375
 30
0.0
 10
359.81982421875
 20
1439.54150390625
 30
0.0
 10
359.8935546875
 20
1439.7626953125
 30
0.0
 10
359.96728515625
 20
1439.98291015625
 30
0.0
 10
360.20703125
 20
1440.1025390625
 30
0.0
 10
360.42724609375
 20
1440.02978515625
 30
0.0
 10
360.42724609375
 20
1440.02978515625
 30
0.0
 10
369.287109375
 20
1437.07666015625
 30
0.0
 10
369.287109375
 20
1437.07666015625
 30
0.0
 10
369.287109375
 20
1437.07666015625
 30
0.0
 10
373.8017578125
 20
1435.3837890625
 30
0.0
 10
373.8017578125
 20
1435.3837890625
 30
0.0
 10
373.8017578125
 20
1435.3837890625
 30
0.0
 10
378.041015625
 20
1433.54736328125
 30
0.0
 10
378.041015625
 20
1433.54736328125
 30
0.0
 10
378.041015625
 20
1433.54736328125
 30
0.0
 10
386.626953125
 20
1429.60595703125
 30
0.0
 10
386.626953125
 20
1429.60595703125
 30
0.0
 10
386.626953125
 20
1429.60595703125
 30
0.0
 10
394.8115234375
 20
1425.09228515625
 30
0.0
 10
394.8115234375
 20
1425.09228515625
 30
0.0
 10
394.8115234375
 20
1425.09228515625
 30
0.0
 10
402.83984375
 20
1420.3037109375
 30
0.0
 10
402.83984375
 20
1420.3037109375
 30
0.0
 10
402.83984375
 20
1420.3037109375
 30
0.0
 10
410.7314453125
 20
1415.08984375
 30
0.0
 10
410.7314453125
 20
1415.08984375
 30
0.0
 10
410.7314453125
 20
1415.08984375
 30
0.0
 10
418.20654296875
 20
1409.44970703125
 30
0.0
 10
418.20654296875
 20
1409.44970703125
 30
0.0
 10
418.20654296875
 20
1409.44970703125
 30
0.0
 10
425.5302734375
 20
1403.5341796875
 30
0.0
 10
425.5302734375
 20
1403.5341796875
 30
0.0
 10
425.5302734375
 20
1403.5341796875
 30
0.0
 10
432.57568359375
 20
1397.33544921875
 30
0.0
 10
432.57568359375
 20
1397.33544921875
 30
0.0
 10
432.57568359375
 20
1397.33544921875
 30
0.0
 10
439.3388671875
 20
1390.8544921875
 30
0.0
 10
439.3388671875
 20
1390.8544921875
 30
0.0
 10
439.3388671875
 20
1390.8544921875
 30
0.0
 10
445.8203125
 20
1384.09130859375
 30
0.0
 10
445.8203125
 20
1384.09130859375
 30
0.0
 10
445.8203125
 20
1384.09130859375
 30
0.0
 10
452.0205078125
 20
1377.04638671875
 30
0.0
 10
452.0205078125
 20
1377.04638671875
 30
0.0
 10
452.0205078125
 20
1377.04638671875
 30
0.0
 10
458.0732421875
 20
1369.86767578125
 30
0.0
 10
458.0732421875
 20
1369.86767578125
 30
0.0
 10
458.0732421875
 20
1369.86767578125
 30
0.0
 10
463.84814453125
 20
1362.5439453125
 30
0.0
 10
463.84814453125
 20
1362.5439453125
 30
0.0
 10
463.84814453125
 20
1362.5439453125
 30
0.0
 10
469.48046875
 20
1354.93994140625
 30
0.0
 10
469.48046875
 20
1354.93994140625
 30
0.0
 10
469.48046875
 20
1354.93994140625
 30
0.0
 10
474.6953125
 20
1347.189453125
 30
0.0
 10
474.6953125
 20
1347.189453125
 30
0.0
 10
474.6953125
 20
1347.189453125
 30
0.0
 10
479.7626953125
 20
1339.30712890625
 30
0.0
 10
479.7626953125
 20
1339.30712890625
 30
0.0
 10
479.7626953125
 20
1339.30712890625
 30
0.0
 10
484.68896484375
 20
1331.28369140625
 30
0.0
 10
484.68896484375
 20
1331.28369140625
 30
0.0
 10
484.68896484375
 20
1331.28369140625
 30
0.0
 10
489.19921875
 20
1323.10986328125
 30
0.0
 10
489.19921875
 20
1323.10986328125
 30
0.0
 10
489.19921875
 20
1323.10986328125
 30
0.0
 10
493.56298828125
 20
1314.8056640625
 30
0.0
 10
493.56298828125
 20
1314.8056640625
 30
0.0
 10
493.56298828125
 20
1314.8056640625
 30
0.0
 10
497.7841796875
 20
1306.50341796875
 30
0.0
 10
497.7841796875
 20
1306.50341796875
 30
0.0
 10
497.7841796875
 20
1306.50341796875
 30
0.0
 10
501.7294921875
 20
1297.9091796875
 30
0.0
 10
501.7294921875
 20
1297.9091796875
 30
0.0
 10
501.7294921875
 20
1297.9091796875
 30
0.0
 10
505.390625
 20
1289.32080078125
 30
0.0
 10
505.390625
 20
1289.32080078125
 30
0.0
 10
505.390625
 20
1289.32080078125
 30
0.0
 10
508.9091796875
 20
1280.59375
 30
0.0
 10
508.9091796875
 20
1280.59375
 30
0.0
 10
508.9091796875
 20
1280.59375
 30
0.0
 10
512.14892578125
 20
1271.72119140625
 30
0.0
 10
512.14892578125
 20
1271.72119140625
 30
0.0
 10
512.14892578125
 20
1271.72119140625
 30
0.0
 10
515.1064453125
 20
1262.85009765625
 30
0.0
 10
515.1064453125
 20
1262.85009765625
 30
0.0
 10
515.1064453125
 20
1262.85009765625
 30
0.0
 10
517.78173828125
 20
1253.97900390625
 30
0.0
 10
517.78173828125
 20
1253.97900390625
 30
0.0
 10
517.78173828125
 20
1253.97900390625
 30
0.0
 10
520.3154296875
 20
1244.97119140625
 30
0.0
 10
520.3154296875
 20
1244.97119140625
 30
0.0
 10
520.3154296875
 20
1244.97119140625
 30
0.0
 10
522.56884765625
 20
1235.81689453125
 30
0.0
 10
522.56884765625
 20
1235.81689453125
 30
0.0
 10
522.56884765625
 20
1235.81689453125
 30
0.0
 10
524.54052734375
 20
1226.6640625
 30
0.0
 10
524.54052734375
 20
1226.6640625
 30
0.0
 10
524.54052734375
 20
1226.6640625
 30
0.0
 10
526.23046875
 20
1217.369140625
 30
0.0
 10
526.23046875
 20
1217.369140625
 30
0.0
 10
526.23046875
 20
1217.369140625
 30
0.0
 10
527.638671875
 20
1208.21630859375
 30
0.0
 10
527.638671875
 20
1208.21630859375
 30
0.0
 10
527.67431640625
 20
1207.986328125
 30
0.0
 10
527.51611328125
 20
1207.77099609375
 30
0.0
 10
527.28564453125
 20
1207.7353515625
 30
0.0
 10
527.26416015625
 20
1207.73193359375
 30
0.0
 10
527.24267578125
 20
1207.73046875
 30
0.0
 10
527.22119140625
 20
1207.73046875
 30
0.0
 10
527.22119140625
 20
1207.73046875
 30
0.0
 10
527.22119140625
 20
1207.73046875
 30
0.0
 10
527.22119140625
 20
1207.73046875
 30
0.0
  0
HATCH
  5
7B
330
76
100
AcDbEntity
  8
Layer 1
 62
     7
420
 16777215
100
AcDbHatch
 10
0.0
 20
0.0
 30
0.0
210
0.0
220
0.0
230
1.0
  2
SOLID
 70
     1
 71
     0
 91
        1
 92
        1
 93
        1
 72
     4
 94
        3
 73
     0
 74
     1
 95
      221
 96
      217
 40
0.0
 40
0.0
 40
0.0
 40
0.0
 40
1.0
 40
1.0
 40
1.0
 40
2.0
 40
2.0
 40
2.0
 40
3.0
 40
3.0
 40
3.0
 40
4.0
 40
4.0
 40
4.0
 40
5.0
 40
5.0
 40
5.0
 40
6.0
 40
6.0
 40
6.0
 40
7.0
 40
7.0
 40
7.0
 40
8.0
 40
8.0
 40
8.0
 40
9.0
 40
9.0
 40
9.0
 40
10.0
 40
10.0
 40
10.0
 40
11.0
 40
11.0
 40
11.0
 40
12.0
 40
12.0
 40
12.0
 40
13.0
 40
13.0
 40
13.0
 40
14.0
 40
14.0
 40
14.0
 40
15.0
 40
15.0
 40
15.0
 40
16.0
 40
16.0
 40
16.0
 40
17.0
 40
17.0
 40
17.0
 40
18.0
 40
18.0
 40
18.0
 40
19.0
 40
19.0
 40
19.0
 40
20.0
 40
20.0
 40
20.0
 40
21.0
 40
21.0
 40
21.0
 40
22.0
 40
22.0
 40
22.0
 40
23.0
 40
23.0
 40
23.0
 40
24.0
 40
24.0
 40
24.0
 40
25.0
 40
25.0
 40
25.0
 40
26.0
 40
26.0
 40
26.0
 40
27.0
 40
27.0
 40
27.0
 40
28.0
 40
28.0
 40
28.0
 40
29.0
 40
29.0
 40
29.0
 40
30.0
 40
30.0
 40
30.0
 40
31.0
 40
31.0
 40
31.0
 40
32.0
 40
32.0
 40
32.0
 40
33.0
 40
33.0
 40
33.0
 40
34.0
 40
34.0
 40
34.0
 40
35.0
 40
35.0
 40
35.0
 40
36.0
 40
36.0
 40
36.0
 40
37.0
 40
37.0
 40
37.0
 40
38.0
 40
38.0
 40
38.0
 40
39.0
 40
39.0
 40
39.0
 40
40.0
 40
40.0
 40
40.0
 40
41.0
 40
41.0
 40
41.0
 40
42.0
 40
42.0
 40
42.0
 40
43.0
 40
43.0
 40
43.0
 40
44.0
 40
44.0
 40
44.0
 40
45.0
 40
45.0
 40
45.0
 40
46.0
 40
46.0
 40
46.0
 40
47.0
 40
47.0
 40
47.0
 40
48.0
 40
48.0
 40
48.0
 40
49.0
 40
49.0
 40
49.0
 40
50.0
 40
50.0
 40
50.0
 40
51.0
 40
51.0
 40
51.0
 40
52.0
 40
52.0
 40
52.0
 40
53.0
 40
53.0
 40
53.0
 40
54.0
 40
54.0
 40
54.0
 40
55.0
 40
55.0
 40
55.0
 40
56.0
 40
56.0
 40
56.0
 40
57.0
 40
57.0
 40
57.0
 40
58.0
 40
58.0
 40
58.0
 40
59.0
 40
59.0
 40
59.0
 40
60.0
 40
60.0
 40
60.0
 40
61.0
 40
61.0
 40
61.0
 40
62.0
 40
62.0
 40
62.0
 40
63.0
 40
63.0
 40
63.0
 40
64.0
 40
64.0
 40
64.0
 40
65.0
 40
65.0
 40
65.0
 40
66.0
 40
66.0
 40
66.0
 40
67.0
 40
67.0
 40
67.0
 40
68.0
 40
68.0
 40
68.0
 40
69.0
 40
69.0
 40
69.0
 40
70.0
 40
70.0
 40
70.0
 40
71.0
 40
71.0
 40
71.0
 40
72.0
 40
72.0
 40
72.0
 40
72.0
 10
527.22119140625
 20
1207.73046875
 10
527.0166015625
 20
1207.73046875
 10
526.8369140625
 20
1207.87939453125
 10
526.8046875
 20
1208.08837890625
 10
526.8046875
 20
1208.08837890625
 10
525.3984375
 20
1217.2294921875
 10
525.3984375
 20
1217.2294921875
 10
525.3984375
 20
1217.2294921875
 10
523.712890625
 20
1226.49951171875
 10
523.712890625
 20
1226.49951171875
 10
523.712890625
 20
1226.49951171875
 10
521.74658203125
 20
1235.626953125
 10
521.74658203125
 20
1235.626953125
 10
521.74658203125
 20
1235.626953125
 10
519.49951171875
 20
1244.755859375
 10
519.49951171875
 20
1244.755859375
 10
519.49951171875
 20
1244.755859375
 10
516.9716796875
 20
1253.7431640625
 10
516.9716796875
 20
1253.7431640625
 10
516.9716796875
 20
1253.7431640625
 10
514.30224609375
 20
1262.59521484375
 10
514.30224609375
 20
1262.59521484375
 10
514.30224609375
 20
1262.59521484375
 10
511.35205078125
 20
1271.443359375
 10
511.35205078125
 20
1271.443359375
 10
511.35205078125
 20
1271.443359375
 10
508.12158203125
 20
1280.29150390625
 10
508.12158203125
 20
1280.29150390625
 10
508.12158203125
 20
1280.29150390625
 10
504.611328125
 20
1288.99755859375
 10
504.611328125
 20
1288.99755859375
 10
504.611328125
 20
1288.99755859375
 10
500.9580078125
 20
1297.56787109375
 10
500.9580078125
 20
1297.56787109375
 10
500.9580078125
 20
1297.56787109375
 10
497.02490234375
 20
1306.13623046875
 10
497.02490234375
 20
1306.13623046875
 10
497.02490234375
 20
1306.13623046875
 10
492.8134765625
 20
1314.41796875
 10
492.8134765625
 20
1314.41796875
 10
492.8134765625
 20
1314.41796875
 10
488.45654296875
 20
1322.7099609375
 10
488.45654296875
 20
1322.7099609375
 10
488.45654296875
 20
1322.7099609375
 10
483.9599609375
 20
1330.859375
 10
483.9599609375
 20
1330.859375
 10
483.9599609375
 20
1330.859375
 10
479.04833984375
 20
1338.8583984375
 10
479.04833984375
 20
1338.8583984375
 10
479.04833984375
 20
1338.8583984375
 10
473.990234375
 20
1346.72607421875
 10
473.990234375
 20
1346.72607421875
 10
473.990234375
 20
1346.72607421875
 10
468.79150390625
 20
1354.45361328125
 10
468.79150390625
 20
1354.45361328125
 10
468.79150390625
 20
1354.45361328125
 10
463.177734375
 20
1362.03173828125
 10
463.177734375
 20
1362.03173828125
 10
463.177734375
 20
1362.03173828125
 10
457.41943359375
 20
1369.33447265625
 10
457.41943359375
 20
1369.33447265625
 10
457.41943359375
 20
1369.33447265625
 10
451.380859375
 20
1376.49560546875
 10
451.380859375
 20
1376.49560546875
 10
451.380859375
 20
1376.49560546875
 10
445.19873046875
 20
1383.5205078125
 10
445.19873046875
 20
1383.5205078125
 10
445.19873046875
 20
1383.5205078125
 10
438.7421875
 20
1390.2578125
 10
438.7421875
 20
1390.2578125
 10
438.7421875
 20
1390.2578125
 10
432.0048828125
 20
1396.7138671875
 10
432.0048828125
 20
1396.7138671875
 10
432.0048828125
 20
1396.7138671875
 10
424.986328125
 20
1402.88916015625
 10
424.986328125
 20
1402.88916015625
 10
424.986328125
 20
1402.88916015625
 10
417.68701171875
 20
1408.78466796875
 10
417.68701171875
 20
1408.78466796875
 10
417.68701171875
 20
1408.78466796875
 10
410.24462890625
 20
1414.40087890625
 10
410.24462890625
 20
1414.40087890625
 10
410.24462890625
 20
1414.40087890625
 10
402.39111328125
 20
1419.58935546875
 10
402.39111328125
 20
1419.58935546875
 10
402.39111328125
 20
1419.58935546875
 10
394.3916015625
 20
1424.3603515625
 10
394.3916015625
 20
1424.3603515625
 10
394.3916015625
 20
1424.3603515625
 10
386.24755859375
 20
1428.85302734375
 10
386.24755859375
 20
1428.85302734375
 10
386.24755859375
 20
1428.85302734375
 10
377.697265625
 20
1432.77685546875
 10
377.697265625
 20
1432.77685546875
 10
377.697265625
 20
1432.77685546875
 10
373.48583984375
 20
1434.6015625
 10
373.48583984375
 20
1434.6015625
 10
373.48583984375
 20
1434.6015625
 10
369.005859375
 20
1436.28125
 10
369.005859375
 20
1436.28125
 10
369.005859375
 20
1436.28125
 10
360.16064453125
 20
1439.22900390625
 10
360.16064453125
 20
1439.22900390625
 10
359.939453125
 20
1439.302734375
 10
359.81982421875
 20
1439.54150390625
 10
359.8935546875
 20
1439.7626953125
 10
359.96728515625
 20
1439.98291015625
 10
360.20703125
 20
1440.1025390625
 10
360.42724609375
 20
1440.02978515625
 10
360.42724609375
 20
1440.02978515625
 10
369.287109375
 20
1437.07666015625
 10
369.287109375
 20
1437.07666015625
 10
369.287109375
 20
1437.07666015625
 10
373.8017578125
 20
1435.3837890625
 10
373.8017578125
 20
1435.3837890625
 10
373.8017578125
 20
1435.3837890625
 10
378.041015625
 20
1433.54736328125
 10
378.041015625
 20
1433.54736328125
 10
378.041015625
 20
1433.54736328125
 10
386.626953125
 20
1429.60595703125
 10
386.626953125
 20
1429.60595703125
 10
386.626953125
 20
1429.60595703125
 10
394.8115234375
 20
1425.09228515625
 10
394.8115234375
 20
1425.09228515625
 10
394.8115234375
 20
1425.09228515625
 10
402.83984375
 20
1420.3037109375
 10
402.83984375
 20
1420.3037109375
 10
402.83984375
 20
1420.3037109375
 10
410.7314453125
 20
1415.08984375
 10
410.7314453125
 20
1415.08984375
 10
410.7314453125
 20
1415.08984375
 10
418.20654296875
 20
1409.44970703125
 10
418.20654296875
 20
1409.44970703125
 10
418.20654296875
 20
1409.44970703125
 10
425.5302734375
 20
1403.5341796875
 10
425.5302734375
 20
1403.5341796875
 10
425.5302734375
 20
1403.5341796875
 10
432.57568359375
 20
1397.33544921875
 10
432.57568359375
 20
1397.33544921875
 10
432.57568359375
 20
1397.33544921875
 10
439.3388671875
 20
1390.8544921875
 10
439.3388671875
 20
1390.8544921875
 10
439.3388671875
 20
1390.8544921875
 10
445.8203125
 20
1384.09130859375
 10
445.8203125
 20
1384.09130859375
 10
445.8203125
 20
1384.09130859375
 10
452.0205078125
 20
1377.04638671875
 10
452.0205078125
 20
1377.04638671875
 10
452.0205078125
 20
1377.04638671875
 10
458.0732421875
 20
1369.86767578125
 10
458.0732421875
 20
1369.86767578125
 10
458.0732421875
 20
1369.86767578125
 10
463.84814453125
 20
1362.5439453125
 10
463.84814453125
 20
1362.5439453125
 10
463.84814453125
 20
1362.5439453125
 10
469.48046875
 20
1354.93994140625
 10
469.48046875
 20
1354.93994140625
 10
469.48046875
 20
1354.93994140625
 10
474.6953125
 20
1347.189453125
 10
474.6953125
 20
1347.189453125
 10
474.6953125
 20
1347.189453125
 10
479.7626953125
 20
1339.30712890625
 10
479.7626953125
 20
1339.30712890625
 10
479.7626953125
 20
1339.30712890625
 10
484.68896484375
 20
1331.28369140625
 10
484.68896484375
 20
1331.28369140625
 10
484.68896484375
 20
1331.28369140625
 10
489.19921875
 20
1323.10986328125
 10
489.19921875
 20
1323.10986328125
 10
489.19921875
 20
1323.10986328125
 10
493.56298828125
 20
1314.8056640625
 10
493.56298828125
 20
1314.8056640625
 10
493.56298828125
 20
1314.8056640625
 10
497.7841796875
 20
1306.50341796875
 10
497.7841796875
 20
1306.50341796875
 10
497.7841796875
 20
1306.50341796875
 10
501.7294921875
 20
1297.9091796875
 10
501.7294921875
 20
1297.9091796875
 10
501.7294921875
 20
1297.9091796875
 10
505.390625
 20
1289.32080078125
 10
505.390625
 20
1289.32080078125
 10
505.390625
 20
1289.32080078125
 10
508.9091796875
 20
1280.59375
 10
508.9091796875
 20
1280.59375
 10
508.9091796875
 20
1280.59375
 10
512.14892578125
 20
1271.72119140625
 10
512.14892578125
 20
1271.72119140625
 10
512.14892578125
 20
1271.72119140625
 10
515.1064453125
 20
1262.85009765625
 10
515.1064453125
 20
1262.85009765625
 10
515.1064453125
 20
1262.85009765625
 10
517.78173828125
 20
1253.97900390625
 10
517.78173828125
 20
1253.97900390625
 10
517.78173828125
 20
1253.97900390625
 10
520.3154296875
 20
1244.97119140625
 10
520.3154296875
 20
1244.97119140625
 10
520.3154296875
 20
1244.97119140625
 10
522.56884765625
 20
1235.81689453125
 10
522.56884765625
 20
1235.81689453125
 10
522.56884765625
 20
1235.81689453125
 10
524.54052734375
 20
1226.6640625
 10
524.54052734375
 20
1226.6640625
 10
524.54052734375
 20
1226.6640625
 10
526.23046875
 20
1217.369140625
 10
526.23046875
 20
1217.369140625
 10
526.23046875
 20
1217.369140625
 10
527.638671875
 20
1208.21630859375
 10
527.638671875
 20
1208.21630859375
 10
527.67431640625
 20
1207.986328125
 10
527.51611328125
 20
1207.77099609375
 10
527.28564453125
 20
1207.7353515625
 10
527.26416015625
 20
1207.73193359375
 10
527.24267578125
 20
1207.73046875
 10
527.22119140625
 20
1207.73046875
 10
527.22119140625
 20
1207.73046875
 10
527.22119140625
 20
1207.73046875
 10
527.22119140625
 20
1207.73046875
 97
        0
 75
     2
 76
     1
 98
        0
  0
ENDBLK
  5
79
330
76
100
AcDbEntity
  8
0
100
AcDbBlockEnd
  0
ENDSEC
  0
SECTION
  2
ENTITIES
  0
INSERT
  5
3D
330
1F
100
AcDbEntity
  8
Layer 1
100
AcDbBlockReference
  2
block 2
 10
0.0
 20
0.0
 30
0.0
  0
ENDSEC
  0
SECTION
  2
OBJECTS
  0
DICTIONARY
  5
C
330
0
100
AcDbDictionary
281
     1
  3
ACAD_GROUP
350
D
  3
ACAD_LAYOUT
350
1A
  3
ACAD_MLINESTYLE
350
17
  3
ACAD_PLOTSETTINGS
350
19
  3
ACAD_PLOTSTYLENAME
350
E
  3
ACAD_TABLESTYLE
350
7C
  3
ACAD_VISUALSTYLE
350
2A
  0
DICTIONARY
  5
D
102
{ACAD_REACTORS
330
C
102
}
330
C
100
AcDbDictionary
281
     1
  0
DICTIONARY
  5
1A
102
{ACAD_REACTORS
330
C
102
}
330
C
100
AcDbDictionary
281
     1
  3
Layout1
350
1E
  3
Layout2
350
26
  3
Model
350
22
  0
DICTIONARY
  5
17
102
{ACAD_REACTORS
330
C
102
}
330
C
100
AcDbDictionary
281
     1
  3
Standard
350
18
  0
DICTIONARY
  5
19
102
{ACAD_REACTORS
330
C
102
}
330
C
100
AcDbDictionary
281
     1
  0
ACDBDICTIONARYWDFLT
  5
E
102
{ACAD_REACTORS
330
C
102
}
330
C
100
AcDbDictionary
281
     1
  3
Normal
350
F
100
AcDbDictionaryWithDefault
340
F
  0
DICTIONARY
  5
7C
102
{ACAD_REACTORS
330
C
102
}
330
C
100
AcDbDictionary
281
     1
  0
DICTIONARY
  5
2A
102
{ACAD_REACTORS
330
C
102
}
330
C
100
AcDbDictionary
281
     1
  3
2dWireframe
350
2F
  3
3D Hidden
350
31
  3
3dWireframe
350
30
  3
Basic
350
32
  3
Brighten
350
36
  3
ColorChange
350
3A
  3
Conceptual
350
34
  3
Dim
350
35
  3
Facepattern
350
39
  3
Flat
350
2B
  3
FlatWithEdges
350
2C
  3
Gouraud
350
2D
  3
GouraudWithEdges
350
2E
  3
Linepattern
350
38
  3
Realistic
350
33
  3
Thicken
350
37
  0
LAYOUT
  5
1E
102
{ACAD_REACTORS
330
1A
102
}
330
1A
100
AcDbPlotSettings
  1

  2
none_device
  4

  6

 40
0.0
 41
0.0
 42
0.0
 43
0.0
 44
0.0
 45
0.0
 46
0.0
 47
0.0
 48
0.0
 49
0.0
140
0.0
141
0.0
142
1.0
143
1.0
 70
   688
 72
     0
 73
     0
 74
     5
  7

 75
    16
 76
     0
 77
     2
 78
   300
147
1.0
148
0.0
149
0.0
100
AcDbLayout
  1
Layout1
 70
     1
 71
     1
 10
0.0
 20
0.0
 11
12.0
 21
9.0
 12
0.0
 22
0.0
 32
0.0
 14
1.000000000000000E+20
 24
1.000000000000000E+20
 34
1.000000000000000E+20
 15
-1.000000000000000E+20
 25
-1.000000000000000E+20
 35
-1.000000000000000E+20
146
0.0
 13
0.0
 23
0.0
 33
0.0
 16
1.0
 26
0.0
 36
0.0
 17
0.0
 27
1.0
 37
0.0
 76
     0
330
1B
  0
LAYOUT
  5
26
102
{ACAD_REACTORS
330
1A
102
}
330
1A
100
AcDbPlotSettings
  1

  2
none_device
  4

  6

 40
0.0
 41
0.0
 42
0.0
 43
0.0
 44
0.0
 45
0.0
 46
0.0
 47
0.0
 48
0.0
 49
0.0
140
0.0
141
0.0
142
1.0
143
1.0
 70
   688
 72
     0
 73
     0
 74
     5
  7

 75
    16
 76
     0
 77
     2
 78
   300
147
1.0
148
0.0
149
0.0
100
AcDbLayout
  1
Layout2
 70
     1
 71
     2
 10
0.0
 20
0.0
 11
0.0
 21
0.0
 12
0.0
 22
0.0
 32
0.0
 14
0.0
 24
0.0
 34
0.0
 15
0.0
 25
0.0
 35
0.0
146
0.0
 13
0.0
 23
0.0
 33
0.0
 16
1.0
 26
0.0
 36
0.0
 17
0.0
 27
1.0
 37
0.0
 76
     0
330
23
  0
LAYOUT
  5
22
102
{ACAD_REACTORS
330
1A
102
}
330
1A
100
AcDbPlotSettings
  1

  2
none_device
  4

  6

 40
0.0
 41
0.0
 42
0.0
 43
0.0
 44
0.0
 45
0.0
 46
0.0
 47
0.0
 48
0.0
 49
0.0
140
0.0
141
0.0
142
1.0
143
1.0
 70
  1712
 72
     0
 73
     0
 74
     0
  7

 75
     0
 76
     0
 77
     2
 78
   300
147
1.0
148
0.0
149
0.0
100
AcDbLayout
  1
Model
 70
     1
 71
     0
 10
0.0
 20
0.0
 11
12.0
 21
9.0
 12
0.0
 22
0.0
 32
0.0
 14
1.000000000000000E+20
 24
1.000000000000000E+20
 34
1.000000000000000E+20
 15
-1.000000000000000E+20
 25
-1.000000000000000E+20
 35
-1.000000000000000E+20
146
0.0
 13
0.0
 23
0.0
 33
0.0
 16
1.0
 26
0.0
 36
0.0
 17
0.0
 27
1.0
 37
0.0
 76
     0
330
1F
331
29
  0
MLINESTYLE
  5
18
102
{ACAD_REACTORS
330
17
102
}
330
17
100
AcDbMlineStyle
  2
Standard
 70
     0
  3

 62
   256
 51
90.0
 52
90.0
 71
     2
 49
0.5
 62
   256
  6
BYLAYER
 49
-0.5
 62
   256
  6
BYLAYER
  0
ACDBPLACEHOLDER
  5
F
102
{ACAD_REACTORS
330
E
102
}
330
E
  0
VISUALSTYLE
  5
2F
102
{ACAD_REACTORS
330
2A
102
}
330
2A
100
AcDbVisualStyle
  2
2dWireframe
 70
     4
 71
     0
 72
     2
 73
     0
 90
        0
 40
-0.6
 41
-30.0
 62
     5
 63
     7
421
 16777215
 74
     1
 91
        4
 64
     7
 65
   257
 75
     1
175
     1
 42
1.0
 92
        0
 66
   257
 43
1.0
 76
     1
 77
     6
 78
     2
 67
     7
 79
     5
170
     0
171
     0
290
     0
174
     0
 93
        1
 44
0.0
173
     0
291
     0
 45
0.0
1001
ACAD
1000
AcDbSavedByObjectVersion
1070
     0
  0
VISUALSTYLE
  5
31
102
{ACAD_REACTORS
330
2A
102
}
330
2A
100
AcDbVisualStyle
  2
3D Hidden
 70
     6
 71
     1
 72
     2
 73
     2
 90
        0
 40
-0.6
 41
-30.0
 62
     5
 63
     7
421
 16777215
 74
     2
 91
        2
 64
     7
 65
   257
 75
     2
175
     1
 42
40.0
 92
        0
 66
   257
 43
1.0
 76
     1
 77
     6
 78
     2
 67
     7
 79
     3
170
     0
171
     0
290
     0
174
     0
 93
        1
 44
0.0
173
     0
291
     0
 45
0.0
1001
ACAD
1000
AcDbSavedByObjectVersion
1070
     0
  0
VISUALSTYLE
  5
30
102
{ACAD_REACTORS
330
2A
102
}
330
2A
100
AcDbVisualStyle
  2
3dWireframe
 70
     5
 71
     0
 72
     2
 73
     0
 90
        0
 40
-0.6
 41
-30.0
 62
     5
 63
     7
421
 16777215
 74
     1
 91
        4
 64
     7
 65
   257
 75
     1
175
     1
 42
1.0
 92
        0
 66
   257
 43
1.0
 76
     1
 77
     6
 78
     2
 67
     7
 79
     5
170
     0
171
     0
290
     0
174
     0
 93
        1
 44
0.0
173
     0
291
     0
 45
0.0
1001
ACAD
1000
AcDbSavedByObjectVersion
1070
     0
  0
VISUALSTYLE
  5
32
102
{ACAD_REACTORS
330
2A
102
}
330
2A
100
AcDbVisualStyle
  2
Basic
 70
     7
 71
     1
 72
     0
 73
     1
 90
        0
 40
-0.6
 41
-30.0
 62
     5
 63
     7
421
 16777215
 74
     0
 91
        4
 64
     7
 65
   257
 75
     1
175
     1
 42
1.0
 92
        8
 66
     7
 43
1.0
 76
     1
 77
     6
 78
     2
 67
     7
 79
     5
170
     0
171
     0
290
     0
174
     0
 93
        1
 44
0.0
173
     0
291
     1
 45
0.0
1001
ACAD
1000
AcDbSavedByObjectVersion
1070
     0
  0
VISUALSTYLE
  5
36
102
{ACAD_REACTORS
330
2A
102
}
330
2A
100
AcDbVisualStyle
  2
Brighten
 70
    12
 71
     2
 72
     2
 73
     0
 90
        0
 40
-0.6
 41
-30.0
 62
     5
 63
     7
421
 16777215
 74
     1
 91
        4
 64
     7
 65
   257
 75
     1
175
     1
 42
1.0
 92
        8
 66
     7
 43
1.0
 76
     1
 77
     6
 78
     2
 67
     7
 79
     5
170
     0
171
     0
290
     0
174
     0
 93
        1
 44
50.0
173
     0
291
     1
 45
0.0
1001
ACAD
1000
AcDbSavedByObjectVersion
1070
     0
  0
VISUALSTYLE
  5
3A
102
{ACAD_REACTORS
330
2A
102
}
330
2A
100
AcDbVisualStyle
  2
ColorChange
 70
    16
 71
     2
 72
     2
 73
     3
 90
        0
 40
-0.6
 41
-30.0
 62
     5
 63
     8
421
  8421504
 74
     1
 91
        4
 64
     7
 65
   257
 75
     1
175
     1
 42
1.0
 92
        8
 66
     8
424
  8421504
 43
1.0
 76
     1
 77
     6
 78
     2
 67
     7
 79
     5
170
     0
171
     0
290
     0
174
     0
 93
        1
 44
0.0
173
     0
291
     1
 45
0.0
1001
ACAD
1000
AcDbSavedByObjectVersion
1070
     0
  0
VISUALSTYLE
  5
34
102
{ACAD_REACTORS
330
2A
102
}
330
2A
100
AcDbVisualStyle
  2
Conceptual
 70
     9
 71
     3
 72
     2
 73
     0
 90
        0
 40
-0.6
 41
-30.0
 62
     5
 63
     7
421
 16777215
 74
     2
 91
        2
 64
     7
 65
   257
 75
     1
175
     1
 42
40.0
 92
        8
 66
     7
 43
1.0
 76
     1
 77
     6
 78
     2
 67
     7
 79
     3
170
     0
171
     0
290
     0
174
     0
 93
        1
 44
0.0
173
     0
291
     0
 45
0.0
1001
ACAD
1000
AcDbSavedByObjectVersion
1070
     0
  0
VISUALSTYLE
  5
35
102
{ACAD_REACTORS
330
2A
102
}
330
2A
100
AcDbVisualStyle
  2
Dim
 70
    11
 71
     2
 72
     2
 73
     0
 90
        0
 40
-0.6
 41
-30.0
 62
     5
 63
     7
421
 16777215
 74
     1
 91
        4
 64
     7
 65
   257
 75
     1
175
     1
 42
1.0
 92
        8
 66
     7
 43
1.0
 76
     1
 77
     6
 78
     2
 67
     7
 79
     5
170
     0
171
     0
290
     0
174
     0
 93
        1
 44
-50.0
173
     0
291
     1
 45
0.0
1001
ACAD
1000
AcDbSavedByObjectVersion
1070
     0
  0
VISUALSTYLE
  5
39
102
{ACAD_REACTORS
330
2A
102
}
330
2A
100
AcDbVisualStyle
  2
Facepattern
 70
    15
 71
     2
 72
     2
 73
     0
 90
        0
 40
-0.6
 41
-30.0
 62
     5
 63
     7
421
 16777215
 74
     1
 91
        4
 64
     7
 65
   257
 75
     1
175
     1
 42
1.0
 92
        8
 66
     7
 43
1.0
 76
     1
 77
     6
 78
     2
 67
     7
 79
     5
170
     0
171
     0
290
     0
174
     0
 93
        1
 44
0.0
173
     0
291
     1
 45
0.0
1001
ACAD
1000
AcDbSavedByObjectVersion
1070
     0
  0
VISUALSTYLE
  5
2B
102
{ACAD_REACTORS
330
2A
102
}
330
2A
100
AcDbVisualStyle
  2
Flat
 70
     0
 71
     2
 72
     1
 73
     1
 90
        2
 40
-0.6
 41
30.0
 62
     5
 63
     7
421
 16777215
 74
     0
 91
        4
 64
     7
 65
   257
 75
     1
175
     1
 42
1.0
 92
        8
 66
     7
 43
1.0
 76
     1
 77
     6
 78
     2
 67
     7
 79
     5
170
     0
171
     0
290
     0
174
     0
 93
       13
 44
0.0
173
     0
291
     1
 45
0.0
1001
ACAD
1000
AcDbSavedByObjectVersion
1070
     0
  0
VISUALSTYLE
  5
2C
102
{ACAD_REACTORS
330
2A
102
}
330
2A
100
AcDbVisualStyle
  2
FlatWithEdges
 70
     1
 71
     2
 72
     1
 73
     1
 90
        2
 40
-0.6
 41
30.0
 62
     5
 63
     7
421
 16777215
 74
     1
 91
        4
 64
     7
 65
   257
 75
     1
175
     1
 42
1.0
 92
        0
 66
   257
 43
1.0
 76
     1
 77
     6
 78
     2
 67
     7
 79
     5
170
     0
171
     0
290
     0
174
     0
 93
       13
 44
0.0
173
     0
291
     1
 45
0.0
1001
ACAD
1000
AcDbSavedByObjectVersion
1070
     0
  0
VISUALSTYLE
  5
2D
102
{ACAD_REACTORS
330
2A
102
}
330
2A
100
AcDbVisualStyle
  2
Gouraud
 70
     2
 71
     2
 72
     2
 73
     1
 90
        2
 40
-0.6
 41
30.0
 62
     5
 63
     7
421
 16777215
 74
     0
 91
        4
 64
     7
 65
   257
 75
     1
175
     1
 42
1.0
 92
        0
 66
     7
 43
1.0
 76
     1
 77
     6
 78
     2
 67
     7
 79
     5
170
     0
171
     0
290
     0
174
     0
 93
       13
 44
0.0
173
     0
291
     1
 45
0.0
1001
ACAD
1000
AcDbSavedByObjectVersion
1070
     0
  0
VISUALSTYLE
  5
2E
102
{ACAD_REACTORS
330
2A
102
}
330
2A
100
AcDbVisualStyle
  2
GouraudWithEdges
 70
     3
 71
     2
 72
     2
 73
     1
 90
        2
 40
-0.6
 41
30.0
 62
     5
 63
     7
421
 16777215
 74
     1
 91
        4
 64
     7
 65
   257
 75
     1
175
     1
 42
1.0
 92
        0
 66
   257
 43
1.0
 76
     1
 77
     6
 78
     2
 67
     7
 79
     5
170
     0
171
     0
290
     0
174
     0
 93
       13
 44
0.0
173
     0
291
     1
 45
0.0
1001
ACAD
1000
AcDbSavedByObjectVersion
1070
     0
  0
VISUALSTYLE
  5
38
102
{ACAD_REACTORS
330
2A
102
}
330
2A
100
AcDbVisualStyle
  2
Linepattern
 70
    14
 71
     2
 72
     2
 73
     0
 90
        0
 40
-0.6
 41
-30.0
 62
     5
 63
     7
421
 16777215
 74
     1
 91
        4
 64
     7
 65
   257
 75
     7
175
     7
 42
1.0
 92
        8
 66
     7
 43
1.0
 76
     1
 77
     6
 78
     2
 67
     7
 79
     5
170
     0
171
     0
290
     0
174
     0
 93
        1
 44
0.0
173
     0
291
     1
 45
0.0
1001
ACAD
1000
AcDbSavedByObjectVersion
1070
     0
  0
VISUALSTYLE
  5
33
102
{ACAD_REACTORS
330
2A
102
}
330
2A
100
AcDbVisualStyle
  2
Realistic
 70
     8
 71
     2
 72
     2
 73
     0
 90
        0
 40
-0.6
 41
-30.0
 62
     5
 63
     7
421
 16777215
 74
     1
 91
        0
 64
     7
 65
   257
 75
     1
175
     1
 42
1.0
 92
        8
 66
     8
424
  7895160
 43
1.0
 76
     1
 77
     6
 78
     2
 67
     7
 79
     5
170
     0
171
     0
290
     0
174
     0
 93
       13
 44
0.0
173
     0
291
     0
 45
0.0
1001
ACAD
1000
AcDbSavedByObjectVersion
1070
     0
  0
VISUALSTYLE
  5
37
102
{ACAD_REACTORS
330
2A
102
}
330
2A
100
AcDbVisualStyle
  2
Thicken
 70
    13
 71
     2
 72
     2
 73
     0
 90
        0
 40
-0.6
 41
-30.0
 62
     5
 63
     7
421
 16777215
 74
     1
 91
        4
 64
     7
 65
   257
 75
     1
175
     1
 42
1.0
 92
       12
 66
     7
 43
1.0
 76
     1
 77
     6
 78
     2
 67
     7
 79
     5
170
     0
171
     0
290
     0
174
     0
 93
        1
 44
0.0
173
     0
291
     1
 45
0.0
1001
ACAD
1000
AcDbSavedByObjectVersion
1070
     0
  0
ENDSEC
  0
EOF
