  0
SECTION
  2
HEADER
  9
$ACADVER
  1
AC1014
  9
$HANDSEED
  5
FFFF
  9
$INSUNITS
 70
     4
  9
$MEASUREMENT
 70
     1
  0
ENDSEC
  0
SECTION
  2
TABLES
  0
TABLE
  2
VPORT
  5
8
330
0
100
AcDbSymbolTable
 70
     4
  0
VPORT
  5
2E
330
8
100
AcDbSymbolTableRecord
100
AcDbViewportTableRecord
  2
*ACTIVE
 70
     0
 10
0.0
 20
0.0
 11
1.0
 21
1.0
 12
210.0
 22
148.5
 13
0.0
 23
0.0
 14
10.0
 24
10.0
 15
10.0
 25
10.0
 16
0.0
 26
0.0
 36
1.0
 17
0.0
 27
0.0
 37
0.0
 40
341.0
 41
1.24
 42
50.0
 43
0.0
 44
0.0
 50
0.0
 51
0.0
 71
     0
 72
   100
 73
     1
 74
     3
 75
     0
 76
     0
 77
     0
 78
     0
  0
ENDTAB
  0
TABLE
  2
LTYPE
  5
5
330
0
100
AcDbSymbolTable
 70
     1
  0
LTYPE
  5
14
330
5
100
AcDbSymbolTableRecord
100
AcDbLinetypeTableRecord
  2
BYBLOCK
 70
     0
  3

 72
    65
 73
     0
 40
0.0
  0
LTYPE
  5
15
330
5
100
AcDbSymbolTableRecord
100
AcDbLinetypeTableRecord
  2
BYLAYER
 70
     0
  3

 72
    65
 73
     0
 40
0.0
  0
LTYPE
  5
16
330
5
100
AcDbSymbolTableRecord
100
AcDbLinetypeTableRecord
  2
CONTINUOUS
 70
     0
  3
Solid line
 72
    65
 73
     0
 40
0.0
  0
ENDTAB
  0
TABLE
  2
LAYER
  5
2
100
AcDbSymbolTable
 70
2
  0
LAYER
  5
50
100
AcDbSymbolTableRecord
100
AcDbLayerTableRecord
  2
0
 70
0
  6
CONTINUOUS
  0
LAYER
  5
51
100
AcDbSymbolTableRecord
100
AcDbLayerTableRecord
  2
Calque_1
 70
0
  6
CONTINUOUS
  0
ENDTAB
  0
TABLE
  2
STYLE
  5
3
330
0
100
AcDbSymbolTable
 70
     1
  0
STYLE
  5
11
330
3
100
AcDbSymbolTableRecord
100
AcDbTextStyleTableRecord
  2
STANDARD
 70
     0
 40
0.0
 41
1.0
 50
0.0
 71
     0
 42
2.5
  3
txt
  4

  0
ENDTAB
  0
TABLE
  2
VIEW
  5
6
330
0
100
AcDbSymbolTable
 70
     0
  0
ENDTAB
  0
TABLE
  2
UCS
  5
7
330
0
100
AcDbSymbolTable
 70
     0
  0
ENDTAB
  0
TABLE
  2
APPID
  5
9
330
0
100
AcDbSymbolTable
 70
     2
  0
APPID
  5
12
330
9
100
AcDbSymbolTableRecord
100
AcDbRegAppTableRecord
  2
ACAD
 70
     0
  0
ENDTAB
  0
TABLE
  2
DIMSTYLE
  5
A
330
0
100
AcDbSymbolTable
 70
     1
  0
DIMSTYLE
105
27
330
A
100
AcDbSymbolTableRecord
100
AcDbDimStyleTableRecord
  2
ISO-25
 70
     0
  3

  4

  5

  6

  7

 40
1.0
 41
2.5
 42
0.625
 43
3.75
 44
1.25
 45
0.0
 46
0.0
 47
0.0
 48
0.0
140
2.5
141
2.5
142
0.0
143
0.03937007874016
144
1.0
145
0.0
146
1.0
147
0.625
 71
     0
 72
     0
 73
     0
 74
     0
 75
     0
 76
     0
 77
     1
 78
     8
170
     0
171
     3
172
     1
173
     0
174
     0
175
     0
176
     0
177
     0
178
     0
270
     2
271
     2
272
     2
273
     2
274
     3
340
11
275
     0
280
     0
281
     0
282
     0
283
     0
284
     8
285
     0
286
     0
287
     3
288
     0
  0
ENDTAB
  0
TABLE
  2
BLOCK_RECORD
  5
1
330
0
100
AcDbSymbolTable
 70
     1
  0
BLOCK_RECORD
  5
1F
330
1
100
AcDbSymbolTableRecord
100
AcDbBlockTableRecord
  2
*MODEL_SPACE
  0
BLOCK_RECORD
  5
1B
330
1
100
AcDbSymbolTableRecord
100
AcDbBlockTableRecord
  2
*PAPER_SPACE
  0
ENDTAB
  0
ENDSEC
  0
SECTION
  2
BLOCKS
  0
BLOCK
  5
20
330
1F
100
AcDbEntity
  8
0
100
AcDbBlockBegin
  2
*MODEL_SPACE
 70
     0
 10
0.0
 20
0.0
 30
0.0
  3
*MODEL_SPACE
  1

  0
ENDBLK
  5
21
330
1F
100
AcDbEntity
  8
0
100
AcDbBlockEnd
  0
BLOCK
  5
1C
330
1B
100
AcDbEntity
 67
     1
  8
0
100
AcDbBlockBegin
  2
*PAPER_SPACE
  1

  0
ENDBLK
  5
1D
330
1B
100
AcDbEntity
 67
     1
  8
0
100
AcDbBlockEnd
  0
ENDSEC
  0
SECTION
  2
ENTITIES
  0
SPLINE
  5
100
100
AcDbEntity
  8
Calque_1
 62
7
100
AcDbSpline
 70
8
 71
3
 72
8
 73
4
 74
0
 40
0
 40
0
 40
0
 40
0
 40
1
 40
1
 40
1
 40
1
 10
30.253000
 20
126.495890
 30
0.0
 10
30.373000
 20
126.495890
 30
0.0
 10
30.253000
 20
126.615890
 30
0.0
 10
30.253000
 20
126.495890
 30
0.0
  0
SPLINE
  5
101
100
AcDbEntity
  8
Calque_1
 62
7
100
AcDbSpline
 70
8
 71
3
 72
8
 73
4
 74
0
 40
0
 40
0
 40
0
 40
0
 40
1
 40
1
 40
1
 40
1
 10
30.253000
 20
122.615890
 30
0.0
 10
30.253000
 20
122.549890
 30
0.0
 10
30.307000
 20
122.495890
 30
0.0
 10
30.373000
 20
122.495890
 30
0.0
  0
LWPOLYLINE
  5
102
100
AcDbEntity
  8
Calque_1
 62
7
100
AcDbPolyline
 90
3
 70
0
 10
22.373000
 20
126.495890
 30
0.0
 10
30.253000
 20
126.495890
 30
0.0
 10
30.253000
 20
122.615890
 30
0.0
  0
SPLINE
  5
103
100
AcDbEntity
  8
Calque_1
 62
7
100
AcDbSpline
 70
8
 71
3
 72
8
 73
4
 74
0
 40
0
 40
0
 40
0
 40
0
 40
1
 40
1
 40
1
 40
1
 10
38.373000
 20
122.495890
 30
0.0
 10
38.440000
 20
122.495890
 30
0.0
 10
38.493000
 20
122.549890
 30
0.0
 10
38.493000
 20
122.615890
 30
0.0
  0
LWPOLYLINE
  5
104
100
AcDbEntity
  8
Calque_1
 62
7
100
AcDbPolyline
 90
2
 70
0
 10
30.373000
 20
122.495890
 30
0.0
 10
38.373000
 20
122.495890
 30
0.0
  0
SPLINE
  5
105
100
AcDbEntity
  8
Calque_1
 62
7
100
AcDbSpline
 70
8
 71
3
 72
8
 73
4
 74
0
 40
0
 40
0
 40
0
 40
0
 40
1
 40
1
 40
1
 40
1
 10
38.493000
 20
126.495890
 30
0.0
 10
38.493000
 20
126.615890
 30
0.0
 10
38.373000
 20
126.495890
 30
0.0
 10
38.493000
 20
126.495890
 30
0.0
  0
SPLINE
  5
106
100
AcDbEntity
  8
Calque_1
 62
7
100
AcDbSpline
 70
8
 71
3
 72
8
 73
4
 74
0
 40
0
 40
0
 40
0
 40
0
 40
1
 40
1
 40
1
 40
1
 10
46.253000
 20
126.495890
 30
0.0
 10
46.373000
 20
126.495890
 30
0.0
 10
46.253000
 20
126.615890
 30
0.0
 10
46.253000
 20
126.495890
 30
0.0
  0
SPLINE
  5
107
100
AcDbEntity
  8
Calque_1
 62
7
100
AcDbSpline
 70
8
 71
3
 72
8
 73
4
 74
0
 40
0
 40
0
 40
0
 40
0
 40
1
 40
1
 40
1
 40
1
 10
46.253000
 20
122.615890
 30
0.0
 10
46.253000
 20
122.549890
 30
0.0
 10
46.307000
 20
122.495890
 30
0.0
 10
46.373000
 20
122.495890
 30
0.0
  0
LWPOLYLINE
  5
108
100
AcDbEntity
  8
Calque_1
 62
7
100
AcDbPolyline
 90
4
 70
0
 10
38.493000
 20
122.615890
 30
0.0
 10
38.493000
 20
126.495890
 30
0.0
 10
46.253000
 20
126.495890
 30
0.0
 10
46.253000
 20
122.615890
 30
0.0
  0
SPLINE
  5
109
100
AcDbEntity
  8
Calque_1
 62
7
100
AcDbSpline
 70
8
 71
3
 72
8
 73
4
 74
0
 40
0
 40
0
 40
0
 40
0
 40
1
 40
1
 40
1
 40
1
 10
54.373000
 20
122.495890
 30
0.0
 10
54.440000
 20
122.495890
 30
0.0
 10
54.493000
 20
122.549890
 30
0.0
 10
54.493000
 20
122.615890
 30
0.0
  0
LWPOLYLINE
  5
10a
100
AcDbEntity
  8
Calque_1
 62
7
100
AcDbPolyline
 90
2
 70
0
 10
46.373000
 20
122.495890
 30
0.0
 10
54.373000
 20
122.495890
 30
0.0
  0
SPLINE
  5
10b
100
AcDbEntity
  8
Calque_1
 62
7
100
AcDbSpline
 70
8
 71
3
 72
8
 73
4
 74
0
 40
0
 40
0
 40
0
 40
0
 40
1
 40
1
 40
1
 40
1
 10
54.493000
 20
126.495890
 30
0.0
 10
54.493000
 20
126.615890
 30
0.0
 10
54.373000
 20
126.495890
 30
0.0
 10
54.493000
 20
126.495890
 30
0.0
  0
SPLINE
  5
10c
100
AcDbEntity
  8
Calque_1
 62
7
100
AcDbSpline
 70
8
 71
3
 72
8
 73
4
 74
0
 40
0
 40
0
 40
0
 40
0
 40
1
 40
1
 40
1
 40
1
 10
62.253000
 20
126.495890
 30
0.0
 10
62.373000
 20
126.495890
 30
0.0
 10
62.253000
 20
126.615890
 30
0.0
 10
62.253000
 20
126.495890
 30
0.0
  0
SPLINE
  5
10d
100
AcDbEntity
  8
Calque_1
 62
7
100
AcDbSpline
 70
8
 71
3
 72
8
 73
4
 74
0
 40
0
 40
0
 40
0
 40
0
 40
1
 40
1
 40
1
 40
1
 10
62.253000
 20
122.615890
 30
0.0
 10
62.253000
 20
122.549890
 30
0.0
 10
62.307000
 20
122.495890
 30
0.0
 10
62.373000
 20
122.495890
 30
0.0
  0
LWPOLYLINE
  5
10e
100
AcDbEntity
  8
Calque_1
 62
7
100
AcDbPolyline
 90
4
 70
0
 10
54.493000
 20
122.615890
 30
0.0
 10
54.493000
 20
126.495890
 30
0.0
 10
62.253000
 20
126.495890
 30
0.0
 10
62.253000
 20
122.615890
 30
0.0
  0
SPLINE
  5
10f
100
AcDbEntity
  8
Calque_1
 62
7
100
AcDbSpline
 70
8
 71
3
 72
8
 73
4
 74
0
 40
0
 40
0
 40
0
 40
0
 40
1
 40
1
 40
1
 40
1
 10
70.373000
 20
122.495890
 30
0.0
 10
70.440000
 20
122.495890
 30
0.0
 10
70.493000
 20
122.549890
 30
0.0
 10
70.493000
 20
122.615890
 30
0.0
  0
LWPOLYLINE
  5
110
100
AcDbEntity
  8
Calque_1
 62
7
100
AcDbPolyline
 90
2
 70
0
 10
62.373000
 20
122.495890
 30
0.0
 10
70.373000
 20
122.495890
 30
0.0
  0
SPLINE
  5
111
100
AcDbEntity
  8
Calque_1
 62
7
100
AcDbSpline
 70
8
 71
3
 72
8
 73
4
 74
0
 40
0
 40
0
 40
0
 40
0
 40
1
 40
1
 40
1
 40
1
 10
70.493000
 20
126.495890
 30
0.0
 10
70.493000
 20
126.615890
 30
0.0
 10
70.373000
 20
126.495890
 30
0.0
 10
70.493000
 20
126.495890
 30
0.0
  0
SPLINE
  5
112
100
AcDbEntity
  8
Calque_1
 62
7
100
AcDbSpline
 70
8
 71
3
 72
8
 73
4
 74
0
 40
0
 40
0
 40
0
 40
0
 40
1
 40
1
 40
1
 40
1
 10
78.253000
 20
126.495890
 30
0.0
 10
78.373000
 20
126.495890
 30
0.0
 10
78.253000
 20
126.615890
 30
0.0
 10
78.253000
 20
126.495890
 30
0.0
  0
SPLINE
  5
113
100
AcDbEntity
  8
Calque_1
 62
7
100
AcDbSpline
 70
8
 71
3
 72
8
 73
4
 74
0
 40
0
 40
0
 40
0
 40
0
 40
1
 40
1
 40
1
 40
1
 10
78.253000
 20
122.615890
 30
0.0
 10
78.253000
 20
122.549890
 30
0.0
 10
78.307000
 20
122.495890
 30
0.0
 10
78.373000
 20
122.495890
 30
0.0
  0
LWPOLYLINE
  5
114
100
AcDbEntity
  8
Calque_1
 62
7
100
AcDbPolyline
 90
4
 70
0
 10
70.493000
 20
122.615890
 30
0.0
 10
70.493000
 20
126.495890
 30
0.0
 10
78.253000
 20
126.495890
 30
0.0
 10
78.253000
 20
122.615890
 30
0.0
  0
SPLINE
  5
115
100
AcDbEntity
  8
Calque_1
 62
7
100
AcDbSpline
 70
8
 71
3
 72
8
 73
4
 74
0
 40
0
 40
0
 40
0
 40
0
 40
1
 40
1
 40
1
 40
1
 10
86.373000
 20
122.495890
 30
0.0
 10
86.440000
 20
122.495890
 30
0.0
 10
86.493000
 20
122.549890
 30
0.0
 10
86.493000
 20
122.615890
 30
0.0
  0
LWPOLYLINE
  5
116
100
AcDbEntity
  8
Calque_1
 62
7
100
AcDbPolyline
 90
2
 70
0
 10
78.373000
 20
122.495890
 30
0.0
 10
86.373000
 20
122.495890
 30
0.0
  0
SPLINE
  5
117
100
AcDbEntity
  8
Calque_1
 62
7
100
AcDbSpline
 70
8
 71
3
 72
8
 73
4
 74
0
 40
0
 40
0
 40
0
 40
0
 40
1
 40
1
 40
1
 40
1
 10
86.493000
 20
126.615890
 30
0.0
 10
86.493000
 20
126.549890
 30
0.0
 10
86.440000
 20
126.495890
 30
0.0
 10
86.373000
 20
126.495890
 30
0.0
  0
SPLINE
  5
118
100
AcDbEntity
  8
Calque_1
 62
7
100
AcDbSpline
 70
8
 71
3
 72
8
 73
4
 74
0
 40
0
 40
0
 40
0
 40
0
 40
1
 40
1
 40
1
 40
1
 10
86.373000
 20
126.495890
 30
0.0
 10
86.425000
 20
126.495890
 30
0.0
 10
86.471000
 20
126.528890
 30
0.0
 10
86.487000
 20
126.578890
 30
0.0
  0
LWPOLYLINE
  5
119
100
AcDbEntity
  8
Calque_1
 62
7
100
AcDbPolyline
 90
2
 70
0
 10
86.493000
 20
122.615890
 30
0.0
 10
86.493000
 20
126.615890
 30
0.0
  0
SPLINE
  5
11a
100
AcDbEntity
  8
Calque_1
 62
7
100
AcDbSpline
 70
8
 71
3
 72
8
 73
4
 74
0
 40
0
 40
0
 40
0
 40
0
 40
1
 40
1
 40
1
 40
1
 10
88.922000
 20
134.072890
 30
0.0
 10
88.960000
 20
134.186890
 30
0.0
 10
88.808000
 20
134.109890
 30
0.0
 10
88.922000
 20
134.072890
 30
0.0
  0
SPLINE
  5
11b
100
AcDbEntity
  8
Calque_1
 62
7
100
AcDbSpline
 70
8
 71
3
 72
8
 73
4
 74
0
 40
0
 40
0
 40
0
 40
0
 40
1
 40
1
 40
1
 40
1
 10
92.613000
 20
132.873890
 30
0.0
 10
92.676000
 20
132.853890
 30
0.0
 10
92.743000
 20
132.887890
 30
0.0
 10
92.764000
 20
132.950890
 30
0.0
  0
LWPOLYLINE
  5
11c
100
AcDbEntity
  8
Calque_1
 62
7
100
AcDbPolyline
 90
3
 70
0
 10
86.487000
 20
126.578890
 30
0.0
 10
88.922000
 20
134.072890
 30
0.0
 10
92.613000
 20
132.873890
 30
0.0
  0
SPLINE
  5
11d
100
AcDbEntity
  8
Calque_1
 62
7
100
AcDbSpline
 70
8
 71
3
 72
8
 73
4
 74
0
 40
0
 40
0
 40
0
 40
0
 40
1
 40
1
 40
1
 40
1
 10
95.236000
 20
140.559890
 30
0.0
 10
95.256000
 20
140.622890
 30
0.0
 10
95.222000
 20
140.689890
 30
0.0
 10
95.159000
 20
140.710890
 30
0.0
  0
LWPOLYLINE
  5
11e
100
AcDbEntity
  8
Calque_1
 62
7
100
AcDbPolyline
 90
2
 70
0
 10
92.764000
 20
132.950890
 30
0.0
 10
95.236000
 20
140.559890
 30
0.0
  0
SPLINE
  5
11f
100
AcDbEntity
  8
Calque_1
 62
7
100
AcDbSpline
 70
8
 71
3
 72
8
 73
4
 74
0
 40
0
 40
0
 40
0
 40
0
 40
1
 40
1
 40
1
 40
1
 10
91.469000
 20
141.909890
 30
0.0
 10
91.355000
 20
141.946890
 30
0.0
 10
91.432000
 20
141.795890
 30
0.0
 10
91.469000
 20
141.909890
 30
0.0
  0
SPLINE
  5
120
100
AcDbEntity
  8
Calque_1
 62
7
100
AcDbSpline
 70
8
 71
3
 72
8
 73
4
 74
0
 40
0
 40
0
 40
0
 40
0
 40
1
 40
1
 40
1
 40
1
 10
93.867000
 20
149.289890
 30
0.0
 10
93.904000
 20
149.403890
 30
0.0
 10
93.753000
 20
149.326890
 30
0.0
 10
93.867000
 20
149.289890
 30
0.0
  0
SPLINE
  5
121
100
AcDbEntity
  8
Calque_1
 62
7
100
AcDbSpline
 70
8
 71
3
 72
8
 73
4
 74
0
 40
0
 40
0
 40
0
 40
0
 40
1
 40
1
 40
1
 40
1
 10
97.557000
 20
148.090890
 30
0.0
 10
97.620000
 20
148.070890
 30
0.0
 10
97.688000
 20
148.104890
 30
0.0
 10
97.708000
 20
148.167890
 30
0.0
  0
LWPOLYLINE
  5
122
100
AcDbEntity
  8
Calque_1
 62
7
100
AcDbPolyline
 90
4
 70
0
 10
95.159000
 20
140.710890
 30
0.0
 10
91.469000
 20
141.909890
 30
0.0
 10
93.867000
 20
149.289890
 30
0.0
 10
97.557000
 20
148.090890
 30
0.0
  0
SPLINE
  5
123
100
AcDbEntity
  8
Calque_1
 62
7
100
AcDbSpline
 70
8
 71
3
 72
8
 73
4
 74
0
 40
0
 40
0
 40
0
 40
0
 40
1
 40
1
 40
1
 40
1
 10
100.180000
 20
155.776890
 30
0.0
 10
100.201000
 20
155.839890
 30
0.0
 10
100.166000
 20
155.906890
 30
0.0
 10
100.103000
 20
155.927890
 30
0.0
  0
LWPOLYLINE
  5
124
100
AcDbEntity
  8
Calque_1
 62
7
100
AcDbPolyline
 90
2
 70
0
 10
97.708000
 20
148.167890
 30
0.0
 10
100.180000
 20
155.776890
 30
0.0
  0
SPLINE
  5
125
100
AcDbEntity
  8
Calque_1
 62
7
100
AcDbSpline
 70
8
 71
3
 72
8
 73
4
 74
0
 40
0
 40
0
 40
0
 40
0
 40
1
 40
1
 40
1
 40
1
 10
96.413000
 20
157.126890
 30
0.0
 10
96.299000
 20
157.163890
 30
0.0
 10
96.376000
 20
157.012890
 30
0.0
 10
96.413000
 20
157.126890
 30
0.0
  0
SPLINE
  5
126
100
AcDbEntity
  8
Calque_1
 62
7
100
AcDbSpline
 70
8
 71
3
 72
8
 73
4
 74
0
 40
0
 40
0
 40
0
 40
0
 40
1
 40
1
 40
1
 40
1
 10
98.811000
 20
164.506890
 30
0.0
 10
98.848000
 20
164.620890
 30
0.0
 10
98.697000
 20
164.543890
 30
0.0
 10
98.811000
 20
164.506890
 30
0.0
  0
SPLINE
  5
127
100
AcDbEntity
  8
Calque_1
 62
7
100
AcDbSpline
 70
8
 71
3
 72
8
 73
4
 74
0
 40
0
 40
0
 40
0
 40
0
 40
1
 40
1
 40
1
 40
1
 10
102.501000
 20
163.307890
 30
0.0
 10
102.564000
 20
163.287890
 30
0.0
 10
102.632000
 20
163.321890
 30
0.0
 10
102.652000
 20
163.384890
 30
0.0
  0
LWPOLYLINE
  5
128
100
AcDbEntity
  8
Calque_1
 62
7
100
AcDbPolyline
 90
4
 70
0
 10
100.103000
 20
155.927890
 30
0.0
 10
96.413000
 20
157.126890
 30
0.0
 10
98.811000
 20
164.506890
 30
0.0
 10
102.501000
 20
163.307890
 30
0.0
  0
SPLINE
  5
129
100
AcDbEntity
  8
Calque_1
 62
7
100
AcDbSpline
 70
8
 71
3
 72
8
 73
4
 74
0
 40
0
 40
0
 40
0
 40
0
 40
1
 40
1
 40
1
 40
1
 10
105.124000
 20
170.993890
 30
0.0
 10
105.145000
 20
171.056890
 30
0.0
 10
105.110000
 20
171.123890
 30
0.0
 10
105.047000
 20
171.144890
 30
0.0
  0
LWPOLYLINE
  5
12a
100
AcDbEntity
  8
Calque_1
 62
7
100
AcDbPolyline
 90
2
 70
0
 10
102.652000
 20
163.384890
 30
0.0
 10
105.124000
 20
170.993890
 30
0.0
  0
SPLINE
  5
12b
100
AcDbEntity
  8
Calque_1
 62
7
100
AcDbSpline
 70
8
 71
3
 72
8
 73
4
 74
0
 40
0
 40
0
 40
0
 40
0
 40
1
 40
1
 40
1
 40
1
 10
101.357000
 20
172.343890
 30
0.0
 10
101.243000
 20
172.380890
 30
0.0
 10
101.320000
 20
172.229890
 30
0.0
 10
101.357000
 20
172.343890
 30
0.0
  0
SPLINE
  5
12c
100
AcDbEntity
  8
Calque_1
 62
7
100
AcDbSpline
 70
8
 71
3
 72
8
 73
4
 74
0
 40
0
 40
0
 40
0
 40
0
 40
1
 40
1
 40
1
 40
1
 10
103.755000
 20
179.723890
 30
0.0
 10
103.792000
 20
179.837890
 30
0.0
 10
103.641000
 20
179.760890
 30
0.0
 10
103.755000
 20
179.723890
 30
0.0
  0
SPLINE
  5
12d
100
AcDbEntity
  8
Calque_1
 62
7
100
AcDbSpline
 70
8
 71
3
 72
8
 73
4
 74
0
 40
0
 40
0
 40
0
 40
0
 40
1
 40
1
 40
1
 40
1
 10
107.445000
 20
178.524890
 30
0.0
 10
107.508000
 20
178.503890
 30
0.0
 10
107.576000
 20
178.538890
 30
0.0
 10
107.597000
 20
178.601890
 30
0.0
  0
LWPOLYLINE
  5
12e
100
AcDbEntity
  8
Calque_1
 62
7
100
AcDbPolyline
 90
4
 70
0
 10
105.047000
 20
171.144890
 30
0.0
 10
101.357000
 20
172.343890
 30
0.0
 10
103.755000
 20
179.723890
 30
0.0
 10
107.445000
 20
178.524890
 30
0.0
  0
SPLINE
  5
12f
100
AcDbEntity
  8
Calque_1
 62
7
100
AcDbSpline
 70
8
 71
3
 72
8
 73
4
 74
0
 40
0
 40
0
 40
0
 40
0
 40
1
 40
1
 40
1
 40
1
 10
110.069000
 20
186.209890
 30
0.0
 10
110.089000
 20
186.272890
 30
0.0
 10
110.055000
 20
186.340890
 30
0.0
 10
109.992000
 20
186.361890
 30
0.0
  0
LWPOLYLINE
  5
130
100
AcDbEntity
  8
Calque_1
 62
7
100
AcDbPolyline
 90
2
 70
0
 10
107.597000
 20
178.601890
 30
0.0
 10
110.069000
 20
186.209890
 30
0.0
  0
SPLINE
  5
131
100
AcDbEntity
  8
Calque_1
 62
7
100
AcDbSpline
 70
8
 71
3
 72
8
 73
4
 74
0
 40
0
 40
0
 40
0
 40
0
 40
1
 40
1
 40
1
 40
1
 10
106.187000
 20
187.597890
 30
0.0
 10
106.251000
 20
187.576890
 30
0.0
 10
106.285000
 20
187.509890
 30
0.0
 10
106.265000
 20
187.446890
 30
0.0
  0
SPLINE
  5
132
100
AcDbEntity
  8
Calque_1
 62
7
100
AcDbSpline
 70
8
 71
3
 72
8
 73
4
 74
0
 40
0
 40
0
 40
0
 40
0
 40
1
 40
1
 40
1
 40
1
 10
106.265000
 20
187.446890
 30
0.0
 10
106.281000
 20
187.495890
 30
0.0
 10
106.263000
 20
187.549890
 30
0.0
 10
106.221000
 20
187.580890
 30
0.0
  0
LWPOLYLINE
  5
133
100
AcDbEntity
  8
Calque_1
 62
7
100
AcDbPolyline
 90
2
 70
0
 10
109.992000
 20
186.361890
 30
0.0
 10
106.187000
 20
187.597890
 30
0.0
  0
SPLINE
  5
134
100
AcDbEntity
  8
Calque_1
 62
7
100
AcDbSpline
 70
8
 71
3
 72
8
 73
4
 74
0
 40
0
 40
0
 40
0
 40
0
 40
1
 40
1
 40
1
 40
1
 10
99.846000
 20
192.211890
 30
0.0
 10
99.749000
 20
192.282890
 30
0.0
 10
99.775000
 20
192.114890
 30
0.0
 10
99.846000
 20
192.211890
 30
0.0
  0
SPLINE
  5
135
100
AcDbEntity
  8
Calque_1
 62
7
100
AcDbSpline
 70
8
 71
3
 72
8
 73
4
 74
0
 40
0
 40
0
 40
0
 40
0
 40
1
 40
1
 40
1
 40
1
 10
102.126000
 20
195.350890
 30
0.0
 10
102.165000
 20
195.404890
 30
0.0
 10
102.154000
 20
195.479890
 30
0.0
 10
102.100000
 20
195.518890
 30
0.0
  0
LWPOLYLINE
  5
136
100
AcDbEntity
  8
Calque_1
 62
7
100
AcDbPolyline
 90
3
 70
0
 10
106.221000
 20
187.580890
 30
0.0
 10
99.846000
 20
192.211890
 30
0.0
 10
102.126000
 20
195.350890
 30
0.0
  0
SPLINE
  5
137
100
AcDbEntity
  8
Calque_1
 62
7
100
AcDbSpline
 70
8
 71
3
 72
8
 73
4
 74
0
 40
0
 40
0
 40
0
 40
0
 40
1
 40
1
 40
1
 40
1
 10
95.628000
 20
200.220890
 30
0.0
 10
95.574000
 20
200.259890
 30
0.0
 10
95.499000
 20
200.247890
 30
0.0
 10
95.460000
 20
200.194890
 30
0.0
  0
LWPOLYLINE
  5
138
100
AcDbEntity
  8
Calque_1
 62
7
100
AcDbPolyline
 90
2
 70
0
 10
102.100000
 20
195.518890
 30
0.0
 10
95.628000
 20
200.220890
 30
0.0
  0
SPLINE
  5
139
100
AcDbEntity
  8
Calque_1
 62
7
100
AcDbSpline
 70
8
 71
3
 72
8
 73
4
 74
0
 40
0
 40
0
 40
0
 40
0
 40
1
 40
1
 40
1
 40
1
 10
93.180000
 20
197.055890
 30
0.0
 10
93.109000
 20
196.958890
 30
0.0
 10
93.277000
 20
196.984890
 30
0.0
 10
93.180000
 20
197.055890
 30
0.0
  0
SPLINE
  5
13a
100
AcDbEntity
  8
Calque_1
 62
7
100
AcDbSpline
 70
8
 71
3
 72
8
 73
4
 74
0
 40
0
 40
0
 40
0
 40
0
 40
1
 40
1
 40
1
 40
1
 10
86.902000
 20
201.616890
 30
0.0
 10
86.805000
 20
201.687890
 30
0.0
 10
86.831000
 20
201.519890
 30
0.0
 10
86.902000
 20
201.616890
 30
0.0
  0
SPLINE
  5
13b
100
AcDbEntity
  8
Calque_1
 62
7
100
AcDbSpline
 70
8
 71
3
 72
8
 73
4
 74
0
 40
0
 40
0
 40
0
 40
0
 40
1
 40
1
 40
1
 40
1
 10
89.182000
 20
204.755890
 30
0.0
 10
89.221000
 20
204.809890
 30
0.0
 10
89.209000
 20
204.884890
 30
0.0
 10
89.156000
 20
204.923890
 30
0.0
  0
LWPOLYLINE
  5
13c
100
AcDbEntity
  8
Calque_1
 62
7
100
AcDbPolyline
 90
4
 70
0
 10
95.460000
 20
200.194890
 30
0.0
 10
93.180000
 20
197.055890
 30
0.0
 10
86.902000
 20
201.616890
 30
0.0
 10
89.182000
 20
204.755890
 30
0.0
  0
SPLINE
  5
13d
100
AcDbEntity
  8
Calque_1
 62
7
100
AcDbSpline
 70
8
 71
3
 72
8
 73
4
 74
0
 40
0
 40
0
 40
0
 40
0
 40
1
 40
1
 40
1
 40
1
 10
82.684000
 20
209.625890
 30
0.0
 10
82.630000
 20
209.664890
 30
0.0
 10
82.555000
 20
209.652890
 30
0.0
 10
82.516000
 20
209.598890
 30
0.0
  0
LWPOLYLINE
  5
13e
100
AcDbEntity
  8
Calque_1
 62
7
100
AcDbPolyline
 90
2
 70
0
 10
89.156000
 20
204.923890
 30
0.0
 10
82.684000
 20
209.625890
 30
0.0
  0
SPLINE
  5
13f
100
AcDbEntity
  8
Calque_1
 62
7
100
AcDbSpline
 70
8
 71
3
 72
8
 73
4
 74
0
 40
0
 40
0
 40
0
 40
0
 40
1
 40
1
 40
1
 40
1
 10
80.235000
 20
206.459890
 30
0.0
 10
80.165000
 20
206.362890
 30
0.0
 10
80.332000
 20
206.389890
 30
0.0
 10
80.235000
 20
206.459890
 30
0.0
  0
SPLINE
  5
140
100
AcDbEntity
  8
Calque_1
 62
7
100
AcDbSpline
 70
8
 71
3
 72
8
 73
4
 74
0
 40
0
 40
0
 40
0
 40
0
 40
1
 40
1
 40
1
 40
1
 10
73.957000
 20
211.021890
 30
0.0
 10
73.860000
 20
211.091890
 30
0.0
 10
73.887000
 20
210.923890
 30
0.0
 10
73.957000
 20
211.021890
 30
0.0
  0
SPLINE
  5
141
100
AcDbEntity
  8
Calque_1
 62
7
100
AcDbSpline
 70
8
 71
3
 72
8
 73
4
 74
0
 40
0
 40
0
 40
0
 40
0
 40
1
 40
1
 40
1
 40
1
 10
76.238000
 20
214.160890
 30
0.0
 10
76.277000
 20
214.213890
 30
0.0
 10
76.265000
 20
214.288890
 30
0.0
 10
76.211000
 20
214.327890
 30
0.0
  0
LWPOLYLINE
  5
142
100
AcDbEntity
  8
Calque_1
 62
7
100
AcDbPolyline
 90
4
 70
0
 10
82.516000
 20
209.598890
 30
0.0
 10
80.235000
 20
206.459890
 30
0.0
 10
73.957000
 20
211.021890
 30
0.0
 10
76.238000
 20
214.160890
 30
0.0
  0
SPLINE
  5
143
100
AcDbEntity
  8
Calque_1
 62
7
100
AcDbSpline
 70
8
 71
3
 72
8
 73
4
 74
0
 40
0
 40
0
 40
0
 40
0
 40
1
 40
1
 40
1
 40
1
 10
69.739000
 20
219.029890
 30
0.0
 10
69.686000
 20
219.068890
 30
0.0
 10
69.611000
 20
219.057890
 30
0.0
 10
69.572000
 20
219.003890
 30
0.0
  0
LWPOLYLINE
  5
144
100
AcDbEntity
  8
Calque_1
 62
7
100
AcDbPolyline
 90
2
 70
0
 10
76.211000
 20
214.327890
 30
0.0
 10
69.739000
 20
219.029890
 30
0.0
  0
SPLINE
  5
145
100
AcDbEntity
  8
Calque_1
 62
7
100
AcDbSpline
 70
8
 71
3
 72
8
 73
4
 74
0
 40
0
 40
0
 40
0
 40
0
 40
1
 40
1
 40
1
 40
1
 10
67.291000
 20
215.864890
 30
0.0
 10
67.220000
 20
215.767890
 30
0.0
 10
67.388000
 20
215.793890
 30
0.0
 10
67.291000
 20
215.864890
 30
0.0
  0
SPLINE
  5
146
100
AcDbEntity
  8
Calque_1
 62
7
100
AcDbSpline
 70
8
 71
3
 72
8
 73
4
 74
0
 40
0
 40
0
 40
0
 40
0
 40
1
 40
1
 40
1
 40
1
 10
61.013000
 20
220.425890
 30
0.0
 10
60.916000
 20
220.496890
 30
0.0
 10
60.943000
 20
220.328890
 30
0.0
 10
61.013000
 20
220.425890
 30
0.0
  0
SPLINE
  5
147
100
AcDbEntity
  8
Calque_1
 62
7
100
AcDbSpline
 70
8
 71
3
 72
8
 73
4
 74
0
 40
0
 40
0
 40
0
 40
0
 40
1
 40
1
 40
1
 40
1
 10
63.294000
 20
223.564890
 30
0.0
 10
63.333000
 20
223.618890
 30
0.0
 10
63.321000
 20
223.693890
 30
0.0
 10
63.267000
 20
223.732890
 30
0.0
  0
LWPOLYLINE
  5
148
100
AcDbEntity
  8
Calque_1
 62
7
100
AcDbPolyline
 90
4
 70
0
 10
69.572000
 20
219.003890
 30
0.0
 10
67.291000
 20
215.864890
 30
0.0
 10
61.013000
 20
220.425890
 30
0.0
 10
63.294000
 20
223.564890
 30
0.0
  0
SPLINE
  5
149
100
AcDbEntity
  8
Calque_1
 62
7
100
AcDbSpline
 70
8
 71
3
 72
8
 73
4
 74
0
 40
0
 40
0
 40
0
 40
0
 40
1
 40
1
 40
1
 40
1
 10
56.795000
 20
228.434890
 30
0.0
 10
56.741000
 20
228.473890
 30
0.0
 10
56.666000
 20
228.461890
 30
0.0
 10
56.627000
 20
228.407890
 30
0.0
  0
LWPOLYLINE
  5
14a
100
AcDbEntity
  8
Calque_1
 62
7
100
AcDbPolyline
 90
2
 70
0
 10
63.267000
 20
223.732890
 30
0.0
 10
56.795000
 20
228.434890
 30
0.0
  0
SPLINE
  5
14b
100
AcDbEntity
  8
Calque_1
 62
7
100
AcDbSpline
 70
8
 71
3
 72
8
 73
4
 74
0
 40
0
 40
0
 40
0
 40
0
 40
1
 40
1
 40
1
 40
1
 10
54.276000
 20
225.171890
 30
0.0
 10
54.315000
 20
225.225890
 30
0.0
 10
54.390000
 20
225.237890
 30
0.0
 10
54.444000
 20
225.198890
 30
0.0
  0
SPLINE
  5
14c
100
AcDbEntity
  8
Calque_1
 62
7
100
AcDbSpline
 70
8
 71
3
 72
8
 73
4
 74
0
 40
0
 40
0
 40
0
 40
0
 40
1
 40
1
 40
1
 40
1
 10
54.444000
 20
225.198890
 30
0.0
 10
54.402000
 20
225.228890
 30
0.0
 10
54.345000
 20
225.228890
 30
0.0
 10
54.303000
 20
225.198890
 30
0.0
  0
LWPOLYLINE
  5
14d
100
AcDbEntity
  8
Calque_1
 62
7
100
AcDbPolyline
 90
2
 70
0
 10
56.627000
 20
228.407890
 30
0.0
 10
54.276000
 20
225.171890
 30
0.0
  0
SPLINE
  5
14e
100
AcDbEntity
  8
Calque_1
 62
7
100
AcDbSpline
 70
8
 71
3
 72
8
 73
4
 74
0
 40
0
 40
0
 40
0
 40
0
 40
1
 40
1
 40
1
 40
1
 10
47.928000
 20
220.566890
 30
0.0
 10
47.831000
 20
220.496890
 30
0.0
 10
47.998000
 20
220.469890
 30
0.0
 10
47.928000
 20
220.566890
 30
0.0
  0
SPLINE
  5
14f
100
AcDbEntity
  8
Calque_1
 62
7
100
AcDbSpline
 70
8
 71
3
 72
8
 73
4
 74
0
 40
0
 40
0
 40
0
 40
0
 40
1
 40
1
 40
1
 40
1
 10
45.647000
 20
223.705890
 30
0.0
 10
45.608000
 20
223.759890
 30
0.0
 10
45.533000
 20
223.771890
 30
0.0
 10
45.479000
 20
223.732890
 30
0.0
  0
LWPOLYLINE
  5
150
100
AcDbEntity
  8
Calque_1
 62
7
100
AcDbPolyline
 90
3
 70
0
 10
54.303000
 20
225.198890
 30
0.0
 10
47.928000
 20
220.566890
 30
0.0
 10
45.647000
 20
223.705890
 30
0.0
  0
SPLINE
  5
151
100
AcDbEntity
  8
Calque_1
 62
7
100
AcDbSpline
 70
8
 71
3
 72
8
 73
4
 74
0
 40
0
 40
0
 40
0
 40
0
 40
1
 40
1
 40
1
 40
1
 10
39.007000
 20
219.029890
 30
0.0
 10
38.954000
 20
218.990890
 30
0.0
 10
38.942000
 20
218.915890
 30
0.0
 10
38.981000
 20
218.862890
 30
0.0
  0
LWPOLYLINE
  5
152
100
AcDbEntity
  8
Calque_1
 62
7
100
AcDbPolyline
 90
2
 70
0
 10
45.479000
 20
223.732890
 30
0.0
 10
39.007000
 20
219.029890
 30
0.0
  0
SPLINE
  5
153
100
AcDbEntity
  8
Calque_1
 62
7
100
AcDbSpline
 70
8
 71
3
 72
8
 73
4
 74
0
 40
0
 40
0
 40
0
 40
0
 40
1
 40
1
 40
1
 40
1
 10
41.261000
 20
215.723890
 30
0.0
 10
41.332000
 20
215.626890
 30
0.0
 10
41.358000
 20
215.793890
 30
0.0
 10
41.261000
 20
215.723890
 30
0.0
  0
SPLINE
  5
154
100
AcDbEntity
  8
Calque_1
 62
7
100
AcDbSpline
 70
8
 71
3
 72
8
 73
4
 74
0
 40
0
 40
0
 40
0
 40
0
 40
1
 40
1
 40
1
 40
1
 10
34.983000
 20
211.162890
 30
0.0
 10
34.886000
 20
211.091890
 30
0.0
 10
35.054000
 20
211.065890
 30
0.0
 10
34.983000
 20
211.162890
 30
0.0
  0
SPLINE
  5
155
100
AcDbEntity
  8
Calque_1
 62
7
100
AcDbSpline
 70
8
 71
3
 72
8
 73
4
 74
0
 40
0
 40
0
 40
0
 40
0
 40
1
 40
1
 40
1
 40
1
 10
32.703000
 20
214.301890
 30
0.0
 10
32.664000
 20
214.354890
 30
0.0
 10
32.589000
 20
214.366890
 30
0.0
 10
32.535000
 20
214.327890
 30
0.0
  0
LWPOLYLINE
  5
156
100
AcDbEntity
  8
Calque_1
 62
7
100
AcDbPolyline
 90
4
 70
0
 10
38.981000
 20
218.862890
 30
0.0
 10
41.261000
 20
215.723890
 30
0.0
 10
34.983000
 20
211.162890
 30
0.0
 10
32.703000
 20
214.301890
 30
0.0
  0
SPLINE
  5
157
100
AcDbEntity
  8
Calque_1
 62
7
100
AcDbSpline
 70
8
 71
3
 72
8
 73
4
 74
0
 40
0
 40
0
 40
0
 40
0
 40
1
 40
1
 40
1
 40
1
 10
26.063000
 20
209.625890
 30
0.0
 10
26.009000
 20
209.586890
 30
0.0
 10
25.998000
 20
209.511890
 30
0.0
 10
26.037000
 20
209.457890
 30
0.0
  0
LWPOLYLINE
  5
158
100
AcDbEntity
  8
Calque_1
 62
7
100
AcDbPolyline
 90
2
 70
0
 10
32.535000
 20
214.327890
 30
0.0
 10
26.063000
 20
209.625890
 30
0.0
  0
SPLINE
  5
159
100
AcDbEntity
  8
Calque_1
 62
7
100
AcDbSpline
 70
8
 71
3
 72
8
 73
4
 74
0
 40
0
 40
0
 40
0
 40
0
 40
1
 40
1
 40
1
 40
1
 10
28.317000
 20
206.318890
 30
0.0
 10
28.388000
 20
206.221890
 30
0.0
 10
28.414000
 20
206.389890
 30
0.0
 10
28.317000
 20
206.318890
 30
0.0
  0
SPLINE
  5
15a
100
AcDbEntity
  8
Calque_1
 62
7
100
AcDbSpline
 70
8
 71
3
 72
8
 73
4
 74
0
 40
0
 40
0
 40
0
 40
0
 40
1
 40
1
 40
1
 40
1
 10
22.039000
 20
201.757890
 30
0.0
 10
21.942000
 20
201.687890
 30
0.0
 10
22.110000
 20
201.660890
 30
0.0
 10
22.039000
 20
201.757890
 30
0.0
  0
SPLINE
  5
15b
100
AcDbEntity
  8
Calque_1
 62
7
100
AcDbSpline
 70
8
 71
3
 72
8
 73
4
 74
0
 40
0
 40
0
 40
0
 40
0
 40
1
 40
1
 40
1
 40
1
 10
19.759000
 20
204.896890
 30
0.0
 10
19.720000
 20
204.950890
 30
0.0
 10
19.645000
 20
204.962890
 30
0.0
 10
19.591000
 20
204.923890
 30
0.0
  0
LWPOLYLINE
  5
15c
100
AcDbEntity
  8
Calque_1
 62
7
100
AcDbPolyline
 90
4
 70
0
 10
26.037000
 20
209.457890
 30
0.0
 10
28.317000
 20
206.318890
 30
0.0
 10
22.039000
 20
201.757890
 30
0.0
 10
19.759000
 20
204.896890
 30
0.0
  0
SPLINE
  5
15d
100
AcDbEntity
  8
Calque_1
 62
7
100
AcDbSpline
 70
8
 71
3
 72
8
 73
4
 74
0
 40
0
 40
0
 40
0
 40
0
 40
1
 40
1
 40
1
 40
1
 10
13.119000
 20
200.220890
 30
0.0
 10
13.065000
 20
200.181890
 30
0.0
 10
13.053000
 20
200.106890
 30
0.0
 10
13.092000
 20
200.053890
 30
0.0
  0
LWPOLYLINE
  5
15e
100
AcDbEntity
  8
Calque_1
 62
7
100
AcDbPolyline
 90
2
 70
0
 10
19.591000
 20
204.923890
 30
0.0
 10
13.119000
 20
200.220890
 30
0.0
  0
SPLINE
  5
15f
100
AcDbEntity
  8
Calque_1
 62
7
100
AcDbSpline
 70
8
 71
3
 72
8
 73
4
 74
0
 40
0
 40
0
 40
0
 40
0
 40
1
 40
1
 40
1
 40
1
 10
15.373000
 20
196.914890
 30
0.0
 10
15.443000
 20
196.817890
 30
0.0
 10
15.470000
 20
196.984890
 30
0.0
 10
15.373000
 20
196.914890
 30
0.0
  0
SPLINE
  5
160
100
AcDbEntity
  8
Calque_1
 62
7
100
AcDbSpline
 70
8
 71
3
 72
8
 73
4
 74
0
 40
0
 40
0
 40
0
 40
0
 40
1
 40
1
 40
1
 40
1
 10
9.095000
 20
192.352890
 30
0.0
 10
8.998000
 20
192.282890
 30
0.0
 10
9.165000
 20
192.255890
 30
0.0
 10
9.095000
 20
192.352890
 30
0.0
  0
SPLINE
  5
161
100
AcDbEntity
  8
Calque_1
 62
7
100
AcDbSpline
 70
8
 71
3
 72
8
 73
4
 74
0
 40
0
 40
0
 40
0
 40
0
 40
1
 40
1
 40
1
 40
1
 10
6.814000
 20
195.491890
 30
0.0
 10
6.775000
 20
195.545890
 30
0.0
 10
6.700000
 20
195.557890
 30
0.0
 10
6.647000
 20
195.518890
 30
0.0
  0
LWPOLYLINE
  5
162
100
AcDbEntity
  8
Calque_1
 62
7
100
AcDbPolyline
 90
4
 70
0
 10
13.092000
 20
200.053890
 30
0.0
 10
15.373000
 20
196.914890
 30
0.0
 10
9.095000
 20
192.352890
 30
0.0
 10
6.814000
 20
195.491890
 30
0.0
  0
SPLINE
  5
163
100
AcDbEntity
  8
Calque_1
 62
7
100
AcDbSpline
 70
8
 71
3
 72
8
 73
4
 74
0
 40
0
 40
0
 40
0
 40
0
 40
1
 40
1
 40
1
 40
1
 10
0.175000
 20
190.816890
 30
0.0
 10
0.121000
 20
190.777890
 30
0.0
 10
0.109000
 20
190.702890
 30
0.0
 10
0.148000
 20
190.648890
 30
0.0
  0
LWPOLYLINE
  5
164
100
AcDbEntity
  8
Calque_1
 62
7
100
AcDbPolyline
 90
2
 70
0
 10
6.647000
 20
195.518890
 30
0.0
 10
0.175000
 20
190.816890
 30
0.0
  0
SPLINE
  5
165
100
AcDbEntity
  8
Calque_1
 62
7
100
AcDbSpline
 70
8
 71
3
 72
8
 73
4
 74
0
 40
0
 40
0
 40
0
 40
0
 40
1
 40
1
 40
1
 40
1
 10
2.499000
 20
187.412890
 30
0.0
 10
2.460000
 20
187.466890
 30
0.0
 10
2.472000
 20
187.541890
 30
0.0
 10
2.526000
 20
187.580890
 30
0.0
  0
SPLINE
  5
166
100
AcDbEntity
  8
Calque_1
 62
7
100
AcDbSpline
 70
8
 71
3
 72
8
 73
4
 74
0
 40
0
 40
0
 40
0
 40
0
 40
1
 40
1
 40
1
 40
1
 10
2.526000
 20
187.580890
 30
0.0
 10
2.484000
 20
187.549890
 30
0.0
 10
2.466000
 20
187.495890
 30
0.0
 10
2.482000
 20
187.446890
 30
0.0
  0
LWPOLYLINE
  5
167
100
AcDbEntity
  8
Calque_1
 62
7
100
AcDbPolyline
 90
2
 70
0
 10
0.148000
 20
190.648890
 30
0.0
 10
2.499000
 20
187.412890
 30
0.0
  0
SPLINE
  5
168
100
AcDbEntity
  8
Calque_1
 62
7
100
AcDbSpline
 70
8
 71
3
 72
8
 73
4
 74
0
 40
0
 40
0
 40
0
 40
0
 40
1
 40
1
 40
1
 40
1
 10
4.917000
 20
179.951890
 30
0.0
 10
4.954000
 20
179.837890
 30
0.0
 10
5.031000
 20
179.988890
 30
0.0
 10
4.917000
 20
179.951890
 30
0.0
  0
SPLINE
  5
169
100
AcDbEntity
  8
Calque_1
 62
7
100
AcDbSpline
 70
8
 71
3
 72
8
 73
4
 74
0
 40
0
 40
0
 40
0
 40
0
 40
1
 40
1
 40
1
 40
1
 10
1.227000
 20
178.752890
 30
0.0
 10
1.164000
 20
178.732890
 30
0.0
 10
1.130000
 20
178.664890
 30
0.0
 10
1.150000
 20
178.601890
 30
0.0
  0
LWPOLYLINE
  5
16a
100
AcDbEntity
  8
Calque_1
 62
7
100
AcDbPolyline
 90
3
 70
0
 10
2.482000
 20
187.446890
 30
0.0
 10
4.917000
 20
179.951890
 30
0.0
 10
1.227000
 20
178.752890
 30
0.0
  0
SPLINE
  5
16b
100
AcDbEntity
  8
Calque_1
 62
7
100
AcDbSpline
 70
8
 71
3
 72
8
 73
4
 74
0
 40
0
 40
0
 40
0
 40
0
 40
1
 40
1
 40
1
 40
1
 10
3.622000
 20
170.993890
 30
0.0
 10
3.643000
 20
170.930890
 30
0.0
 10
3.710000
 20
170.895890
 30
0.0
 10
3.773000
 20
170.915890
 30
0.0
  0
LWPOLYLINE
  5
16c
100
AcDbEntity
  8
Calque_1
 62
7
100
AcDbPolyline
 90
2
 70
0
 10
1.150000
 20
178.601890
 30
0.0
 10
3.622000
 20
170.993890
 30
0.0
  0
SPLINE
  5
16d
100
AcDbEntity
  8
Calque_1
 62
7
100
AcDbSpline
 70
8
 71
3
 72
8
 73
4
 74
0
 40
0
 40
0
 40
0
 40
0
 40
1
 40
1
 40
1
 40
1
 10
7.463000
 20
172.114890
 30
0.0
 10
7.578000
 20
172.152890
 30
0.0
 10
7.426000
 20
172.229890
 30
0.0
 10
7.463000
 20
172.114890
 30
0.0
  0
SPLINE
  5
16e
100
AcDbEntity
  8
Calque_1
 62
7
100
AcDbSpline
 70
8
 71
3
 72
8
 73
4
 74
0
 40
0
 40
0
 40
0
 40
0
 40
1
 40
1
 40
1
 40
1
 10
9.861000
 20
164.734890
 30
0.0
 10
9.898000
 20
164.620890
 30
0.0
 10
9.976000
 20
164.771890
 30
0.0
 10
9.861000
 20
164.734890
 30
0.0
  0
SPLINE
  5
16f
100
AcDbEntity
  8
Calque_1
 62
7
100
AcDbSpline
 70
8
 71
3
 72
8
 73
4
 74
0
 40
0
 40
0
 40
0
 40
0
 40
1
 40
1
 40
1
 40
1
 10
6.171000
 20
163.535890
 30
0.0
 10
6.108000
 20
163.515890
 30
0.0
 10
6.074000
 20
163.447890
 30
0.0
 10
6.094000
 20
163.384890
 30
0.0
  0
LWPOLYLINE
  5
170
100
AcDbEntity
  8
Calque_1
 62
7
100
AcDbPolyline
 90
4
 70
0
 10
3.773000
 20
170.915890
 30
0.0
 10
7.463000
 20
172.114890
 30
0.0
 10
9.861000
 20
164.734890
 30
0.0
 10
6.171000
 20
163.535890
 30
0.0
  0
SPLINE
  5
171
100
AcDbEntity
  8
Calque_1
 62
7
100
AcDbSpline
 70
8
 71
3
 72
8
 73
4
 74
0
 40
0
 40
0
 40
0
 40
0
 40
1
 40
1
 40
1
 40
1
 10
8.566000
 20
155.776890
 30
0.0
 10
8.587000
 20
155.713890
 30
0.0
 10
8.655000
 20
155.678890
 30
0.0
 10
8.718000
 20
155.699890
 30
0.0
  0
LWPOLYLINE
  5
172
100
AcDbEntity
  8
Calque_1
 62
7
100
AcDbPolyline
 90
2
 70
0
 10
6.094000
 20
163.384890
 30
0.0
 10
8.566000
 20
155.776890
 30
0.0
  0
SPLINE
  5
173
100
AcDbEntity
  8
Calque_1
 62
7
100
AcDbSpline
 70
8
 71
3
 72
8
 73
4
 74
0
 40
0
 40
0
 40
0
 40
0
 40
1
 40
1
 40
1
 40
1
 10
12.408000
 20
156.898890
 30
0.0
 10
12.522000
 20
156.935890
 30
0.0
 10
12.371000
 20
157.012890
 30
0.0
 10
12.408000
 20
156.898890
 30
0.0
  0
SPLINE
  5
174
100
AcDbEntity
  8
Calque_1
 62
7
100
AcDbSpline
 70
8
 71
3
 72
8
 73
4
 74
0
 40
0
 40
0
 40
0
 40
0
 40
1
 40
1
 40
1
 40
1
 10
14.806000
 20
149.517890
 30
0.0
 10
14.843000
 20
149.403890
 30
0.0
 10
14.920000
 20
149.554890
 30
0.0
 10
14.806000
 20
149.517890
 30
0.0
  0
SPLINE
  5
175
100
AcDbEntity
  8
Calque_1
 62
7
100
AcDbSpline
 70
8
 71
3
 72
8
 73
4
 74
0
 40
0
 40
0
 40
0
 40
0
 40
1
 40
1
 40
1
 40
1
 10
11.116000
 20
148.318890
 30
0.0
 10
11.053000
 20
148.298890
 30
0.0
 10
11.018000
 20
148.230890
 30
0.0
 10
11.039000
 20
148.167890
 30
0.0
  0
LWPOLYLINE
  5
176
100
AcDbEntity
  8
Calque_1
 62
7
100
AcDbPolyline
 90
4
 70
0
 10
8.718000
 20
155.699890
 30
0.0
 10
12.408000
 20
156.898890
 30
0.0
 10
14.806000
 20
149.517890
 30
0.0
 10
11.116000
 20
148.318890
 30
0.0
  0
SPLINE
  5
177
100
AcDbEntity
  8
Calque_1
 62
7
100
AcDbSpline
 70
8
 71
3
 72
8
 73
4
 74
0
 40
0
 40
0
 40
0
 40
0
 40
1
 40
1
 40
1
 40
1
 10
13.511000
 20
140.559890
 30
0.0
 10
13.531000
 20
140.496890
 30
0.0
 10
13.599000
 20
140.461890
 30
0.0
 10
13.662000
 20
140.482890
 30
0.0
  0
LWPOLYLINE
  5
178
100
AcDbEntity
  8
Calque_1
 62
7
100
AcDbPolyline
 90
2
 70
0
 10
11.039000
 20
148.167890
 30
0.0
 10
13.511000
 20
140.559890
 30
0.0
  0
SPLINE
  5
179
100
AcDbEntity
  8
Calque_1
 62
7
100
AcDbSpline
 70
8
 71
3
 72
8
 73
4
 74
0
 40
0
 40
0
 40
0
 40
0
 40
1
 40
1
 40
1
 40
1
 10
17.352000
 20
141.681890
 30
0.0
 10
17.466000
 20
141.718890
 30
0.0
 10
17.315000
 20
141.795890
 30
0.0
 10
17.352000
 20
141.681890
 30
0.0
  0
SPLINE
  5
17a
100
AcDbEntity
  8
Calque_1
 62
7
100
AcDbSpline
 70
8
 71
3
 72
8
 73
4
 74
0
 40
0
 40
0
 40
0
 40
0
 40
1
 40
1
 40
1
 40
1
 10
19.750000
 20
134.300890
 30
0.0
 10
19.787000
 20
134.186890
 30
0.0
 10
19.864000
 20
134.338890
 30
0.0
 10
19.750000
 20
134.300890
 30
0.0
  0
SPLINE
  5
17b
100
AcDbEntity
  8
Calque_1
 62
7
100
AcDbSpline
 70
8
 71
3
 72
8
 73
4
 74
0
 40
0
 40
0
 40
0
 40
0
 40
1
 40
1
 40
1
 40
1
 10
16.060000
 20
133.101890
 30
0.0
 10
15.997000
 20
133.081890
 30
0.0
 10
15.962000
 20
133.013890
 30
0.0
 10
15.983000
 20
132.950890
 30
0.0
  0
LWPOLYLINE
  5
17c
100
AcDbEntity
  8
Calque_1
 62
7
100
AcDbPolyline
 90
4
 70
0
 10
13.662000
 20
140.482890
 30
0.0
 10
17.352000
 20
141.681890
 30
0.0
 10
19.750000
 20
134.300890
 30
0.0
 10
16.060000
 20
133.101890
 30
0.0
  0
SPLINE
  5
17d
100
AcDbEntity
  8
Calque_1
 62
7
100
AcDbSpline
 70
8
 71
3
 72
8
 73
4
 74
0
 40
0
 40
0
 40
0
 40
0
 40
1
 40
1
 40
1
 40
1
 10
18.455000
 20
125.342890
 30
0.0
 10
18.475000
 20
125.279890
 30
0.0
 10
18.543000
 20
125.244890
 30
0.0
 10
18.606000
 20
125.265890
 30
0.0
  0
LWPOLYLINE
  5
17e
100
AcDbEntity
  8
Calque_1
 62
7
100
AcDbPolyline
 90
2
 70
0
 10
15.983000
 20
132.950890
 30
0.0
 10
18.455000
 20
125.342890
 30
0.0
  0
SPLINE
  5
17f
100
AcDbEntity
  8
Calque_1
 62
7
100
AcDbSpline
 70
8
 71
3
 72
8
 73
4
 74
0
 40
0
 40
0
 40
0
 40
0
 40
1
 40
1
 40
1
 40
1
 10
22.410000
 20
126.501890
 30
0.0
 10
22.347000
 20
126.480890
 30
0.0
 10
22.280000
 20
126.515890
 30
0.0
 10
22.259000
 20
126.578890
 30
0.0
  0
SPLINE
  5
180
100
AcDbEntity
  8
Calque_1
 62
7
100
AcDbSpline
 70
8
 71
3
 72
8
 73
4
 74
0
 40
0
 40
0
 40
0
 40
0
 40
1
 40
1
 40
1
 40
1
 10
22.259000
 20
126.578890
 30
0.0
 10
22.275000
 20
126.528890
 30
0.0
 10
22.321000
 20
126.495890
 30
0.0
 10
22.373000
 20
126.495890
 30
0.0
  0
LWPOLYLINE
  5
181
100
AcDbEntity
  8
Calque_1
 62
7
100
AcDbPolyline
 90
2
 70
0
 10
18.606000
 20
125.265890
 30
0.0
 10
22.410000
 20
126.501890
 30
0.0
  0
SPLINE
  5
182
100
AcDbEntity
  8
Calque_1
 62
1
100
AcDbSpline
 70
8
 71
3
 72
8
 73
4
 74
0
 40
0
 40
0
 40
0
 40
0
 40
1
 40
1
 40
1
 40
1
 10
248.283000
 20
94.305090
 30
0.0
 10
240.193755
 20
94.305090
 30
0.0
 10
232.901029
 20
89.432246
 30
0.0
 10
229.805409
 20
81.958759
 30
0.0
  0
SPLINE
  5
183
100
AcDbEntity
  8
Calque_1
 62
1
100
AcDbSpline
 70
8
 71
3
 72
8
 73
4
 74
0
 40
0
 40
0
 40
0
 40
0
 40
1
 40
1
 40
1
 40
1
 10
229.805409
 20
81.958759
 30
0.0
 10
226.709789
 20
74.485271
 30
0.0
 10
228.420904
 20
65.882914
 30
0.0
 10
234.140864
 20
60.162954
 30
0.0
  0
SPLINE
  5
184
100
AcDbEntity
  8
Calque_1
 62
1
100
AcDbSpline
 70
8
 71
3
 72
8
 73
4
 74
0
 40
0
 40
0
 40
0
 40
0
 40
1
 40
1
 40
1
 40
1
 10
234.140864
 20
60.162954
 30
0.0
 10
239.860824
 20
54.442994
 30
0.0
 10
248.463181
 20
52.731879
 30
0.0
 10
255.936669
 20
55.827499
 30
0.0
  0
SPLINE
  5
185
100
AcDbEntity
  8
Calque_1
 62
1
100
AcDbSpline
 70
8
 71
3
 72
8
 73
4
 74
0
 40
0
 40
0
 40
0
 40
0
 40
1
 40
1
 40
1
 40
1
 10
255.936669
 20
55.827499
 30
0.0
 10
263.410156
 20
58.923119
 30
0.0
 10
268.283000
 20
66.215845
 30
0.0
 10
268.283000
 20
74.305090
 30
0.0
  0
SPLINE
  5
186
100
AcDbEntity
  8
Calque_1
 62
1
100
AcDbSpline
 70
8
 71
3
 72
8
 73
4
 74
0
 40
0
 40
0
 40
0
 40
0
 40
1
 40
1
 40
1
 40
1
 10
268.283000
 20
74.305090
 30
0.0
 10
268.283000
 20
79.609420
 30
0.0
 10
266.175863
 20
84.696498
 30
0.0
 10
262.425136
 20
88.447226
 30
0.0
  0
SPLINE
  5
187
100
AcDbEntity
  8
Calque_1
 62
1
100
AcDbSpline
 70
8
 71
3
 72
8
 73
4
 74
0
 40
0
 40
0
 40
0
 40
0
 40
1
 40
1
 40
1
 40
1
 10
262.425136
 20
88.447226
 30
0.0
 10
258.674408
 20
92.197953
 30
0.0
 10
253.587330
 20
94.305090
 30
0.0
 10
248.283000
 20
94.305090
 30
0.0
  0
LWPOLYLINE
  5
188
100
AcDbEntity
  8
Calque_1
 62
7
100
AcDbPolyline
 90
1
 70
1
 10
22.373000
 20
126.495890
 30
0.0
  0
SPLINE
  5
189
100
AcDbEntity
  8
Calque_1
 62
1
100
AcDbSpline
 70
8
 71
3
 72
8
 73
4
 74
0
 40
0
 40
0
 40
0
 40
0
 40
1
 40
1
 40
1
 40
1
 10
167.900200
 20
39.601590
 30
0.0
 10
158.395700
 20
40.595080
 30
0.0
 10
149.510000
 20
45.812740
 30
0.0
 10
143.992300
 20
53.640210
 30
0.0
  0
SPLINE
  5
18a
100
AcDbEntity
  8
Calque_1
 62
1
100
AcDbSpline
 70
8
 71
3
 72
8
 73
4
 74
0
 40
0
 40
0
 40
0
 40
0
 40
1
 40
1
 40
1
 40
1
 10
143.992300
 20
53.640210
 30
0.0
 10
141.203600
 20
57.596230
 30
0.0
 10
139.312900
 20
62.163030
 30
0.0
 10
138.379300
 20
67.197760
 30
0.0
  0
SPLINE
  5
18b
100
AcDbEntity
  8
Calque_1
 62
1
100
AcDbSpline
 70
8
 71
3
 72
8
 73
4
 74
0
 40
0
 40
0
 40
0
 40
0
 40
1
 40
1
 40
1
 40
1
 10
138.379300
 20
67.197760
 30
0.0
 10
137.983300
 20
69.333350
 30
0.0
 10
137.848600
 20
74.326390
 30
0.0
 10
138.123500
 20
76.684030
 30
0.0
  0
SPLINE
  5
18c
100
AcDbEntity
  8
Calque_1
 62
1
100
AcDbSpline
 70
8
 71
3
 72
8
 73
4
 74
0
 40
0
 40
0
 40
0
 40
0
 40
1
 40
1
 40
1
 40
1
 10
138.123500
 20
76.684030
 30
0.0
 10
138.532300
 20
80.190950
 30
0.0
 10
139.900900
 20
84.823660
 30
0.0
 10
141.396700
 20
87.763220
 30
0.0
  0
LWPOLYLINE
  5
18d
100
AcDbEntity
  8
Calque_1
 62
1
100
AcDbPolyline
 90
1
 70
1
 10
248.283000
 20
94.305090
 30
0.0
  0
SPLINE
  5
18e
100
AcDbEntity
  8
Calque_1
 62
1
100
AcDbSpline
 70
8
 71
3
 72
8
 73
4
 74
0
 40
0
 40
0
 40
0
 40
0
 40
1
 40
1
 40
1
 40
1
 10
145.206500
 20
57.134080
 30
0.0
 10
145.528800
 20
56.968000
 30
0.0
 10
147.306300
 20
55.951650
 30
0.0
 10
149.156500
 20
54.875530
 30
0.0
  0
SPLINE
  5
18f
100
AcDbEntity
  8
Calque_1
 62
1
100
AcDbSpline
 70
8
 71
3
 72
8
 73
4
 74
0
 40
0
 40
0
 40
0
 40
0
 40
1
 40
1
 40
1
 40
1
 10
149.156500
 20
54.875530
 30
0.0
 10
151.006600
 20
53.799420
 30
0.0
 10
152.609200
 20
52.918960
 30
0.0
 10
152.717700
 20
52.918960
 30
0.0
  0
SPLINE
  5
190
100
AcDbEntity
  8
Calque_1
 62
1
100
AcDbSpline
 70
8
 71
3
 72
8
 73
4
 74
0
 40
0
 40
0
 40
0
 40
0
 40
1
 40
1
 40
1
 40
1
 10
152.717700
 20
52.918960
 30
0.0
 10
152.852500
 20
52.918960
 30
0.0
 10
152.914900
 20
53.858270
 30
0.0
 10
152.914900
 20
55.885490
 30
0.0
  0
LWPOLYLINE
  5
191
100
AcDbEntity
  8
Calque_1
 62
1
100
AcDbPolyline
 90
7
 70
0
 10
141.396700
 20
87.763220
 30
0.0
 10
141.825600
 20
88.606290
 30
0.0
 10
143.223100
 20
87.796070
 30
0.0
 10
144.620500
 20
86.985850
 30
0.0
 10
144.620500
 20
72.210950
 30
0.0
 10
144.620500
 20
57.436050
 30
0.0
 10
145.206500
 20
57.134080
 30
0.0
  0
SPLINE
  5
192
100
AcDbEntity
  8
Calque_1
 62
1
100
AcDbSpline
 70
8
 71
3
 72
8
 73
4
 74
0
 40
0
 40
0
 40
0
 40
0
 40
1
 40
1
 40
1
 40
1
 10
152.125100
 20
59.987610
 30
0.0
 10
149.821800
 20
63.299190
 30
0.0
 10
148.689300
 20
67.241520
 30
0.0
 10
149.124400
 20
70.432900
 30
0.0
  0
SPLINE
  5
193
100
AcDbEntity
  8
Calque_1
 62
1
100
AcDbSpline
 70
8
 71
3
 72
8
 73
4
 74
0
 40
0
 40
0
 40
0
 40
0
 40
1
 40
1
 40
1
 40
1
 10
149.124400
 20
70.432900
 30
0.0
 10
149.381700
 20
72.320790
 30
0.0
 10
150.370900
 20
74.236940
 30
0.0
 10
151.544700
 20
75.121290
 30
0.0
  0
SPLINE
  5
194
100
AcDbEntity
  8
Calque_1
 62
1
100
AcDbSpline
 70
8
 71
3
 72
8
 73
4
 74
0
 40
0
 40
0
 40
0
 40
0
 40
1
 40
1
 40
1
 40
1
 10
151.544700
 20
75.121290
 30
0.0
 10
156.363600
 20
78.751890
 30
0.0
 10
164.440800
 20
73.266930
 30
0.0
 10
166.747200
 20
64.797810
 30
0.0
  0
SPLINE
  5
195
100
AcDbEntity
  8
Calque_1
 62
1
100
AcDbSpline
 70
8
 71
3
 72
8
 73
4
 74
0
 40
0
 40
0
 40
0
 40
0
 40
1
 40
1
 40
1
 40
1
 10
166.747200
 20
64.797810
 30
0.0
 10
166.964500
 20
63.999830
 30
0.0
 10
167.059500
 20
62.984950
 30
0.0
 10
167.057400
 20
61.483830
 30
0.0
  0
SPLINE
  5
196
100
AcDbEntity
  8
Calque_1
 62
1
100
AcDbSpline
 70
8
 71
3
 72
8
 73
4
 74
0
 40
0
 40
0
 40
0
 40
0
 40
1
 40
1
 40
1
 40
1
 10
167.057400
 20
61.483830
 30
0.0
 10
167.057400
 20
59.656050
 30
0.0
 10
166.990400
 20
59.158180
 30
0.0
 10
166.641200
 20
58.277450
 30
0.0
  0
SPLINE
  5
197
100
AcDbEntity
  8
Calque_1
 62
1
100
AcDbSpline
 70
8
 71
3
 72
8
 73
4
 74
0
 40
0
 40
0
 40
0
 40
0
 40
1
 40
1
 40
1
 40
1
 10
166.641200
 20
58.277450
 30
0.0
 10
166.097400
 20
56.905830
 30
0.0
 10
165.270100
 20
55.838780
 30
0.0
 10
164.234200
 20
55.172870
 30
0.0
  0
LWPOLYLINE
  5
198
100
AcDbEntity
  8
Calque_1
 62
1
100
AcDbPolyline
 90
3
 70
0
 10
152.914900
 20
55.885490
 30
0.0
 10
152.914900
 20
58.852010
 30
0.0
 10
152.125100
 20
59.987610
 30
0.0
  0
SPLINE
  5
199
100
AcDbEntity
  8
Calque_1
 62
1
100
AcDbSpline
 70
8
 71
3
 72
8
 73
4
 74
0
 40
0
 40
0
 40
0
 40
0
 40
1
 40
1
 40
1
 40
1
 10
170.218700
 20
41.063380
 30
0.0
 10
170.218700
 20
39.149140
 30
0.0
 10
170.507300
 20
39.328720
 30
0.0
 10
167.896900
 20
39.601590
 30
0.0
  0
LWPOLYLINE
  5
19a
100
AcDbEntity
  8
Calque_1
 62
1
100
AcDbPolyline
 90
7
 70
0
 10
164.234200
 20
55.172870
 30
0.0
 10
163.392700
 20
54.631930
 30
0.0
 10
163.382700
 20
50.654460
 30
0.0
 10
163.372700
 20
46.676970
 30
0.0
 10
166.795700
 20
44.704120
 30
0.0
 10
170.218700
 20
42.731270
 30
0.0
 10
170.218700
 20
41.063380
 30
0.0
  0
LWPOLYLINE
  5
19b
100
AcDbEntity
  8
Calque_1
 62
1
100
AcDbPolyline
 90
2
 70
0
 10
167.896900
 20
39.601590
 30
0.0
 10
167.900200
 20
39.601590
 30
0.0
  0
SPLINE
  5
19c
100
AcDbEntity
  8
Calque_1
 62
1
100
AcDbSpline
 70
8
 71
3
 72
8
 73
4
 74
0
 40
0
 40
0
 40
0
 40
0
 40
1
 40
1
 40
1
 40
1
 10
195.757700
 20
66.382120
 30
0.0
 10
193.667100
 20
65.177010
 30
0.0
 10
193.501900
 20
65.041570
 30
0.0
 10
193.302800
 20
64.368840
 30
0.0
  0
SPLINE
  5
19d
100
AcDbEntity
  8
Calque_1
 62
1
100
AcDbSpline
 70
8
 71
3
 72
8
 73
4
 74
0
 40
0
 40
0
 40
0
 40
0
 40
1
 40
1
 40
1
 40
1
 10
193.302800
 20
64.368840
 30
0.0
 10
192.660500
 20
62.199360
 30
0.0
 10
190.185200
 20
58.517860
 30
0.0
 10
188.346300
 20
56.997160
 30
0.0
  0
SPLINE
  5
19e
100
AcDbEntity
  8
Calque_1
 62
1
100
AcDbSpline
 70
8
 71
3
 72
8
 73
4
 74
0
 40
0
 40
0
 40
0
 40
0
 40
1
 40
1
 40
1
 40
1
 10
188.346300
 20
56.997160
 30
0.0
 10
185.582000
 20
54.711100
 30
0.0
 10
182.356000
 20
53.813510
 30
0.0
 10
179.905300
 20
54.648530
 30
0.0
  0
SPLINE
  5
19f
100
AcDbEntity
  8
Calque_1
 62
1
100
AcDbSpline
 70
8
 71
3
 72
8
 73
4
 74
0
 40
0
 40
0
 40
0
 40
0
 40
1
 40
1
 40
1
 40
1
 10
179.905300
 20
54.648530
 30
0.0
 10
178.228100
 20
55.220030
 30
0.0
 10
176.671800
 20
57.146000
 30
0.0
 10
176.186600
 20
59.250590
 30
0.0
  0
SPLINE
  5
1a0
100
AcDbEntity
  8
Calque_1
 62
1
100
AcDbSpline
 70
8
 71
3
 72
8
 73
4
 74
0
 40
0
 40
0
 40
0
 40
0
 40
1
 40
1
 40
1
 40
1
 10
176.186600
 20
59.250590
 30
0.0
 10
175.882500
 20
60.569680
 30
0.0
 10
175.963200
 20
63.141940
 30
0.0
 10
176.360800
 20
64.800420
 30
0.0
  0
SPLINE
  5
1a1
100
AcDbEntity
  8
Calque_1
 62
1
100
AcDbSpline
 70
8
 71
3
 72
8
 73
4
 74
0
 40
0
 40
0
 40
0
 40
0
 40
1
 40
1
 40
1
 40
1
 10
176.360800
 20
64.800420
 30
0.0
 10
176.781600
 20
66.555820
 30
0.0
 10
177.784000
 20
68.789690
 30
0.0
 10
178.887200
 20
70.430750
 30
0.0
  0
SPLINE
  5
1a2
100
AcDbEntity
  8
Calque_1
 62
1
100
AcDbSpline
 70
8
 71
3
 72
8
 73
4
 74
0
 40
0
 40
0
 40
0
 40
0
 40
1
 40
1
 40
1
 40
1
 10
178.887200
 20
70.430750
 30
0.0
 10
179.899100
 20
71.936210
 30
0.0
 10
182.137700
 20
74.123920
 30
0.0
 10
183.475700
 20
74.915090
 30
0.0
  0
SPLINE
  5
1a3
100
AcDbEntity
  8
Calque_1
 62
1
100
AcDbSpline
 70
8
 71
3
 72
8
 73
4
 74
0
 40
0
 40
0
 40
0
 40
0
 40
1
 40
1
 40
1
 40
1
 10
183.475700
 20
74.915090
 30
0.0
 10
186.538000
 20
76.725870
 30
0.0
 10
189.716700
 20
76.828590
 30
0.0
 10
191.643900
 20
75.179020
 30
0.0
  0
SPLINE
  5
1a4
100
AcDbEntity
  8
Calque_1
 62
1
100
AcDbSpline
 70
8
 71
3
 72
8
 73
4
 74
0
 40
0
 40
0
 40
0
 40
0
 40
1
 40
1
 40
1
 40
1
 10
191.643900
 20
75.179020
 30
0.0
 10
192.139300
 20
74.755010
 30
0.0
 10
192.510300
 20
74.567990
 30
0.0
 10
192.717900
 20
74.637680
 30
0.0
  0
SPLINE
  5
1a5
100
AcDbEntity
  8
Calque_1
 62
1
100
AcDbSpline
 70
8
 71
3
 72
8
 73
4
 74
0
 40
0
 40
0
 40
0
 40
0
 40
1
 40
1
 40
1
 40
1
 10
192.717900
 20
74.637680
 30
0.0
 10
192.892300
 20
74.696180
 30
0.0
 10
194.130500
 20
75.374910
 30
0.0
 10
195.469300
 20
76.145840
 30
0.0
  0
LWPOLYLINE
  5
1a6
100
AcDbEntity
  8
Calque_1
 62
1
100
AcDbPolyline
 90
7
 70
0
 10
172.607300
 20
41.087010
 30
0.0
 10
172.659300
 20
42.822180
 30
0.0
 10
185.281200
 20
50.105860
 30
0.0
 10
197.903100
 20
57.389540
 30
0.0
 10
197.951100
 20
62.531840
 30
0.0
 10
197.999100
 20
67.674150
 30
0.0
 10
195.757700
 20
66.382120
 30
0.0
  0
SPLINE
  5
1a7
100
AcDbEntity
  8
Calque_1
 62
1
100
AcDbSpline
 70
8
 71
3
 72
8
 73
4
 74
0
 40
0
 40
0
 40
0
 40
0
 40
1
 40
1
 40
1
 40
1
 10
199.389800
 20
87.730250
 30
0.0
 10
200.154500
 20
88.170550
 30
0.0
 10
200.829600
 20
88.553390
 30
0.0
 10
200.890000
 20
88.581020
 30
0.0
  0
SPLINE
  5
1a8
100
AcDbEntity
  8
Calque_1
 62
1
100
AcDbSpline
 70
8
 71
3
 72
8
 73
4
 74
0
 40
0
 40
0
 40
0
 40
0
 40
1
 40
1
 40
1
 40
1
 10
200.890000
 20
88.581020
 30
0.0
 10
201.055700
 20
88.656820
 30
0.0
 10
202.579100
 20
85.301120
 30
0.0
 10
203.119500
 20
83.669540
 30
0.0
  0
SPLINE
  5
1a9
100
AcDbEntity
  8
Calque_1
 62
1
100
AcDbSpline
 70
8
 71
3
 72
8
 73
4
 74
0
 40
0
 40
0
 40
0
 40
0
 40
1
 40
1
 40
1
 40
1
 10
203.119500
 20
83.669540
 30
0.0
 10
204.503600
 20
79.491630
 30
0.0
 10
204.920500
 20
76.547420
 30
0.0
 10
204.792800
 20
71.851830
 30
0.0
  0
SPLINE
  5
1aa
100
AcDbEntity
  8
Calque_1
 62
1
100
AcDbSpline
 70
8
 71
3
 72
8
 73
4
 74
0
 40
0
 40
0
 40
0
 40
0
 40
1
 40
1
 40
1
 40
1
 10
204.792800
 20
71.851830
 30
0.0
 10
204.715800
 20
69.031380
 30
0.0
 10
204.605800
 20
67.905150
 30
0.0
 10
204.235600
 20
66.159440
 30
0.0
  0
SPLINE
  5
1ab
100
AcDbEntity
  8
Calque_1
 62
1
100
AcDbSpline
 70
8
 71
3
 72
8
 73
4
 74
0
 40
0
 40
0
 40
0
 40
0
 40
1
 40
1
 40
1
 40
1
 10
204.235600
 20
66.159440
 30
0.0
 10
201.873800
 20
55.020070
 30
0.0
 10
194.188900
 20
45.856050
 30
0.0
 10
183.797800
 20
41.787730
 30
0.0
  0
SPLINE
  5
1ac
100
AcDbEntity
  8
Calque_1
 62
1
100
AcDbSpline
 70
8
 71
3
 72
8
 73
4
 74
0
 40
0
 40
0
 40
0
 40
0
 40
1
 40
1
 40
1
 40
1
 10
183.797800
 20
41.787730
 30
0.0
 10
180.418800
 20
40.464780
 30
0.0
 10
177.543300
 20
39.788730
 30
0.0
 10
173.960100
 20
39.474840
 30
0.0
  0
LWPOLYLINE
  5
1ad
100
AcDbEntity
  8
Calque_1
 62
1
100
AcDbPolyline
 90
5
 70
0
 10
195.469300
 20
76.145840
 30
0.0
 10
197.903500
 20
77.547540
 30
0.0
 10
197.951500
 20
82.238620
 30
0.0
 10
197.999500
 20
86.929710
 30
0.0
 10
199.389800
 20
87.730250
 30
0.0
  0
SPLINE
  5
1ae
100
AcDbEntity
  8
Calque_1
 62
1
100
AcDbSpline
 70
8
 71
3
 72
8
 73
4
 74
0
 40
0
 40
0
 40
0
 40
0
 40
1
 40
1
 40
1
 40
1
 10
168.151400
 20
81.054790
 30
0.0
 10
163.710800
 20
81.747260
 30
0.0
 10
160.043200
 20
84.120580
 30
0.0
 10
159.106300
 20
86.907970
 30
0.0
  0
SPLINE
  5
1af
100
AcDbEntity
  8
Calque_1
 62
1
100
AcDbSpline
 70
8
 71
3
 72
8
 73
4
 74
0
 40
0
 40
0
 40
0
 40
0
 40
1
 40
1
 40
1
 40
1
 10
159.106300
 20
86.907970
 30
0.0
 10
158.783500
 20
87.868180
 30
0.0
 10
158.691300
 20
89.315630
 30
0.0
 10
158.904700
 20
90.072570
 30
0.0
  0
SPLINE
  5
1b0
100
AcDbEntity
  8
Calque_1
 62
1
100
AcDbSpline
 70
8
 71
3
 72
8
 73
4
 74
0
 40
0
 40
0
 40
0
 40
0
 40
1
 40
1
 40
1
 40
1
 10
158.904700
 20
90.072570
 30
0.0
 10
159.027900
 20
90.509670
 30
0.0
 10
158.904700
 20
90.606200
 30
0.0
 10
156.444600
 20
92.020530
 30
0.0
  0
LWPOLYLINE
  5
1b1
100
AcDbEntity
  8
Calque_1
 62
1
100
AcDbPolyline
 90
3
 70
0
 10
173.960100
 20
39.474840
 30
0.0
 10
172.555900
 20
39.351830
 30
0.0
 10
172.607300
 20
41.087010
 30
0.0
  0
SPLINE
  5
1b2
100
AcDbEntity
  8
Calque_1
 62
1
100
AcDbSpline
 70
8
 71
3
 72
8
 73
4
 74
0
 40
0
 40
0
 40
0
 40
0
 40
1
 40
1
 40
1
 40
1
 10
149.922300
 20
91.239870
 30
0.0
 10
147.759400
 20
89.992060
 30
0.0
 10
145.879300
 20
89.013480
 30
0.0
 10
145.744400
 20
89.065250
 30
0.0
  0
SPLINE
  5
1b3
100
AcDbEntity
  8
Calque_1
 62
1
100
AcDbSpline
 70
8
 71
3
 72
8
 73
4
 74
0
 40
0
 40
0
 40
0
 40
0
 40
1
 40
1
 40
1
 40
1
 10
145.744400
 20
89.065250
 30
0.0
 10
145.609500
 20
89.117050
 30
0.0
 10
144.931300
 20
89.491030
 30
0.0
 10
144.237200
 20
89.896390
 30
0.0
  0
LWPOLYLINE
  5
1b4
100
AcDbEntity
  8
Calque_1
 62
1
100
AcDbPolyline
 90
3
 70
0
 10
156.444600
 20
92.020530
 30
0.0
 10
153.855000
 20
93.508590
 30
0.0
 10
149.922300
 20
91.239870
 30
0.0
  0
SPLINE
  5
1b5
100
AcDbEntity
  8
Calque_1
 62
1
100
AcDbSpline
 70
8
 71
3
 72
8
 73
4
 74
0
 40
0
 40
0
 40
0
 40
0
 40
1
 40
1
 40
1
 40
1
 10
143.285900
 20
91.114760
 30
0.0
 10
144.918900
 20
93.644770
 30
0.0
 10
148.062800
 20
97.079820
 30
0.0
 10
150.570800
 20
99.074250
 30
0.0
  0
SPLINE
  5
1b6
100
AcDbEntity
  8
Calque_1
 62
1
100
AcDbSpline
 70
8
 71
3
 72
8
 73
4
 74
0
 40
0
 40
0
 40
0
 40
0
 40
1
 40
1
 40
1
 40
1
 10
150.570800
 20
99.074250
 30
0.0
 10
155.253700
 20
102.798070
 30
0.0
 10
160.777000
 20
105.185650
 30
0.0
 10
166.634600
 20
106.018200
 30
0.0
  0
SPLINE
  5
1b7
100
AcDbEntity
  8
Calque_1
 62
1
100
AcDbSpline
 70
8
 71
3
 72
8
 73
4
 74
0
 40
0
 40
0
 40
0
 40
0
 40
1
 40
1
 40
1
 40
1
 10
166.634600
 20
106.018200
 30
0.0
 10
169.043100
 20
106.360510
 30
0.0
 10
173.750900
 20
106.360510
 30
0.0
 10
176.159400
 20
106.018200
 30
0.0
  0
SPLINE
  5
1b8
100
AcDbEntity
  8
Calque_1
 62
1
100
AcDbSpline
 70
8
 71
3
 72
8
 73
4
 74
0
 40
0
 40
0
 40
0
 40
0
 40
1
 40
1
 40
1
 40
1
 10
176.159400
 20
106.018200
 30
0.0
 10
185.074000
 20
104.751170
 30
0.0
 10
193.347500
 20
99.720990
 30
0.0
 10
198.571900
 20
92.391740
 30
0.0
  0
SPLINE
  5
1b9
100
AcDbEntity
  8
Calque_1
 62
1
100
AcDbSpline
 70
8
 71
3
 72
8
 73
4
 74
0
 40
0
 40
0
 40
0
 40
0
 40
1
 40
1
 40
1
 40
1
 10
198.571900
 20
92.391740
 30
0.0
 10
199.959200
 20
90.445400
 30
0.0
 10
200.004600
 20
90.652170
 30
0.0
 10
197.948200
 20
89.548910
 30
0.0
  0
LWPOLYLINE
  5
1ba
100
AcDbEntity
  8
Calque_1
 62
1
100
AcDbPolyline
 90
3
 70
0
 10
144.237200
 20
89.896390
 30
0.0
 10
142.975200
 20
90.633410
 30
0.0
 10
143.285900
 20
91.114760
 30
0.0
  0
SPLINE
  5
1bb
100
AcDbEntity
  8
Calque_1
 62
1
100
AcDbSpline
 70
8
 71
3
 72
8
 73
4
 74
0
 40
0
 40
0
 40
0
 40
0
 40
1
 40
1
 40
1
 40
1
 10
193.305000
 20
90.975650
 30
0.0
 10
191.371200
 20
92.092940
 30
0.0
 10
185.657100
 20
95.391960
 30
0.0
 10
180.607100
 20
98.306800
 30
0.0
  0
LWPOLYLINE
  5
1bc
100
AcDbEntity
  8
Calque_1
 62
1
100
AcDbPolyline
 90
3
 70
0
 10
197.948200
 20
89.548910
 30
0.0
 10
196.821200
 20
88.944210
 30
0.0
 10
193.305000
 20
90.975650
 30
0.0
  0
SPLINE
  5
1bd
100
AcDbEntity
  8
Calque_1
 62
1
100
AcDbSpline
 70
8
 71
3
 72
8
 73
4
 74
0
 40
0
 40
0
 40
0
 40
0
 40
1
 40
1
 40
1
 40
1
 10
170.502700
 20
103.100860
 30
0.0
 10
167.077500
 20
101.223490
 30
0.0
 10
162.674600
 20
98.601210
 30
0.0
 10
162.714600
 20
98.462420
 30
0.0
  0
SPLINE
  5
1be
100
AcDbEntity
  8
Calque_1
 62
1
100
AcDbSpline
 70
8
 71
3
 72
8
 73
4
 74
0
 40
0
 40
0
 40
0
 40
0
 40
1
 40
1
 40
1
 40
1
 10
162.714600
 20
98.462420
 30
0.0
 10
162.740600
 20
98.371120
 30
0.0
 10
163.594200
 20
97.824190
 30
0.0
 10
164.611000
 20
97.246910
 30
0.0
  0
SPLINE
  5
1bf
100
AcDbEntity
  8
Calque_1
 62
1
100
AcDbSpline
 70
8
 71
3
 72
8
 73
4
 74
0
 40
0
 40
0
 40
0
 40
0
 40
1
 40
1
 40
1
 40
1
 10
164.611000
 20
97.246910
 30
0.0
 10
166.413900
 20
96.223230
 30
0.0
 10
166.479600
 20
96.201790
 30
0.0
 10
167.268300
 20
96.378550
 30
0.0
  0
SPLINE
  5
1c0
100
AcDbEntity
  8
Calque_1
 62
1
100
AcDbSpline
 70
8
 71
3
 72
8
 73
4
 74
0
 40
0
 40
0
 40
0
 40
0
 40
1
 40
1
 40
1
 40
1
 10
167.268300
 20
96.378550
 30
0.0
 10
169.657600
 20
96.914010
 30
0.0
 10
173.083400
 20
96.748150
 30
0.0
 10
175.634300
 20
95.973490
 30
0.0
  0
SPLINE
  5
1c1
100
AcDbEntity
  8
Calque_1
 62
1
100
AcDbSpline
 70
8
 71
3
 72
8
 73
4
 74
0
 40
0
 40
0
 40
0
 40
0
 40
1
 40
1
 40
1
 40
1
 10
175.634300
 20
95.973490
 30
0.0
 10
178.396400
 20
95.134730
 30
0.0
 10
181.015900
 20
93.171940
 30
0.0
 10
181.957600
 20
91.235480
 30
0.0
  0
SPLINE
  5
1c2
100
AcDbEntity
  8
Calque_1
 62
1
100
AcDbSpline
 70
8
 71
3
 72
8
 73
4
 74
0
 40
0
 40
0
 40
0
 40
0
 40
1
 40
1
 40
1
 40
1
 10
181.957600
 20
91.235480
 30
0.0
 10
182.592100
 20
89.930880
 30
0.0
 10
182.587300
 20
87.652820
 30
0.0
 10
181.947600
 20
86.367030
 30
0.0
  0
SPLINE
  5
1c3
100
AcDbEntity
  8
Calque_1
 62
1
100
AcDbSpline
 70
8
 71
3
 72
8
 73
4
 74
0
 40
0
 40
0
 40
0
 40
0
 40
1
 40
1
 40
1
 40
1
 10
181.947600
 20
86.367030
 30
0.0
 10
180.867000
 20
84.195550
 30
0.0
 10
178.014300
 20
82.207850
 30
0.0
 10
174.824200
 20
81.403480
 30
0.0
  0
SPLINE
  5
1c4
100
AcDbEntity
  8
Calque_1
 62
1
100
AcDbSpline
 70
8
 71
3
 72
8
 73
4
 74
0
 40
0
 40
0
 40
0
 40
0
 40
1
 40
1
 40
1
 40
1
 10
174.824200
 20
81.403480
 30
0.0
 10
173.150400
 20
80.981440
 30
0.0
 10
169.758500
 20
80.804200
 30
0.0
 10
168.151600
 20
81.054790
 30
0.0
  0
LWPOLYLINE
  5
1c5
100
AcDbEntity
  8
Calque_1
 62
1
100
AcDbPolyline
 90
3
 70
0
 10
180.607100
 20
98.306800
 30
0.0
 10
171.425300
 20
103.606510
 30
0.0
 10
170.502700
 20
103.100860
 30
0.0
  0
LWPOLYLINE
  5
1c6
100
AcDbEntity
  8
Calque_1
 62
1
100
AcDbPolyline
 90
2
 70
0
 10
168.151600
 20
81.054790
 30
0.0
 10
168.151400
 20
81.054790
 30
0.0
  0
LWPOLYLINE
  5
1c7
100
AcDbEntity
  8
Calque_1
 62
1
100
AcDbPolyline
 90
8
 70
1
 10
129.935900
 20
171.527650
 30
0.0
 10
129.935900
 20
191.047570
 30
0.0
 10
134.020500
 20
191.047570
 30
0.0
 10
138.105000
 20
191.047570
 30
0.0
 10
138.105000
 20
171.527640
 30
0.0
 10
138.105000
 20
152.007720
 30
0.0
 10
134.020500
 20
152.007730
 30
0.0
 10
129.935900
 20
152.007740
 30
0.0
  0
LWPOLYLINE
  5
1c8
100
AcDbEntity
  8
Calque_1
 62
1
100
AcDbPolyline
 90
8
 70
1
 10
156.937000
 20
171.527650
 30
0.0
 10
156.937000
 20
191.047570
 30
0.0
 10
160.978600
 20
191.047570
 30
0.0
 10
165.020200
 20
191.047570
 30
0.0
 10
165.020200
 20
171.527650
 30
0.0
 10
165.020200
 20
152.007740
 30
0.0
 10
160.978600
 20
152.007740
 30
0.0
 10
156.937000
 20
152.007740
 30
0.0
  0
LWPOLYLINE
  5
1c9
100
AcDbEntity
  8
Calque_1
 62
1
100
AcDbPolyline
 90
8
 70
1
 10
170.351600
 20
165.250320
 30
0.0
 10
170.351600
 20
178.492910
 30
0.0
 10
174.393200
 20
178.492910
 30
0.0
 10
178.434700
 20
178.492910
 30
0.0
 10
178.434700
 20
165.250320
 30
0.0
 10
178.434700
 20
152.007740
 30
0.0
 10
174.393200
 20
152.007740
 30
0.0
 10
170.351600
 20
152.007740
 30
0.0
  0
LWPOLYLINE
  5
1ca
100
AcDbEntity
  8
Calque_1
 62
1
100
AcDbPolyline
 90
8
 70
1
 10
183.938200
 20
165.250320
 30
0.0
 10
183.938200
 20
178.492910
 30
0.0
 10
188.065700
 20
178.492910
 30
0.0
 10
192.193300
 20
178.492910
 30
0.0
 10
192.193300
 20
165.250320
 30
0.0
 10
192.193300
 20
152.007740
 30
0.0
 10
188.065700
 20
152.007740
 30
0.0
 10
183.938200
 20
152.007740
 30
0.0
  0
LWPOLYLINE
  5
1cb
100
AcDbEntity
  8
Calque_1
 62
1
100
AcDbPolyline
 90
8
 70
1
 10
143.394700
 20
177.761990
 30
0.0
 10
143.436700
 20
190.961580
 30
0.0
 10
147.521300
 20
191.007680
 30
0.0
 10
151.605900
 20
191.053780
 30
0.0
 10
151.605900
 20
177.808080
 30
0.0
 10
151.605900
 20
164.562380
 30
0.0
 10
147.479500
 20
164.562380
 30
0.0
 10
143.353200
 20
164.562380
 30
0.0
  0
LWPOLYLINE
  5
1cc
100
AcDbEntity
  8
Calque_1
 62
1
100
AcDbPolyline
 90
8
 70
1
 10
170.351600
 20
187.177990
 30
0.0
 10
170.351600
 20
191.047570
 30
0.0
 10
174.393200
 20
191.047570
 30
0.0
 10
178.434700
 20
191.047570
 30
0.0
 10
178.434700
 20
187.177990
 30
0.0
 10
178.434700
 20
183.308400
 30
0.0
 10
174.393200
 20
183.308400
 30
0.0
 10
170.351600
 20
183.308400
 30
0.0
  0
SPLINE
  5
1cd
100
AcDbEntity
  8
Calque_1
 62
1
100
AcDbSpline
 70
8
 71
3
 72
8
 73
4
 74
0
 40
0
 40
0
 40
0
 40
0
 40
1
 40
1
 40
1
 40
1
 10
202.770382
 20
135.635151
 30
0.0
 10
200.284374
 20
135.635151
 30
0.0
 10
198.302923
 20
134.911794
 30
0.0
 10
196.826848
 20
133.465835
 30
0.0
  0
SPLINE
  5
1ce
100
AcDbEntity
  8
Calque_1
 62
1
100
AcDbSpline
 70
8
 71
3
 72
8
 73
4
 74
0
 40
0
 40
0
 40
0
 40
0
 40
1
 40
1
 40
1
 40
1
 10
196.826848
 20
133.465835
 30
0.0
 10
195.561847
 20
132.238015
 30
0.0
 10
194.840478
 20
130.639291
 30
0.0
 10
194.659586
 20
128.671001
 30
0.0
  0
LWPOLYLINE
  5
1cf
100
AcDbEntity
  8
Calque_1
 62
1
100
AcDbPolyline
 90
8
 70
1
 10
183.977900
 20
187.134990
 30
0.0
 10
184.023900
 20
190.961590
 30
0.0
 10
194.815800
 20
191.005890
 30
0.0
 10
205.607600
 20
191.050190
 30
0.0
 10
205.607600
 20
187.179310
 30
0.0
 10
205.607600
 20
183.308420
 30
0.0
 10
194.769500
 20
183.308420
 30
0.0
 10
183.931400
 20
183.308420
 30
0.0
  0
SPLINE
  5
1d0
100
AcDbEntity
  8
Calque_1
 62
1
100
AcDbSpline
 70
8
 71
3
 72
8
 73
4
 74
0
 40
0
 40
0
 40
0
 40
0
 40
1
 40
1
 40
1
 40
1
 10
199.838009
 20
128.671001
 30
0.0
 10
199.963402
 20
129.165138
 30
0.0
 10
200.189229
 20
129.576510
 30
0.0
 10
200.516816
 20
129.903951
 30
0.0
  0
SPLINE
  5
1d1
100
AcDbEntity
  8
Calque_1
 62
1
100
AcDbSpline
 70
8
 71
3
 72
8
 73
4
 74
0
 40
0
 40
0
 40
0
 40
0
 40
1
 40
1
 40
1
 40
1
 10
200.516816
 20
129.903951
 30
0.0
 10
201.047696
 20
130.447847
 30
0.0
 10
201.772988
 20
130.719762
 30
0.0
 10
202.692296
 20
130.719762
 30
0.0
  0
SPLINE
  5
1d2
100
AcDbEntity
  8
Calque_1
 62
1
100
AcDbSpline
 70
8
 71
3
 72
8
 73
4
 74
0
 40
0
 40
0
 40
0
 40
0
 40
1
 40
1
 40
1
 40
1
 10
202.692296
 20
130.719762
 30
0.0
 10
203.637491
 20
130.719762
 30
0.0
 10
204.375959
 20
130.454448
 30
0.0
 10
204.906825
 20
129.923820
 30
0.0
  0
SPLINE
  5
1d3
100
AcDbEntity
  8
Calque_1
 62
1
100
AcDbSpline
 70
8
 71
3
 72
8
 73
4
 74
0
 40
0
 40
0
 40
0
 40
0
 40
1
 40
1
 40
1
 40
1
 10
204.906825
 20
129.923820
 30
0.0
 10
205.437666
 20
129.406460
 30
0.0
 10
205.735269
 20
128.663976
 30
0.0
 10
205.800034
 20
127.695585
 30
0.0
  0
LWPOLYLINE
  5
1d4
100
AcDbEntity
  8
Calque_1
 62
1
100
AcDbPolyline
 90
2
 70
0
 10
194.659586
 20
128.671001
 30
0.0
 10
199.838009
 20
128.671001
 30
0.0
  0
SPLINE
  5
1d5
100
AcDbEntity
  8
Calque_1
 62
1
100
AcDbSpline
 70
8
 71
3
 72
8
 73
4
 74
0
 40
0
 40
0
 40
0
 40
0
 40
1
 40
1
 40
1
 40
1
 10
210.733237
 20
127.695585
 30
0.0
 10
210.772075
 20
130.096680
 30
0.0
 10
210.033633
 20
132.019876
 30
0.0
 10
208.518708
 20
133.465835
 30
0.0
  0
SPLINE
  5
1d6
100
AcDbEntity
  8
Calque_1
 62
1
100
AcDbSpline
 70
8
 71
3
 72
8
 73
4
 74
0
 40
0
 40
0
 40
0
 40
0
 40
1
 40
1
 40
1
 40
1
 10
208.518708
 20
133.465835
 30
0.0
 10
207.003809
 20
134.911794
 30
0.0
 10
205.088089
 20
135.635151
 30
0.0
 10
202.770382
 20
135.635151
 30
0.0
  0
LWPOLYLINE
  5
1d7
100
AcDbEntity
  8
Calque_1
 62
1
100
AcDbPolyline
 90
2
 70
0
 10
205.800034
 20
127.695585
 30
0.0
 10
210.733237
 20
127.695585
 30
0.0
  0
SPLINE
  5
1d8
100
AcDbEntity
  8
Calque_1
 62
1
100
AcDbSpline
 70
8
 71
3
 72
8
 73
4
 74
0
 40
0
 40
0
 40
0
 40
0
 40
1
 40
1
 40
1
 40
1
 10
205.800034
 20
121.586972
 30
0.0
 10
205.554019
 20
119.570580
 30
0.0
 10
204.517961
 20
118.562118
 30
0.0
 10
202.692296
 20
118.562118
 30
0.0
  0
SPLINE
  5
1d9
100
AcDbEntity
  8
Calque_1
 62
1
100
AcDbSpline
 70
8
 71
3
 72
8
 73
4
 74
0
 40
0
 40
0
 40
0
 40
0
 40
1
 40
1
 40
1
 40
1
 10
202.692296
 20
118.562118
 30
0.0
 10
201.772988
 20
118.562118
 30
0.0
 10
201.047696
 20
118.834033
 30
0.0
 10
200.516816
 20
119.377917
 30
0.0
  0
SPLINE
  5
1da
100
AcDbEntity
  8
Calque_1
 62
1
100
AcDbSpline
 70
8
 71
3
 72
8
 73
4
 74
0
 40
0
 40
0
 40
0
 40
0
 40
1
 40
1
 40
1
 40
1
 10
200.516816
 20
119.377917
 30
0.0
 10
200.146787
 20
119.766278
 30
0.0
 10
199.909017
 20
120.256995
 30
0.0
 10
199.796905
 20
120.845137
 30
0.0
  0
LWPOLYLINE
  5
1db
100
AcDbEntity
  8
Calque_1
 62
1
100
AcDbPolyline
 90
1
 70
1
 10
202.770382
 20
135.635151
 30
0.0
  0
SPLINE
  5
1dc
100
AcDbEntity
  8
Calque_1
 62
1
100
AcDbSpline
 70
8
 71
3
 72
8
 73
4
 74
0
 40
0
 40
0
 40
0
 40
0
 40
1
 40
1
 40
1
 40
1
 10
194.642460
 20
120.845137
 30
0.0
 10
194.791249
 20
118.761303
 30
0.0
 10
195.518649
 20
117.077680
 30
0.0
 10
196.826848
 20
115.796177
 30
0.0
  0
SPLINE
  5
1dd
100
AcDbEntity
  8
Calque_1
 62
1
100
AcDbSpline
 70
8
 71
3
 72
8
 73
4
 74
0
 40
0
 40
0
 40
0
 40
0
 40
1
 40
1
 40
1
 40
1
 10
196.826848
 20
115.796177
 30
0.0
 10
198.302923
 20
114.363486
 30
0.0
 10
200.284374
 20
113.647406
 30
0.0
 10
202.770382
 20
113.647406
 30
0.0
  0
SPLINE
  5
1de
100
AcDbEntity
  8
Calque_1
 62
1
100
AcDbSpline
 70
8
 71
3
 72
8
 73
4
 74
0
 40
0
 40
0
 40
0
 40
0
 40
1
 40
1
 40
1
 40
1
 10
202.770382
 20
113.647406
 30
0.0
 10
205.101026
 20
113.647406
 30
0.0
 10
206.997354
 20
114.370087
 30
0.0
 10
208.460491
 20
115.816046
 30
0.0
  0
SPLINE
  5
1df
100
AcDbEntity
  8
Calque_1
 62
1
100
AcDbSpline
 70
8
 71
3
 72
8
 73
4
 74
0
 40
0
 40
0
 40
0
 40
0
 40
1
 40
1
 40
1
 40
1
 10
208.460491
 20
115.816046
 30
0.0
 10
209.923602
 20
117.275273
 30
0.0
 10
210.681450
 20
119.199145
 30
0.0
 10
210.733237
 20
121.586972
 30
0.0
  0
LWPOLYLINE
  5
1e0
100
AcDbEntity
  8
Calque_1
 62
1
100
AcDbPolyline
 90
2
 70
0
 10
199.796905
 20
120.845137
 30
0.0
 10
194.642460
 20
120.845137
 30
0.0
  0
LWPOLYLINE
  5
1e1
100
AcDbEntity
  8
Calque_1
 62
1
100
AcDbPolyline
 90
2
 70
0
 10
210.733237
 20
121.586972
 30
0.0
 10
205.800034
 20
121.586972
 30
0.0
  0
SPLINE
  5
1e2
100
AcDbEntity
  8
Calque_1
 62
1
100
AcDbSpline
 70
8
 71
3
 72
8
 73
4
 74
0
 40
0
 40
0
 40
0
 40
0
 40
1
 40
1
 40
1
 40
1
 10
171.903456
 20
120.801037
 30
0.0
 10
172.803477
 20
115.918057
 30
0.0
 10
175.943835
 20
113.487059
 30
0.0
 10
180.822919
 20
113.647406
 30
0.0
  0
SPLINE
  5
1e3
100
AcDbEntity
  8
Calque_1
 62
1
100
AcDbSpline
 70
8
 71
3
 72
8
 73
4
 74
0
 40
0
 40
0
 40
0
 40
0
 40
1
 40
1
 40
1
 40
1
 10
180.822919
 20
113.647406
 30
0.0
 10
182.791288
 20
113.712091
 30
0.0
 10
184.435901
 20
114.323893
 30
0.0
 10
185.753126
 20
115.677000
 30
0.0
  0
SPLINE
  5
1e4
100
AcDbEntity
  8
Calque_1
 62
1
100
AcDbSpline
 70
8
 71
3
 72
8
 73
4
 74
0
 40
0
 40
0
 40
0
 40
0
 40
1
 40
1
 40
1
 40
1
 10
185.753126
 20
115.677000
 30
0.0
 10
186.999755
 20
116.970168
 30
0.0
 10
187.648513
 20
118.696459
 30
0.0
 10
187.715292
 20
120.845137
 30
0.0
  0
LWPOLYLINE
  5
1e5
100
AcDbEntity
  8
Calque_1
 62
1
100
AcDbPolyline
 90
2
 70
0
 10
171.903456
 20
143.395243
 30
0.0
 10
171.903456
 20
120.801037
 30
0.0
  0
SPLINE
  5
1e6
100
AcDbEntity
  8
Calque_1
 62
1
100
AcDbSpline
 70
8
 71
3
 72
8
 73
4
 74
0
 40
0
 40
0
 40
0
 40
0
 40
1
 40
1
 40
1
 40
1
 10
183.285676
 20
120.845137
 30
0.0
 10
183.155511
 20
120.275658
 30
0.0
 10
182.915183
 20
119.806056
 30
0.0
 10
182.562239
 20
119.437512
 30
0.0
  0
SPLINE
  5
1e7
100
AcDbEntity
  8
Calque_1
 62
1
100
AcDbSpline
 70
8
 71
3
 72
8
 73
4
 74
0
 40
0
 40
0
 40
0
 40
0
 40
1
 40
1
 40
1
 40
1
 10
182.562239
 20
119.437512
 30
0.0
 10
182.003259
 20
118.853823
 30
0.0
 10
181.199986
 20
118.562118
 30
0.0
 10
180.153695
 20
118.562118
 30
0.0
  0
SPLINE
  5
1e8
100
AcDbEntity
  8
Calque_1
 62
1
100
AcDbSpline
 70
8
 71
3
 72
8
 73
4
 74
0
 40
0
 40
0
 40
0
 40
0
 40
1
 40
1
 40
1
 40
1
 10
180.153695
 20
118.562118
 30
0.0
 10
179.121732
 20
118.562118
 30
0.0
 10
178.326890
 20
118.853823
 30
0.0
 10
177.767896
 20
119.437512
 30
0.0
  0
SPLINE
  5
1e9
100
AcDbEntity
  8
Calque_1
 62
1
100
AcDbSpline
 70
8
 71
3
 72
8
 73
4
 74
0
 40
0
 40
0
 40
0
 40
0
 40
1
 40
1
 40
1
 40
1
 10
177.767896
 20
119.437512
 30
0.0
 10
177.208929
 20
120.021213
 30
0.0
 10
176.929352
 20
120.856748
 30
0.0
 10
176.929352
 20
121.944528
 30
0.0
  0
LWPOLYLINE
  5
1ea
100
AcDbEntity
  8
Calque_1
 62
1
100
AcDbPolyline
 90
2
 70
0
 10
187.715292
 20
120.845137
 30
0.0
 10
183.285676
 20
120.845137
 30
0.0
  0
SPLINE
  5
1eb
100
AcDbEntity
  8
Calque_1
 62
1
100
AcDbSpline
 70
8
 71
3
 72
8
 73
4
 74
0
 40
0
 40
0
 40
0
 40
0
 40
1
 40
1
 40
1
 40
1
 10
176.929352
 20
127.337352
 30
0.0
 10
176.929352
 20
128.425132
 30
0.0
 10
177.208929
 20
129.260667
 30
0.0
 10
177.767896
 20
129.844356
 30
0.0
  0
SPLINE
  5
1ec
100
AcDbEntity
  8
Calque_1
 62
1
100
AcDbSpline
 70
8
 71
3
 72
8
 73
4
 74
0
 40
0
 40
0
 40
0
 40
0
 40
1
 40
1
 40
1
 40
1
 10
177.767896
 20
129.844356
 30
0.0
 10
178.341219
 20
130.428044
 30
0.0
 10
179.150907
 20
130.719762
 30
0.0
 10
180.197185
 20
130.719762
 30
0.0
  0
SPLINE
  5
1ed
100
AcDbEntity
  8
Calque_1
 62
1
100
AcDbSpline
 70
8
 71
3
 72
8
 73
4
 74
0
 40
0
 40
0
 40
0
 40
0
 40
1
 40
1
 40
1
 40
1
 10
180.197185
 20
130.719762
 30
0.0
 10
181.229161
 20
130.719762
 30
0.0
 10
182.017601
 20
130.428044
 30
0.0
 10
182.562239
 20
129.844356
 30
0.0
  0
SPLINE
  5
1ee
100
AcDbEntity
  8
Calque_1
 62
1
100
AcDbSpline
 70
8
 71
3
 72
8
 73
4
 74
0
 40
0
 40
0
 40
0
 40
0
 40
1
 40
1
 40
1
 40
1
 10
182.562239
 20
129.844356
 30
0.0
 10
182.865132
 20
129.528089
 30
0.0
 10
183.082674
 20
129.135274
 30
0.0
 10
183.221429
 20
128.671001
 30
0.0
  0
LWPOLYLINE
  5
1ef
100
AcDbEntity
  8
Calque_1
 62
1
100
AcDbPolyline
 90
2
 70
0
 10
176.929352
 20
121.944528
 30
0.0
 10
176.929352
 20
127.337352
 30
0.0
  0
SPLINE
  5
1f0
100
AcDbEntity
  8
Calque_1
 62
1
100
AcDbSpline
 70
8
 71
3
 72
8
 73
4
 74
0
 40
0
 40
0
 40
0
 40
0
 40
1
 40
1
 40
1
 40
1
 10
187.707260
 20
128.671001
 30
0.0
 10
187.601484
 20
130.710338
 30
0.0
 10
186.954357
 20
132.351730
 30
0.0
 10
185.753126
 20
133.585701
 30
0.0
  0
SPLINE
  5
1f1
100
AcDbEntity
  8
Calque_1
 62
1
100
AcDbSpline
 70
8
 71
3
 72
8
 73
4
 74
0
 40
0
 40
0
 40
0
 40
0
 40
1
 40
1
 40
1
 40
1
 10
185.753126
 20
133.585701
 30
0.0
 10
184.435901
 20
134.952063
 30
0.0
 10
182.792348
 20
135.635151
 30
0.0
 10
180.822919
 20
135.635151
 30
0.0
  0
SPLINE
  5
1f2
100
AcDbEntity
  8
Calque_1
 62
1
100
AcDbSpline
 70
8
 71
3
 72
8
 73
4
 74
0
 40
0
 40
0
 40
0
 40
0
 40
1
 40
1
 40
1
 40
1
 10
180.822919
 20
135.635151
 30
0.0
 10
179.301087
 20
135.635151
 30
0.0
 10
178.003599
 20
135.217377
 30
0.0
 10
176.929352
 20
134.381643
 30
0.0
  0
LWPOLYLINE
  5
1f3
100
AcDbEntity
  8
Calque_1
 62
1
100
AcDbPolyline
 90
2
 70
0
 10
183.221429
 20
128.671001
 30
0.0
 10
187.707260
 20
128.671001
 30
0.0
  0
SPLINE
  5
1f4
100
AcDbEntity
  8
Calque_1
 62
1
100
AcDbSpline
 70
8
 71
3
 72
8
 73
4
 74
0
 40
0
 40
0
 40
0
 40
0
 40
1
 40
1
 40
1
 40
1
 10
161.067133
 20
135.635111
 30
0.0
 10
158.840077
 20
135.635111
 30
0.0
 10
156.981818
 20
134.985015
 30
0.0
 10
155.492807
 20
133.684981
 30
0.0
  0
SPLINE
  5
1f5
100
AcDbEntity
  8
Calque_1
 62
1
100
AcDbSpline
 70
8
 71
3
 72
8
 73
4
 74
0
 40
0
 40
0
 40
0
 40
0
 40
1
 40
1
 40
1
 40
1
 10
155.492807
 20
133.684981
 30
0.0
 10
154.016732
 20
132.398216
 30
0.0
 10
153.233289
 20
130.726443
 30
0.0
 10
153.142651
 20
128.670272
 30
0.0
  0
LWPOLYLINE
  5
1f6
100
AcDbEntity
  8
Calque_1
 62
1
100
AcDbPolyline
 90
3
 70
0
 10
176.929352
 20
134.381643
 30
0.0
 10
176.929352
 20
143.395243
 30
0.0
 10
171.903456
 20
143.395243
 30
0.0
  0
SPLINE
  5
1f7
100
AcDbEntity
  8
Calque_1
 62
1
100
AcDbSpline
 70
8
 71
3
 72
8
 73
4
 74
0
 40
0
 40
0
 40
0
 40
0
 40
1
 40
1
 40
1
 40
1
 10
158.153940
 20
128.670272
 30
0.0
 10
158.205768
 20
129.426396
 30
0.0
 10
158.490183
 20
130.010522
 30
0.0
 10
159.008099
 20
130.421748
 30
0.0
  0
SPLINE
  5
1f8
100
AcDbEntity
  8
Calque_1
 62
1
100
AcDbSpline
 70
8
 71
3
 72
8
 73
4
 74
0
 40
0
 40
0
 40
0
 40
0
 40
1
 40
1
 40
1
 40
1
 10
159.008099
 20
130.421748
 30
0.0
 10
159.538979
 20
130.832987
 30
0.0
 10
160.212365
 20
131.038229
 30
0.0
 10
161.028097
 20
131.038229
 30
0.0
  0
SPLINE
  5
1f9
100
AcDbEntity
  8
Calque_1
 62
1
100
AcDbSpline
 70
8
 71
3
 72
8
 73
4
 74
0
 40
0
 40
0
 40
0
 40
0
 40
1
 40
1
 40
1
 40
1
 10
161.028097
 20
131.038229
 30
0.0
 10
161.908554
 20
131.038229
 30
0.0
 10
162.595101
 20
130.819785
 30
0.0
 10
163.087131
 20
130.382022
 30
0.0
  0
SPLINE
  5
1fa
100
AcDbEntity
  8
Calque_1
 62
1
100
AcDbSpline
 70
8
 71
3
 72
8
 73
4
 74
0
 40
0
 40
0
 40
0
 40
0
 40
1
 40
1
 40
1
 40
1
 10
163.087131
 20
130.382022
 30
0.0
 10
163.592110
 20
129.944259
 30
0.0
 10
163.844713
 20
129.307365
 30
0.0
 10
163.844713
 20
128.471631
 30
0.0
  0
LWPOLYLINE
  5
1fb
100
AcDbEntity
  8
Calque_1
 62
1
100
AcDbPolyline
 90
2
 70
0
 10
153.142651
 20
128.670272
 30
0.0
 10
158.153940
 20
128.670272
 30
0.0
  0
SPLINE
  5
1fc
100
AcDbEntity
  8
Calque_1
 62
1
100
AcDbSpline
 70
8
 71
3
 72
8
 73
4
 74
0
 40
0
 40
0
 40
0
 40
0
 40
1
 40
1
 40
1
 40
1
 10
163.844713
 20
121.547207
 30
0.0
 10
163.844713
 20
120.578802
 30
0.0
 10
163.520824
 20
119.782860
 30
0.0
 10
162.873419
 20
119.159380
 30
0.0
  0
SPLINE
  5
1fd
100
AcDbEntity
  8
Calque_1
 62
1
100
AcDbSpline
 70
8
 71
3
 72
8
 73
4
 74
0
 40
0
 40
0
 40
0
 40
0
 40
1
 40
1
 40
1
 40
1
 10
162.873419
 20
119.159380
 30
0.0
 10
162.226026
 20
118.549155
 30
0.0
 10
161.397596
 20
118.243559
 30
0.0
 10
160.387637
 20
118.243559
 30
0.0
  0
SPLINE
  5
1fe
100
AcDbEntity
  8
Calque_1
 62
1
100
AcDbSpline
 70
8
 71
3
 72
8
 73
4
 74
0
 40
0
 40
0
 40
0
 40
0
 40
1
 40
1
 40
1
 40
1
 10
160.387637
 20
118.243559
 30
0.0
 10
159.520130
 20
118.243559
 30
0.0
 10
158.846718
 20
118.449490
 30
0.0
 10
158.367652
 20
118.860729
 30
0.0
  0
SPLINE
  5
1ff
100
AcDbEntity
  8
Calque_1
 62
1
100
AcDbSpline
 70
8
 71
3
 72
8
 73
4
 74
0
 40
0
 40
0
 40
0
 40
0
 40
1
 40
1
 40
1
 40
1
 10
158.367652
 20
118.860729
 30
0.0
 10
157.888560
 20
119.271955
 30
0.0
 10
157.649107
 20
119.828988
 30
0.0
 10
157.649107
 20
120.532065
 30
0.0
  0
SPLINE
  5
200
100
AcDbEntity
  8
Calque_1
 62
1
100
AcDbSpline
 70
8
 71
3
 72
8
 73
4
 74
0
 40
0
 40
0
 40
0
 40
0
 40
1
 40
1
 40
1
 40
1
 10
157.649107
 20
120.532065
 30
0.0
 10
157.649107
 20
121.328020
 30
0.0
 10
157.914182
 20
121.931909
 30
0.0
 10
158.445049
 20
122.343149
 30
0.0
  0
SPLINE
  5
201
100
AcDbEntity
  8
Calque_1
 62
1
100
AcDbSpline
 70
8
 71
3
 72
8
 73
4
 74
0
 40
0
 40
0
 40
0
 40
0
 40
1
 40
1
 40
1
 40
1
 10
158.445049
 20
122.343149
 30
0.0
 10
158.975916
 20
122.767643
 30
0.0
 10
159.746209
 20
122.979486
 30
0.0
 10
160.756155
 20
122.979486
 30
0.0
  0
LWPOLYLINE
  5
202
100
AcDbEntity
  8
Calque_1
 62
1
100
AcDbPolyline
 90
6
 70
0
 10
163.844713
 20
128.471631
 30
0.0
 10
163.844713
 20
127.675000
 30
0.0
 10
163.856642
 20
127.675000
 30
0.0
 10
163.856642
 20
122.605494
 30
0.0
 10
163.844713
 20
122.605494
 30
0.0
 10
163.844713
 20
121.547207
 30
0.0
  0
SPLINE
  5
203
100
AcDbEntity
  8
Calque_1
 62
1
100
AcDbSpline
 70
8
 71
3
 72
8
 73
4
 74
0
 40
0
 40
0
 40
0
 40
0
 40
1
 40
1
 40
1
 40
1
 10
160.504083
 20
127.038662
 30
0.0
 10
157.992175
 20
127.038662
 30
0.0
 10
156.043251
 20
126.455239
 30
0.0
 10
154.657815
 20
125.287862
 30
0.0
  0
SPLINE
  5
204
100
AcDbEntity
  8
Calque_1
 62
1
100
AcDbSpline
 70
8
 71
3
 72
8
 73
4
 74
0
 40
0
 40
0
 40
0
 40
0
 40
1
 40
1
 40
1
 40
1
 10
154.657815
 20
125.287862
 30
0.0
 10
153.285329
 20
124.120485
 30
0.0
 10
152.598781
 20
122.488995
 30
0.0
 10
152.598781
 20
120.393019
 30
0.0
  0
SPLINE
  5
205
100
AcDbEntity
  8
Calque_1
 62
1
100
AcDbSpline
 70
8
 71
3
 72
8
 73
4
 74
0
 40
0
 40
0
 40
0
 40
0
 40
1
 40
1
 40
1
 40
1
 10
152.598781
 20
120.393019
 30
0.0
 10
152.598781
 20
118.416432
 30
0.0
 10
153.207813
 20
116.797467
 30
0.0
 10
154.424923
 20
115.537225
 30
0.0
  0
SPLINE
  5
206
100
AcDbEntity
  8
Calque_1
 62
1
100
AcDbSpline
 70
8
 71
3
 72
8
 73
4
 74
0
 40
0
 40
0
 40
0
 40
0
 40
1
 40
1
 40
1
 40
1
 10
154.424923
 20
115.537225
 30
0.0
 10
155.642033
 20
114.276983
 30
0.0
 10
157.273285
 20
113.647366
 30
0.0
 10
159.319077
 20
113.647366
 30
0.0
  0
SPLINE
  5
207
100
AcDbEntity
  8
Calque_1
 62
1
100
AcDbSpline
 70
8
 71
3
 72
8
 73
4
 74
0
 40
0
 40
0
 40
0
 40
0
 40
1
 40
1
 40
1
 40
1
 10
159.319077
 20
113.647366
 30
0.0
 10
161.377806
 20
113.647366
 30
0.0
 10
162.957165
 20
114.230789
 30
0.0
 10
164.057749
 20
115.398166
 30
0.0
  0
LWPOLYLINE
  5
208
100
AcDbEntity
  8
Calque_1
 62
1
100
AcDbPolyline
 90
4
 70
0
 10
160.756155
 20
122.979486
 30
0.0
 10
162.413122
 20
122.979486
 30
0.0
 10
162.413122
 20
127.038662
 30
0.0
 10
160.504083
 20
127.038662
 30
0.0
  0
SPLINE
  5
209
100
AcDbEntity
  8
Calque_1
 62
1
100
AcDbSpline
 70
8
 71
3
 72
8
 73
4
 74
0
 40
0
 40
0
 40
0
 40
0
 40
1
 40
1
 40
1
 40
1
 10
168.855313
 20
128.471631
 30
0.0
 10
168.855313
 20
130.620667
 30
0.0
 10
168.136926
 20
132.351823
 30
0.0
 10
166.699702
 20
133.665112
 30
0.0
  0
SPLINE
  5
20a
100
AcDbEntity
  8
Calque_1
 62
1
100
AcDbSpline
 70
8
 71
3
 72
8
 73
4
 74
0
 40
0
 40
0
 40
0
 40
0
 40
1
 40
1
 40
1
 40
1
 10
166.699702
 20
133.665112
 30
0.0
 10
165.262465
 20
134.978427
 30
0.0
 10
163.384827
 20
135.635111
 30
0.0
 10
161.067133
 20
135.635111
 30
0.0
  0
LWPOLYLINE
  5
20b
100
AcDbEntity
  8
Calque_1
 62
1
100
AcDbPolyline
 90
4
 70
0
 10
164.057749
 20
115.398166
 30
0.0
 10
164.057749
 20
114.045337
 30
0.0
 10
168.855313
 20
114.045337
 30
0.0
 10
168.855313
 20
128.471631
 30
0.0
  0
SPLINE
  5
20c
100
AcDbEntity
  8
Calque_1
 62
1
100
AcDbSpline
 70
8
 71
3
 72
8
 73
4
 74
0
 40
0
 40
0
 40
0
 40
0
 40
1
 40
1
 40
1
 40
1
 10
148.040180
 20
138.659607
 30
0.0
 10
147.574051
 20
138.659607
 30
0.0
 10
147.256826
 20
138.560114
 30
0.0
 10
147.088503
 20
138.361129
 30
0.0
  0
SPLINE
  5
20d
100
AcDbEntity
  8
Calque_1
 62
1
100
AcDbSpline
 70
8
 71
3
 72
8
 73
4
 74
0
 40
0
 40
0
 40
0
 40
0
 40
1
 40
1
 40
1
 40
1
 10
147.088503
 20
138.361129
 30
0.0
 10
146.920181
 20
138.162134
 30
0.0
 10
146.836020
 20
137.784068
 30
0.0
 10
146.836020
 20
137.226930
 30
0.0
  0
LWPOLYLINE
  5
20e
100
AcDbEntity
  8
Calque_1
 62
1
100
AcDbPolyline
 90
1
 70
1
 10
161.067133
 20
135.635111
 30
0.0
  0
SPLINE
  5
20f
100
AcDbEntity
  8
Calque_1
 62
1
100
AcDbSpline
 70
8
 71
3
 72
8
 73
4
 74
0
 40
0
 40
0
 40
0
 40
0
 40
1
 40
1
 40
1
 40
1
 10
141.747440
 20
136.828958
 30
0.0
 10
141.747440
 20
138.885134
 30
0.0
 10
142.271834
 20
140.490278
 30
0.0
 10
143.320622
 20
141.644390
 30
0.0
  0
SPLINE
  5
210
100
AcDbEntity
  8
Calque_1
 62
1
100
AcDbSpline
 70
8
 71
3
 72
8
 73
4
 74
0
 40
0
 40
0
 40
0
 40
0
 40
1
 40
1
 40
1
 40
1
 10
143.320622
 20
141.644390
 30
0.0
 10
144.369410
 20
142.811767
 30
0.0
 10
145.916700
 20
143.395455
 30
0.0
 10
147.962492
 20
143.395455
 30
0.0
  0
LWPOLYLINE
  5
211
100
AcDbEntity
  8
Calque_1
 62
1
100
AcDbPolyline
 90
12
 70
0
 10
146.836020
 20
137.226930
 30
0.0
 10
146.836020
 20
134.819194
 30
0.0
 10
150.467931
 20
134.819194
 30
0.0
 10
150.467931
 20
130.143046
 30
0.0
 10
146.836020
 20
130.143046
 30
0.0
 10
146.836020
 20
114.045125
 30
0.0
 10
141.747440
 20
114.045125
 30
0.0
 10
141.747440
 20
130.143046
 30
0.0
 10
138.814723
 20
130.143046
 30
0.0
 10
138.814723
 20
134.819194
 30
0.0
 10
141.747440
 20
134.819194
 30
0.0
 10
141.747440
 20
136.828958
 30
0.0
  0
LWPOLYLINE
  5
212
100
AcDbEntity
  8
Calque_1
 62
1
100
AcDbPolyline
 90
4
 70
0
 10
147.962492
 20
143.395455
 30
0.0
 10
150.467931
 20
143.395455
 30
0.0
 10
150.467931
 20
138.659607
 30
0.0
 10
148.040180
 20
138.659607
 30
0.0
  0
SPLINE
  5
213
100
AcDbEntity
  8
Calque_1
 62
1
100
AcDbSpline
 70
8
 71
3
 72
8
 73
4
 74
0
 40
0
 40
0
 40
0
 40
0
 40
1
 40
1
 40
1
 40
1
 10
253.396248
 20
151.997626
 30
0.0
 10
249.335051
 20
152.409926
 30
0.0
 10
247.173453
 20
153.241485
 30
0.0
 10
245.031854
 20
155.215364
 30
0.0
  0
SPLINE
  5
214
100
AcDbEntity
  8
Calque_1
 62
1
100
AcDbSpline
 70
8
 71
3
 72
8
 73
4
 74
0
 40
0
 40
0
 40
0
 40
0
 40
1
 40
1
 40
1
 40
1
 10
245.031854
 20
155.215364
 30
0.0
 10
243.327256
 20
156.786502
 30
0.0
 10
240.884857
 20
160.016480
 30
0.0
 10
238.873559
 20
163.359468
 30
0.0
  0
SPLINE
  5
215
100
AcDbEntity
  8
Calque_1
 62
1
100
AcDbSpline
 70
8
 71
3
 72
8
 73
4
 74
0
 40
0
 40
0
 40
0
 40
0
 40
1
 40
1
 40
1
 40
1
 10
238.873559
 20
163.359468
 30
0.0
 10
237.541460
 20
165.573486
 30
0.0
 10
233.612963
 20
172.682901
 30
0.0
 10
233.157863
 20
173.702900
 30
0.0
  0
SPLINE
  5
216
100
AcDbEntity
  8
Calque_1
 62
1
100
AcDbSpline
 70
8
 71
3
 72
8
 73
4
 74
0
 40
0
 40
0
 40
0
 40
0
 40
1
 40
1
 40
1
 40
1
 10
233.157863
 20
173.702900
 30
0.0
 10
232.260864
 20
175.713629
 30
0.0
 10
232.744663
 20
177.767727
 30
0.0
 10
234.274562
 20
178.444477
 30
0.0
  0
SPLINE
  5
217
100
AcDbEntity
  8
Calque_1
 62
1
100
AcDbSpline
 70
8
 71
3
 72
8
 73
4
 74
0
 40
0
 40
0
 40
0
 40
0
 40
1
 40
1
 40
1
 40
1
 10
234.274562
 20
178.444477
 30
0.0
 10
235.511261
 20
178.991536
 30
0.0
 10
237.298160
 20
178.436477
 30
0.0
 10
238.439959
 20
177.151438
 30
0.0
  0
SPLINE
  5
218
100
AcDbEntity
  8
Calque_1
 62
1
100
AcDbSpline
 70
8
 71
3
 72
8
 73
4
 74
0
 40
0
 40
0
 40
0
 40
0
 40
1
 40
1
 40
1
 40
1
 10
238.439959
 20
177.151438
 30
0.0
 10
238.774059
 20
176.775278
 30
0.0
 10
239.810858
 20
175.219969
 30
0.0
 10
240.743857
 20
173.695170
 30
0.0
  0
SPLINE
  5
219
100
AcDbEntity
  8
Calque_1
 62
1
100
AcDbSpline
 70
8
 71
3
 72
8
 73
4
 74
0
 40
0
 40
0
 40
0
 40
0
 40
1
 40
1
 40
1
 40
1
 10
240.743857
 20
173.695170
 30
0.0
 10
241.676857
 20
172.170381
 30
0.0
 10
242.491056
 20
170.922782
 30
0.0
 10
242.553056
 20
170.922712
 30
0.0
  0
SPLINE
  5
21a
100
AcDbEntity
  8
Calque_1
 62
1
100
AcDbSpline
 70
8
 71
3
 72
8
 73
4
 74
0
 40
0
 40
0
 40
0
 40
0
 40
1
 40
1
 40
1
 40
1
 10
242.553056
 20
170.922712
 30
0.0
 10
242.615056
 20
170.922652
 30
0.0
 10
242.810156
 20
171.078312
 30
0.0
 10
242.986556
 20
171.268612
 30
0.0
  0
SPLINE
  5
21b
100
AcDbEntity
  8
Calque_1
 62
1
100
AcDbSpline
 70
8
 71
3
 72
8
 73
4
 74
0
 40
0
 40
0
 40
0
 40
0
 40
1
 40
1
 40
1
 40
1
 10
242.986556
 20
171.268612
 30
0.0
 10
243.706355
 20
172.045351
 30
0.0
 10
243.695855
 20
171.870021
 30
0.0
 10
243.777555
 20
184.423142
 30
0.0
  0
SPLINE
  5
21c
100
AcDbEntity
  8
Calque_1
 62
1
100
AcDbSpline
 70
8
 71
3
 72
8
 73
4
 74
0
 40
0
 40
0
 40
0
 40
0
 40
1
 40
1
 40
1
 40
1
 10
243.777555
 20
184.423142
 30
0.0
 10
243.847555
 20
195.108235
 30
0.0
 10
243.875555
 20
196.195774
 30
0.0
 10
244.094155
 20
196.595064
 30
0.0
  0
SPLINE
  5
21d
100
AcDbEntity
  8
Calque_1
 62
1
100
AcDbSpline
 70
8
 71
3
 72
8
 73
4
 74
0
 40
0
 40
0
 40
0
 40
0
 40
1
 40
1
 40
1
 40
1
 10
244.094155
 20
196.595064
 30
0.0
 10
245.176854
 20
198.571702
 30
0.0
 10
247.891252
 20
198.559422
 30
0.0
 10
248.933252
 20
196.573164
 30
0.0
  0
SPLINE
  5
21e
100
AcDbEntity
  8
Calque_1
 62
1
100
AcDbSpline
 70
8
 71
3
 72
8
 73
4
 74
0
 40
0
 40
0
 40
0
 40
0
 40
1
 40
1
 40
1
 40
1
 10
248.933252
 20
196.573164
 30
0.0
 10
249.216751
 20
196.032644
 30
0.0
 10
249.228051
 20
195.761564
 30
0.0
 10
249.296551
 20
187.886630
 30
0.0
  0
SPLINE
  5
21f
100
AcDbEntity
  8
Calque_1
 62
1
100
AcDbSpline
 70
8
 71
3
 72
8
 73
4
 74
0
 40
0
 40
0
 40
0
 40
0
 40
1
 40
1
 40
1
 40
1
 10
249.296551
 20
187.886630
 30
0.0
 10
249.335551
 20
183.415903
 30
0.0
 10
249.421951
 20
179.646156
 30
0.0
 10
249.488851
 20
179.509416
 30
0.0
  0
SPLINE
  5
220
100
AcDbEntity
  8
Calque_1
 62
1
100
AcDbSpline
 70
8
 71
3
 72
8
 73
4
 74
0
 40
0
 40
0
 40
0
 40
0
 40
1
 40
1
 40
1
 40
1
 10
249.488851
 20
179.509416
 30
0.0
 10
249.650051
 20
179.179966
 30
0.0
 10
250.184751
 20
179.057646
 30
0.0
 10
250.567650
 20
179.262606
 30
0.0
  0
SPLINE
  5
221
100
AcDbEntity
  8
Calque_1
 62
1
100
AcDbSpline
 70
8
 71
3
 72
8
 73
4
 74
0
 40
0
 40
0
 40
0
 40
0
 40
1
 40
1
 40
1
 40
1
 10
250.567650
 20
179.262606
 30
0.0
 10
251.274650
 20
179.640976
 30
0.0
 10
251.275450
 20
179.653866
 30
0.0
 10
251.278850
 20
190.462038
 30
0.0
  0
SPLINE
  5
222
100
AcDbEntity
  8
Calque_1
 62
1
100
AcDbSpline
 70
8
 71
3
 72
8
 73
4
 74
0
 40
0
 40
0
 40
0
 40
0
 40
1
 40
1
 40
1
 40
1
 10
251.278850
 20
190.462038
 30
0.0
 10
251.288850
 20
199.932871
 30
0.0
 10
251.297850
 20
200.573331
 30
0.0
 10
251.541450
 20
201.110290
 30
0.0
  0
SPLINE
  5
223
100
AcDbEntity
  8
Calque_1
 62
1
100
AcDbSpline
 70
8
 71
3
 72
8
 73
4
 74
0
 40
0
 40
0
 40
0
 40
0
 40
1
 40
1
 40
1
 40
1
 10
251.541450
 20
201.110290
 30
0.0
 10
252.286049
 20
202.749479
 30
0.0
 10
254.381048
 20
203.230929
 30
0.0
 10
255.676547
 20
202.060550
 30
0.0
  0
SPLINE
  5
224
100
AcDbEntity
  8
Calque_1
 62
1
100
AcDbSpline
 70
8
 71
3
 72
8
 73
4
 74
0
 40
0
 40
0
 40
0
 40
0
 40
1
 40
1
 40
1
 40
1
 10
255.676547
 20
202.060550
 30
0.0
 10
255.985546
 20
201.781350
 30
0.0
 10
256.314546
 20
201.420210
 30
0.0
 10
256.407746
 20
201.258000
 30
0.0
  0
SPLINE
  5
225
100
AcDbEntity
  8
Calque_1
 62
1
100
AcDbSpline
 70
8
 71
3
 72
8
 73
4
 74
0
 40
0
 40
0
 40
0
 40
0
 40
1
 40
1
 40
1
 40
1
 10
256.407746
 20
201.258000
 30
0.0
 10
256.533346
 20
201.039080
 30
0.0
 10
256.595146
 20
198.182302
 30
0.0
 10
256.647646
 20
190.172388
 30
0.0
  0
SPLINE
  5
226
100
AcDbEntity
  8
Calque_1
 62
1
100
AcDbSpline
 70
8
 71
3
 72
8
 73
4
 74
0
 40
0
 40
0
 40
0
 40
0
 40
1
 40
1
 40
1
 40
1
 10
256.647646
 20
190.172388
 30
0.0
 10
256.716646
 20
179.696936
 30
0.0
 10
256.726646
 20
179.375836
 30
0.0
 10
256.992746
 20
179.181106
 30
0.0
  0
SPLINE
  5
227
100
AcDbEntity
  8
Calque_1
 62
1
100
AcDbSpline
 70
8
 71
3
 72
8
 73
4
 74
0
 40
0
 40
0
 40
0
 40
0
 40
1
 40
1
 40
1
 40
1
 10
256.992746
 20
179.181106
 30
0.0
 10
257.372945
 20
178.903186
 30
0.0
 10
257.460045
 20
178.922936
 30
0.0
 10
257.930845
 20
179.393736
 30
0.0
  0
LWPOLYLINE
  5
228
100
AcDbEntity
  8
Calque_1
 62
1
100
AcDbPolyline
 90
4
 70
1
 10
183.210984
 20
127.189929
 30
0.0
 10
199.635573
 20
127.189929
 30
0.0
 10
199.635573
 20
122.576102
 30
0.0
 10
183.210984
 20
122.576102
 30
0.0
  0
SPLINE
  5
229
100
AcDbEntity
  8
Calque_1
 62
1
100
AcDbSpline
 70
8
 71
3
 72
8
 73
4
 74
0
 40
0
 40
0
 40
0
 40
0
 40
1
 40
1
 40
1
 40
1
 10
258.344645
 20
188.123150
 30
0.0
 10
258.345145
 20
193.754536
 30
0.0
 10
258.395645
 20
196.620853
 30
0.0
 10
258.501445
 20
197.001613
 30
0.0
  0
SPLINE
  5
22a
100
AcDbEntity
  8
Calque_1
 62
1
100
AcDbSpline
 70
8
 71
3
 72
8
 73
4
 74
0
 40
0
 40
0
 40
0
 40
0
 40
1
 40
1
 40
1
 40
1
 10
258.501445
 20
197.001613
 30
0.0
 10
258.844144
 20
198.235732
 30
0.0
 10
260.273843
 20
199.089642
 30
0.0
 10
261.461942
 20
198.769722
 30
0.0
  0
SPLINE
  5
22b
100
AcDbEntity
  8
Calque_1
 62
1
100
AcDbSpline
 70
8
 71
3
 72
8
 73
4
 74
0
 40
0
 40
0
 40
0
 40
0
 40
1
 40
1
 40
1
 40
1
 10
261.461942
 20
198.769722
 30
0.0
 10
262.223042
 20
198.564772
 30
0.0
 10
263.060941
 20
197.789863
 30
0.0
 10
263.267741
 20
197.099583
 30
0.0
  0
SPLINE
  5
22c
100
AcDbEntity
  8
Calque_1
 62
1
100
AcDbSpline
 70
8
 71
3
 72
8
 73
4
 74
0
 40
0
 40
0
 40
0
 40
0
 40
1
 40
1
 40
1
 40
1
 10
263.267741
 20
197.099583
 30
0.0
 10
263.386241
 20
196.704053
 30
0.0
 10
263.433041
 20
194.043905
 30
0.0
 10
263.433041
 20
187.701540
 30
0.0
  0
LWPOLYLINE
  5
22d
100
AcDbEntity
  8
Calque_1
 62
1
100
AcDbPolyline
 90
3
 70
0
 10
257.930845
 20
179.393736
 30
0.0
 10
258.344045
 20
179.806966
 30
0.0
 10
258.344645
 20
188.123150
 30
0.0
  0
SPLINE
  5
22e
100
AcDbEntity
  8
Calque_1
 62
1
100
AcDbSpline
 70
8
 71
3
 72
8
 73
4
 74
0
 40
0
 40
0
 40
0
 40
0
 40
1
 40
1
 40
1
 40
1
 10
263.747241
 20
178.635107
 30
0.0
 10
264.194340
 20
178.321957
 30
0.0
 10
264.522740
 20
178.362127
 30
0.0
 10
264.784740
 20
178.762046
 30
0.0
  0
SPLINE
  5
22f
100
AcDbEntity
  8
Calque_1
 62
1
100
AcDbSpline
 70
8
 71
3
 72
8
 73
4
 74
0
 40
0
 40
0
 40
0
 40
0
 40
1
 40
1
 40
1
 40
1
 10
264.784740
 20
178.762046
 30
0.0
 10
264.983640
 20
179.065556
 30
0.0
 10
265.015040
 20
179.858446
 30
0.0
 10
265.035440
 20
185.088212
 30
0.0
  0
SPLINE
  5
230
100
AcDbEntity
  8
Calque_1
 62
1
100
AcDbSpline
 70
8
 71
3
 72
8
 73
4
 74
0
 40
0
 40
0
 40
0
 40
0
 40
1
 40
1
 40
1
 40
1
 10
265.035440
 20
185.088212
 30
0.0
 10
265.058440
 20
191.027688
 30
0.0
 10
265.061440
 20
191.071408
 30
0.0
 10
265.382540
 20
191.673747
 30
0.0
  0
SPLINE
  5
231
100
AcDbEntity
  8
Calque_1
 62
1
100
AcDbSpline
 70
8
 71
3
 72
8
 73
4
 74
0
 40
0
 40
0
 40
0
 40
0
 40
1
 40
1
 40
1
 40
1
 10
265.382540
 20
191.673747
 30
0.0
 10
265.818639
 20
192.490556
 30
0.0
 10
266.412539
 20
192.833416
 30
0.0
 10
267.391338
 20
192.833416
 30
0.0
  0
SPLINE
  5
232
100
AcDbEntity
  8
Calque_1
 62
1
100
AcDbSpline
 70
8
 71
3
 72
8
 73
4
 74
0
 40
0
 40
0
 40
0
 40
0
 40
1
 40
1
 40
1
 40
1
 10
267.391338
 20
192.833416
 30
0.0
 10
268.317237
 20
192.833416
 30
0.0
 10
268.955837
 20
192.497926
 30
0.0
 10
269.328237
 20
191.815817
 30
0.0
  0
SPLINE
  5
233
100
AcDbEntity
  8
Calque_1
 62
1
100
AcDbSpline
 70
8
 71
3
 72
8
 73
4
 74
0
 40
0
 40
0
 40
0
 40
0
 40
1
 40
1
 40
1
 40
1
 10
269.328237
 20
191.815817
 30
0.0
 10
269.568237
 20
191.376127
 30
0.0
 10
269.582436
 20
190.544898
 30
0.0
 10
269.582436
 20
176.930698
 30
0.0
  0
LWPOLYLINE
  5
234
100
AcDbEntity
  8
Calque_1
 62
1
100
AcDbPolyline
 90
3
 70
0
 10
263.433041
 20
187.701540
 30
0.0
 10
263.433041
 20
178.855176
 30
0.0
 10
263.747241
 20
178.635107
 30
0.0
  0
SPLINE
  5
235
100
AcDbEntity
  8
Calque_1
 62
1
100
AcDbSpline
 70
8
 71
3
 72
8
 73
4
 74
0
 40
0
 40
0
 40
0
 40
0
 40
1
 40
1
 40
1
 40
1
 10
269.266837
 20
161.309639
 30
0.0
 10
268.851637
 20
159.728590
 30
0.0
 10
267.724838
 20
157.490512
 30
0.0
 10
266.811439
 20
156.432483
 30
0.0
  0
SPLINE
  5
236
100
AcDbEntity
  8
Calque_1
 62
1
100
AcDbSpline
 70
8
 71
3
 72
8
 73
4
 74
0
 40
0
 40
0
 40
0
 40
0
 40
1
 40
1
 40
1
 40
1
 10
266.811439
 20
156.432483
 30
0.0
 10
265.749439
 20
155.202294
 30
0.0
 10
264.407640
 20
154.187884
 30
0.0
 10
262.796841
 20
153.397455
 30
0.0
  0
SPLINE
  5
237
100
AcDbEntity
  8
Calque_1
 62
1
100
AcDbSpline
 70
8
 71
3
 72
8
 73
4
 74
0
 40
0
 40
0
 40
0
 40
0
 40
1
 40
1
 40
1
 40
1
 10
262.796841
 20
153.397455
 30
0.0
 10
259.999143
 20
152.024546
 30
0.0
 10
257.214645
 20
151.609936
 30
0.0
 10
253.395948
 20
151.997626
 30
0.0
  0
LWPOLYLINE
  5
238
100
AcDbEntity
  8
Calque_1
 62
1
100
AcDbPolyline
 90
3
 70
0
 10
269.582436
 20
176.930698
 30
0.0
 10
269.582436
 20
162.511258
 30
0.0
 10
269.266837
 20
161.309639
 30
0.0
  0
SPLINE
  5
239
100
AcDbEntity
  8
Calque_1
 62
1
100
AcDbSpline
 70
8
 71
3
 72
8
 73
4
 74
0
 40
0
 40
0
 40
0
 40
0
 40
1
 40
1
 40
1
 40
1
 10
232.850309
 20
141.424628
 30
0.0
 10
232.850309
 20
142.012429
 30
0.0
 10
232.774465
 20
142.567048
 30
0.0
 10
232.622777
 20
143.088484
 30
0.0
  0
SPLINE
  5
23a
100
AcDbEntity
  8
Calque_1
 62
1
100
AcDbSpline
 70
8
 71
3
 72
8
 73
4
 74
0
 40
0
 40
0
 40
0
 40
0
 40
1
 40
1
 40
1
 40
1
 10
232.622777
 20
143.088484
 30
0.0
 10
232.480566
 20
143.619401
 30
0.0
 10
232.262512
 20
144.093434
 30
0.0
 10
231.968614
 20
144.510583
 30
0.0
  0
SPLINE
  5
23b
100
AcDbEntity
  8
Calque_1
 62
1
100
AcDbSpline
 70
8
 71
3
 72
8
 73
4
 74
0
 40
0
 40
0
 40
0
 40
0
 40
1
 40
1
 40
1
 40
1
 10
231.968614
 20
144.510583
 30
0.0
 10
231.684193
 20
144.927732
 30
0.0
 10
231.319185
 20
145.283257
 30
0.0
 10
230.873589
 20
145.577158
 30
0.0
  0
SPLINE
  5
23c
100
AcDbEntity
  8
Calque_1
 62
1
100
AcDbSpline
 70
8
 71
3
 72
8
 73
4
 74
0
 40
0
 40
0
 40
0
 40
0
 40
1
 40
1
 40
1
 40
1
 10
230.873589
 20
145.577158
 30
0.0
 10
230.428003
 20
145.880539
 30
0.0
 10
229.906568
 20
146.098594
 30
0.0
 10
229.309284
 20
146.231323
 30
0.0
  0
SPLINE
  5
23d
100
AcDbEntity
  8
Calque_1
 62
1
100
AcDbSpline
 70
8
 71
3
 72
8
 73
4
 74
0
 40
0
 40
0
 40
0
 40
0
 40
1
 40
1
 40
1
 40
1
 10
229.309284
 20
146.231323
 30
0.0
 10
229.176552
 20
146.259765
 30
0.0
 10
229.081743
 20
146.283468
 30
0.0
 10
229.024859
 20
146.302432
 30
0.0
  0
SPLINE
  5
23e
100
AcDbEntity
  8
Calque_1
 62
1
100
AcDbSpline
 70
8
 71
3
 72
8
 73
4
 74
0
 40
0
 40
0
 40
0
 40
0
 40
1
 40
1
 40
1
 40
1
 10
229.024859
 20
146.302432
 30
0.0
 10
228.977470
 20
146.321397
 30
0.0
 10
228.930069
 20
146.335618
 30
0.0
 10
228.882653
 20
146.345096
 30
0.0
  0
SPLINE
  5
23f
100
AcDbEntity
  8
Calque_1
 62
1
100
AcDbSpline
 70
8
 71
3
 72
8
 73
4
 74
0
 40
0
 40
0
 40
0
 40
0
 40
1
 40
1
 40
1
 40
1
 10
228.882653
 20
146.345096
 30
0.0
 10
228.844760
 20
146.354573
 30
0.0
 10
228.797358
 20
146.359312
 30
0.0
 10
228.740447
 20
146.359312
 30
0.0
  0
SPLINE
  5
240
100
AcDbEntity
  8
Calque_1
 62
1
100
AcDbSpline
 70
8
 71
3
 72
8
 73
4
 74
0
 40
0
 40
0
 40
0
 40
0
 40
1
 40
1
 40
1
 40
1
 10
228.740447
 20
146.359312
 30
0.0
 10
228.683563
 20
146.368790
 30
0.0
 10
228.588755
 20
146.373529
 30
0.0
 10
228.456022
 20
146.373529
 30
0.0
  0
LWPOLYLINE
  5
241
100
AcDbEntity
  8
Calque_1
 62
1
100
AcDbPolyline
 90
2
 70
0
 10
253.395948
 20
151.997626
 30
0.0
 10
253.396248
 20
151.997626
 30
0.0
  0
SPLINE
  5
242
100
AcDbEntity
  8
Calque_1
 62
1
100
AcDbSpline
 70
8
 71
3
 72
8
 73
4
 74
0
 40
0
 40
0
 40
0
 40
0
 40
1
 40
1
 40
1
 40
1
 10
227.716506
 20
144.496359
 30
0.0
 10
227.811310
 20
144.496359
 30
0.0
 10
227.868194
 20
144.491620
 30
0.0
 10
227.887158
 20
144.482142
 30
0.0
  0
SPLINE
  5
243
100
AcDbEntity
  8
Calque_1
 62
1
100
AcDbSpline
 70
8
 71
3
 72
8
 73
4
 74
0
 40
0
 40
0
 40
0
 40
0
 40
1
 40
1
 40
1
 40
1
 10
227.887158
 20
144.482142
 30
0.0
 10
227.906149
 20
144.482142
 30
0.0
 10
227.915645
 20
144.482142
 30
0.0
 10
227.915645
 20
144.482142
 30
0.0
  0
LWPOLYLINE
  5
244
100
AcDbEntity
  8
Calque_1
 62
1
100
AcDbPolyline
 90
4
 70
0
 10
228.456022
 20
146.373529
 30
0.0
 10
227.730749
 20
146.373529
 30
0.0
 10
227.716506
 20
146.373529
 30
0.0
 10
227.716506
 20
144.496359
 30
0.0
  0
SPLINE
  5
245
100
AcDbEntity
  8
Calque_1
 62
1
100
AcDbSpline
 70
8
 71
3
 72
8
 73
4
 74
0
 40
0
 40
0
 40
0
 40
0
 40
1
 40
1
 40
1
 40
1
 10
227.944132
 20
144.467925
 30
0.0
 10
227.963123
 20
144.467925
 30
0.0
 10
228.020007
 20
144.463187
 30
0.0
 10
228.114784
 20
144.453709
 30
0.0
  0
SPLINE
  5
246
100
AcDbEntity
  8
Calque_1
 62
1
100
AcDbSpline
 70
8
 71
3
 72
8
 73
4
 74
0
 40
0
 40
0
 40
0
 40
0
 40
1
 40
1
 40
1
 40
1
 10
228.114784
 20
144.453709
 30
0.0
 10
228.579335
 20
144.425267
 30
0.0
 10
228.963303
 20
144.330460
 30
0.0
 10
229.266688
 20
144.169289
 30
0.0
  0
SPLINE
  5
247
100
AcDbEntity
  8
Calque_1
 62
1
100
AcDbSpline
 70
8
 71
3
 72
8
 73
4
 74
0
 40
0
 40
0
 40
0
 40
0
 40
1
 40
1
 40
1
 40
1
 10
229.266688
 20
144.169289
 30
0.0
 10
229.570064
 20
144.008118
 30
0.0
 10
229.807079
 20
143.794803
 30
0.0
 10
229.977731
 20
143.529344
 30
0.0
  0
SPLINE
  5
248
100
AcDbEntity
  8
Calque_1
 62
1
100
AcDbSpline
 70
8
 71
3
 72
8
 73
4
 74
0
 40
0
 40
0
 40
0
 40
0
 40
1
 40
1
 40
1
 40
1
 10
229.977731
 20
143.529344
 30
0.0
 10
230.157870
 20
143.263886
 30
0.0
 10
230.281121
 20
142.951024
 30
0.0
 10
230.347483
 20
142.590759
 30
0.0
  0
SPLINE
  5
249
100
AcDbEntity
  8
Calque_1
 62
1
100
AcDbSpline
 70
8
 71
3
 72
8
 73
4
 74
0
 40
0
 40
0
 40
0
 40
0
 40
1
 40
1
 40
1
 40
1
 10
230.347483
 20
142.590759
 30
0.0
 10
230.423358
 20
142.230494
 30
0.0
 10
230.461296
 20
141.841786
 30
0.0
 10
230.461296
 20
141.424637
 30
0.0
  0
SPLINE
  5
24a
100
AcDbEntity
  8
Calque_1
 62
1
100
AcDbSpline
 70
8
 71
3
 72
8
 73
4
 74
0
 40
0
 40
0
 40
0
 40
0
 40
1
 40
1
 40
1
 40
1
 10
230.461296
 20
141.424637
 30
0.0
 10
230.461296
 20
140.903202
 30
0.0
 10
230.456548
 20
140.443389
 30
0.0
 10
230.447052
 20
140.045201
 30
0.0
  0
SPLINE
  5
24b
100
AcDbEntity
  8
Calque_1
 62
1
100
AcDbSpline
 70
8
 71
3
 72
8
 73
4
 74
0
 40
0
 40
0
 40
0
 40
0
 40
1
 40
1
 40
1
 40
1
 10
230.447052
 20
140.045201
 30
0.0
 10
230.437557
 20
139.647013
 30
0.0
 10
230.371195
 20
139.310450
 30
0.0
 10
230.247967
 20
139.035511
 30
0.0
  0
SPLINE
  5
24c
100
AcDbEntity
  8
Calque_1
 62
1
100
AcDbSpline
 70
8
 71
3
 72
8
 73
4
 74
0
 40
0
 40
0
 40
0
 40
0
 40
1
 40
1
 40
1
 40
1
 10
230.247967
 20
139.035511
 30
0.0
 10
230.124712
 20
138.770052
 30
0.0
 10
229.916135
 20
138.570958
 30
0.0
 10
229.622237
 20
138.438229
 30
0.0
  0
SPLINE
  5
24d
100
AcDbEntity
  8
Calque_1
 62
1
100
AcDbSpline
 70
8
 71
3
 72
8
 73
4
 74
0
 40
0
 40
0
 40
0
 40
0
 40
1
 40
1
 40
1
 40
1
 10
229.622237
 20
138.438229
 30
0.0
 10
229.337816
 20
138.305500
 30
0.0
 10
228.915928
 20
138.239136
 30
0.0
 10
228.356573
 20
138.239136
 30
0.0
  0
LWPOLYLINE
  5
24e
100
AcDbEntity
  8
Calque_1
 62
1
100
AcDbPolyline
 90
2
 70
0
 10
227.915645
 20
144.482142
 30
0.0
 10
227.944132
 20
144.467925
 30
0.0
  0
SPLINE
  5
24f
100
AcDbEntity
  8
Calque_1
 62
1
100
AcDbSpline
 70
8
 71
3
 72
8
 73
4
 74
0
 40
0
 40
0
 40
0
 40
0
 40
1
 40
1
 40
1
 40
1
 10
228.029485
 20
138.239136
 30
0.0
 10
227.925203
 20
138.248613
 30
0.0
 10
227.820917
 20
138.253352
 30
0.0
 10
227.716627
 20
138.253352
 30
0.0
  0
LWPOLYLINE
  5
250
100
AcDbEntity
  8
Calque_1
 62
1
100
AcDbPolyline
 90
2
 70
0
 10
228.356573
 20
138.239136
 30
0.0
 10
228.029485
 20
138.239136
 30
0.0
  0
SPLINE
  5
251
100
AcDbEntity
  8
Calque_1
 62
1
100
AcDbSpline
 70
8
 71
3
 72
8
 73
4
 74
0
 40
0
 40
0
 40
0
 40
0
 40
1
 40
1
 40
1
 40
1
 10
227.716627
 20
136.404623
 30
0.0
 10
228.361308
 20
136.414101
 30
0.0
 10
228.915928
 20
136.437804
 30
0.0
 10
229.380488
 20
136.475733
 30
0.0
  0
SPLINE
  5
252
100
AcDbEntity
  8
Calque_1
 62
1
100
AcDbSpline
 70
8
 71
3
 72
8
 73
4
 74
0
 40
0
 40
0
 40
0
 40
0
 40
1
 40
1
 40
1
 40
1
 10
229.380488
 20
136.475733
 30
0.0
 10
229.854517
 20
136.523139
 30
0.0
 10
230.271665
 20
136.636907
 30
0.0
 10
230.631935
 20
136.817036
 30
0.0
  0
SPLINE
  5
253
100
AcDbEntity
  8
Calque_1
 62
1
100
AcDbSpline
 70
8
 71
3
 72
8
 73
4
 74
0
 40
0
 40
0
 40
0
 40
0
 40
1
 40
1
 40
1
 40
1
 10
230.631935
 20
136.817036
 30
0.0
 10
231.001673
 20
137.006650
 30
0.0
 10
231.328752
 20
137.286329
 30
0.0
 10
231.613173
 20
137.656075
 30
0.0
  0
SPLINE
  5
254
100
AcDbEntity
  8
Calque_1
 62
1
100
AcDbSpline
 70
8
 71
3
 72
8
 73
4
 74
0
 40
0
 40
0
 40
0
 40
0
 40
1
 40
1
 40
1
 40
1
 10
231.613173
 20
137.656075
 30
0.0
 10
231.897594
 20
138.035302
 30
0.0
 10
232.177275
 20
138.561478
 30
0.0
 10
232.452218
 20
139.234605
 30
0.0
  0
SPLINE
  5
255
100
AcDbEntity
  8
Calque_1
 62
1
100
AcDbSpline
 70
8
 71
3
 72
8
 73
4
 74
0
 40
0
 40
0
 40
0
 40
0
 40
1
 40
1
 40
1
 40
1
 10
232.452218
 20
139.234605
 30
0.0
 10
232.594429
 20
139.585389
 30
0.0
 10
232.693976
 20
139.945655
 30
0.0
 10
232.750860
 20
140.315401
 30
0.0
  0
SPLINE
  5
256
100
AcDbEntity
  8
Calque_1
 62
1
100
AcDbSpline
 70
8
 71
3
 72
8
 73
4
 74
0
 40
0
 40
0
 40
0
 40
0
 40
1
 40
1
 40
1
 40
1
 10
232.750860
 20
140.315401
 30
0.0
 10
232.817240
 20
140.685146
 30
0.0
 10
232.850430
 20
141.054891
 30
0.0
 10
232.850430
 20
141.424637
 30
0.0
  0
LWPOLYLINE
  5
257
100
AcDbEntity
  8
Calque_1
 62
1
100
AcDbPolyline
 90
2
 70
0
 10
227.716627
 20
138.253352
 30
0.0
 10
227.716627
 20
136.404623
 30
0.0
  0
LWPOLYLINE
  5
258
100
AcDbEntity
  8
Calque_1
 62
1
100
AcDbPolyline
 90
2
 70
0
 10
232.850430
 20
141.424637
 30
0.0
 10
232.850309
 20
141.424628
 30
0.0
  0
SPLINE
  5
259
100
AcDbEntity
  8
Calque_1
 62
1
100
AcDbSpline
 70
8
 71
3
 72
8
 73
4
 74
0
 40
0
 40
0
 40
0
 40
0
 40
1
 40
1
 40
1
 40
1
 10
244.084897
 20
141.424628
 30
0.0
 10
244.084897
 20
142.941534
 30
0.0
 10
243.734109
 20
144.150318
 30
0.0
 10
243.032535
 20
145.050980
 30
0.0
  0
SPLINE
  5
25a
100
AcDbEntity
  8
Calque_1
 62
1
100
AcDbSpline
 70
8
 71
3
 72
8
 73
4
 74
0
 40
0
 40
0
 40
0
 40
0
 40
1
 40
1
 40
1
 40
1
 10
243.032535
 20
145.050980
 30
0.0
 10
242.330970
 20
145.961124
 30
0.0
 10
241.221734
 20
146.482560
 30
0.0
 10
239.704826
 20
146.615289
 30
0.0
  0
LWPOLYLINE
  5
25b
100
AcDbEntity
  8
Calque_1
 62
1
100
AcDbPolyline
 90
4
 70
1
 10
226.635738
 20
136.404618
 30
0.0
 10
226.635738
 20
146.359312
 30
0.0
 10
224.417257
 20
146.359312
 30
0.0
 10
224.417257
 20
136.404618
 30
0.0
  0
SPLINE
  5
25c
100
AcDbEntity
  8
Calque_1
 62
1
100
AcDbSpline
 70
8
 71
3
 72
8
 73
4
 74
0
 40
0
 40
0
 40
0
 40
0
 40
1
 40
1
 40
1
 40
1
 10
239.704826
 20
144.709677
 30
0.0
 10
240.178864
 20
144.662270
 30
0.0
 10
240.548611
 20
144.534281
 30
0.0
 10
240.814067
 20
144.325710
 30
0.0
  0
SPLINE
  5
25d
100
AcDbEntity
  8
Calque_1
 62
1
100
AcDbSpline
 70
8
 71
3
 72
8
 73
4
 74
0
 40
0
 40
0
 40
0
 40
0
 40
1
 40
1
 40
1
 40
1
 10
240.814067
 20
144.325710
 30
0.0
 10
241.089001
 20
144.126616
 30
0.0
 10
241.292834
 20
143.870639
 30
0.0
 10
241.425567
 20
143.557777
 30
0.0
  0
SPLINE
  5
25e
100
AcDbEntity
  8
Calque_1
 62
1
100
AcDbSpline
 70
8
 71
3
 72
8
 73
4
 74
0
 40
0
 40
0
 40
0
 40
0
 40
1
 40
1
 40
1
 40
1
 10
241.425567
 20
143.557777
 30
0.0
 10
241.567778
 20
143.244915
 30
0.0
 10
241.653104
 20
142.894131
 30
0.0
 10
241.681546
 20
142.505424
 30
0.0
  0
SPLINE
  5
25f
100
AcDbEntity
  8
Calque_1
 62
1
100
AcDbSpline
 70
8
 71
3
 72
8
 73
4
 74
0
 40
0
 40
0
 40
0
 40
0
 40
1
 40
1
 40
1
 40
1
 10
241.681546
 20
142.505424
 30
0.0
 10
241.719439
 20
142.116717
 30
0.0
 10
241.738385
 20
141.713789
 30
0.0
 10
241.738385
 20
141.296639
 30
0.0
  0
SPLINE
  5
260
100
AcDbEntity
  8
Calque_1
 62
1
100
AcDbSpline
 70
8
 71
3
 72
8
 73
4
 74
0
 40
0
 40
0
 40
0
 40
0
 40
1
 40
1
 40
1
 40
1
 10
241.738385
 20
141.296639
 30
0.0
 10
241.738385
 20
140.860529
 30
0.0
 10
241.714691
 20
140.467082
 30
0.0
 10
241.667302
 20
140.116296
 30
0.0
  0
SPLINE
  5
261
100
AcDbEntity
  8
Calque_1
 62
1
100
AcDbSpline
 70
8
 71
3
 72
8
 73
4
 74
0
 40
0
 40
0
 40
0
 40
0
 40
1
 40
1
 40
1
 40
1
 10
241.667302
 20
140.116296
 30
0.0
 10
241.619914
 20
139.765512
 30
0.0
 10
241.525105
 20
139.452650
 30
0.0
 10
241.382877
 20
139.177712
 30
0.0
  0
SPLINE
  5
262
100
AcDbEntity
  8
Calque_1
 62
1
100
AcDbSpline
 70
8
 71
3
 72
8
 73
4
 74
0
 40
0
 40
0
 40
0
 40
0
 40
1
 40
1
 40
1
 40
1
 10
241.382877
 20
139.177712
 30
0.0
 10
241.240667
 20
138.912253
 30
0.0
 10
241.036833
 20
138.689457
 30
0.0
 10
240.771377
 20
138.509325
 30
0.0
  0
SPLINE
  5
263
100
AcDbEntity
  8
Calque_1
 62
1
100
AcDbSpline
 70
8
 71
3
 72
8
 73
4
 74
0
 40
0
 40
0
 40
0
 40
0
 40
1
 40
1
 40
1
 40
1
 10
240.771377
 20
138.509325
 30
0.0
 10
240.505921
 20
138.329193
 30
0.0
 10
240.150395
 20
138.196463
 30
0.0
 10
239.704799
 20
138.111137
 30
0.0
  0
LWPOLYLINE
  5
264
100
AcDbEntity
  8
Calque_1
 62
1
100
AcDbPolyline
 90
2
 70
0
 10
239.704826
 20
146.615289
 30
0.0
 10
239.704826
 20
144.709677
 30
0.0
  0
SPLINE
  5
265
100
AcDbEntity
  8
Calque_1
 62
1
100
AcDbSpline
 70
8
 71
3
 72
8
 73
4
 74
0
 40
0
 40
0
 40
0
 40
0
 40
1
 40
1
 40
1
 40
1
 10
239.960778
 20
136.219745
 30
0.0
 10
240.671830
 20
136.219745
 30
0.0
 10
241.283334
 20
136.366695
 30
0.0
 10
241.795292
 20
136.660596
 30
0.0
  0
SPLINE
  5
266
100
AcDbEntity
  8
Calque_1
 62
1
100
AcDbSpline
 70
8
 71
3
 72
8
 73
4
 74
0
 40
0
 40
0
 40
0
 40
0
 40
1
 40
1
 40
1
 40
1
 10
241.795292
 20
136.660596
 30
0.0
 10
242.316727
 20
136.963977
 30
0.0
 10
242.743353
 20
137.357425
 30
0.0
 10
243.075172
 20
137.840939
 30
0.0
  0
SPLINE
  5
267
100
AcDbEntity
  8
Calque_1
 62
1
100
AcDbSpline
 70
8
 71
3
 72
8
 73
4
 74
0
 40
0
 40
0
 40
0
 40
0
 40
1
 40
1
 40
1
 40
1
 10
243.075172
 20
137.840939
 30
0.0
 10
243.416476
 20
138.333933
 30
0.0
 10
243.667716
 20
138.888551
 30
0.0
 10
243.828891
 20
139.504795
 30
0.0
  0
SPLINE
  5
268
100
AcDbEntity
  8
Calque_1
 62
1
100
AcDbSpline
 70
8
 71
3
 72
8
 73
4
 74
0
 40
0
 40
0
 40
0
 40
0
 40
1
 40
1
 40
1
 40
1
 10
243.828891
 20
139.504795
 30
0.0
 10
243.999543
 20
140.130518
 30
0.0
 10
244.084870
 20
140.770462
 30
0.0
 10
244.084870
 20
141.424628
 30
0.0
  0
LWPOLYLINE
  5
269
100
AcDbEntity
  8
Calque_1
 62
1
100
AcDbPolyline
 90
3
 70
0
 10
239.704799
 20
138.111137
 30
0.0
 10
239.704799
 20
136.219745
 30
0.0
 10
239.960778
 20
136.219745
 30
0.0
  0
SPLINE
  5
26a
100
AcDbEntity
  8
Calque_1
 62
1
100
AcDbSpline
 70
8
 71
3
 72
8
 73
4
 74
0
 40
0
 40
0
 40
0
 40
0
 40
1
 40
1
 40
1
 40
1
 10
238.624032
 20
138.125359
 30
0.0
 10
238.168959
 20
138.220164
 30
0.0
 10
237.808694
 20
138.362374
 30
0.0
 10
237.543238
 20
138.551987
 30
0.0
  0
SPLINE
  5
26b
100
AcDbEntity
  8
Calque_1
 62
1
100
AcDbSpline
 70
8
 71
3
 72
8
 73
4
 74
0
 40
0
 40
0
 40
0
 40
0
 40
1
 40
1
 40
1
 40
1
 10
237.543238
 20
138.551987
 30
0.0
 10
237.277781
 20
138.741600
 30
0.0
 10
237.073948
 20
138.973877
 30
0.0
 10
236.931737
 20
139.248816
 30
0.0
  0
SPLINE
  5
26c
100
AcDbEntity
  8
Calque_1
 62
1
100
AcDbSpline
 70
8
 71
3
 72
8
 73
4
 74
0
 40
0
 40
0
 40
0
 40
0
 40
1
 40
1
 40
1
 40
1
 10
236.931737
 20
139.248816
 30
0.0
 10
236.789527
 20
139.533236
 30
0.0
 10
236.694719
 20
139.855579
 30
0.0
 10
236.647312
 20
140.215844
 30
0.0
  0
SPLINE
  5
26d
100
AcDbEntity
  8
Calque_1
 62
1
100
AcDbSpline
 70
8
 71
3
 72
8
 73
4
 74
0
 40
0
 40
0
 40
0
 40
0
 40
1
 40
1
 40
1
 40
1
 10
236.647312
 20
140.215844
 30
0.0
 10
236.609419
 20
140.585590
 30
0.0
 10
236.590473
 20
140.988517
 30
0.0
 10
236.590473
 20
141.424628
 30
0.0
  0
SPLINE
  5
26e
100
AcDbEntity
  8
Calque_1
 62
1
100
AcDbSpline
 70
8
 71
3
 72
8
 73
4
 74
0
 40
0
 40
0
 40
0
 40
0
 40
1
 40
1
 40
1
 40
1
 10
236.590473
 20
141.424628
 30
0.0
 10
236.590473
 20
141.822816
 30
0.0
 10
236.614167
 20
142.206783
 30
0.0
 10
236.661556
 20
142.576528
 30
0.0
  0
SPLINE
  5
26f
100
AcDbEntity
  8
Calque_1
 62
1
100
AcDbSpline
 70
8
 71
3
 72
8
 73
4
 74
0
 40
0
 40
0
 40
0
 40
0
 40
1
 40
1
 40
1
 40
1
 10
236.661556
 20
142.576528
 30
0.0
 10
236.708944
 20
142.946274
 30
0.0
 10
236.803753
 20
143.278097
 30
0.0
 10
236.945981
 20
143.571997
 30
0.0
  0
SPLINE
  5
270
100
AcDbEntity
  8
Calque_1
 62
1
100
AcDbSpline
 70
8
 71
3
 72
8
 73
4
 74
0
 40
0
 40
0
 40
0
 40
0
 40
1
 40
1
 40
1
 40
1
 10
236.945981
 20
143.571997
 30
0.0
 10
237.097669
 20
143.875379
 30
0.0
 10
237.306246
 20
144.126616
 30
0.0
 10
237.571711
 20
144.325710
 30
0.0
  0
SPLINE
  5
271
100
AcDbEntity
  8
Calque_1
 62
1
100
AcDbSpline
 70
8
 71
3
 72
8
 73
4
 74
0
 40
0
 40
0
 40
0
 40
0
 40
1
 40
1
 40
1
 40
1
 10
237.571711
 20
144.325710
 30
0.0
 10
237.837167
 20
144.534285
 30
0.0
 10
238.187950
 20
144.662274
 30
0.0
 10
238.624059
 20
144.709677
 30
0.0
  0
LWPOLYLINE
  5
272
100
AcDbEntity
  8
Calque_1
 62
1
100
AcDbPolyline
 90
1
 70
1
 10
244.084870
 20
141.424628
 30
0.0
  0
SPLINE
  5
273
100
AcDbEntity
  8
Calque_1
 62
1
100
AcDbSpline
 70
8
 71
3
 72
8
 73
4
 74
0
 40
0
 40
0
 40
0
 40
0
 40
1
 40
1
 40
1
 40
1
 10
238.624059
 20
146.615284
 30
0.0
 10
237.884565
 20
146.596320
 30
0.0
 10
237.239879
 20
146.449370
 30
0.0
 10
236.690002
 20
146.174434
 30
0.0
  0
SPLINE
  5
274
100
AcDbEntity
  8
Calque_1
 62
1
100
AcDbSpline
 70
8
 71
3
 72
8
 73
4
 74
0
 40
0
 40
0
 40
0
 40
0
 40
1
 40
1
 40
1
 40
1
 10
236.690002
 20
146.174434
 30
0.0
 10
236.140125
 20
145.899494
 30
0.0
 10
235.685052
 20
145.529749
 30
0.0
 10
235.324783
 20
145.065197
 30
0.0
  0
SPLINE
  5
275
100
AcDbEntity
  8
Calque_1
 62
1
100
AcDbSpline
 70
8
 71
3
 72
8
 73
4
 74
0
 40
0
 40
0
 40
0
 40
0
 40
1
 40
1
 40
1
 40
1
 10
235.324783
 20
145.065197
 30
0.0
 10
234.964522
 20
144.600644
 30
0.0
 10
234.694327
 20
144.055506
 30
0.0
 10
234.514197
 20
143.429782
 30
0.0
  0
SPLINE
  5
276
100
AcDbEntity
  8
Calque_1
 62
1
100
AcDbSpline
 70
8
 71
3
 72
8
 73
4
 74
0
 40
0
 40
0
 40
0
 40
0
 40
1
 40
1
 40
1
 40
1
 10
234.514197
 20
143.429782
 30
0.0
 10
234.334058
 20
142.804058
 30
0.0
 10
234.243988
 20
142.135672
 30
0.0
 10
234.243988
 20
141.424623
 30
0.0
  0
SPLINE
  5
277
100
AcDbEntity
  8
Calque_1
 62
1
100
AcDbSpline
 70
8
 71
3
 72
8
 73
4
 74
0
 40
0
 40
0
 40
0
 40
0
 40
1
 40
1
 40
1
 40
1
 10
234.243988
 20
141.424623
 30
0.0
 10
234.243988
 20
140.827341
 30
0.0
 10
234.305616
 20
140.244280
 30
0.0
 10
234.428871
 20
139.675441
 30
0.0
  0
SPLINE
  5
278
100
AcDbEntity
  8
Calque_1
 62
1
100
AcDbSpline
 70
8
 71
3
 72
8
 73
4
 74
0
 40
0
 40
0
 40
0
 40
0
 40
1
 40
1
 40
1
 40
1
 10
234.428871
 20
139.675441
 30
0.0
 10
234.561595
 20
139.116081
 30
0.0
 10
234.765428
 20
138.604126
 30
0.0
 10
235.040371
 20
138.139574
 30
0.0
  0
SPLINE
  5
279
100
AcDbEntity
  8
Calque_1
 62
1
100
AcDbSpline
 70
8
 71
3
 72
8
 73
4
 74
0
 40
0
 40
0
 40
0
 40
0
 40
1
 40
1
 40
1
 40
1
 10
235.040371
 20
138.139574
 30
0.0
 10
235.315305
 20
137.675021
 30
0.0
 10
235.670831
 20
137.276834
 30
0.0
 10
236.106949
 20
136.945011
 30
0.0
  0
SPLINE
  5
27a
100
AcDbEntity
  8
Calque_1
 62
1
100
AcDbSpline
 70
8
 71
3
 72
8
 73
4
 74
0
 40
0
 40
0
 40
0
 40
0
 40
1
 40
1
 40
1
 40
1
 10
236.106949
 20
136.945011
 30
0.0
 10
236.543058
 20
136.622668
 30
0.0
 10
237.069231
 20
136.404612
 30
0.0
 10
237.685470
 20
136.290845
 30
0.0
  0
SPLINE
  5
27b
100
AcDbEntity
  8
Calque_1
 62
1
100
AcDbSpline
 70
8
 71
3
 72
8
 73
4
 74
0
 40
0
 40
0
 40
0
 40
0
 40
1
 40
1
 40
1
 40
1
 10
237.685470
 20
136.290845
 30
0.0
 10
237.837158
 20
136.262403
 30
0.0
 10
237.988851
 20
136.248182
 30
0.0
 10
238.140548
 20
136.248182
 30
0.0
  0
SPLINE
  5
27c
100
AcDbEntity
  8
Calque_1
 62
1
100
AcDbSpline
 70
8
 71
3
 72
8
 73
4
 74
0
 40
0
 40
0
 40
0
 40
0
 40
1
 40
1
 40
1
 40
1
 10
238.140548
 20
136.248182
 30
0.0
 10
238.292236
 20
136.238704
 30
0.0
 10
238.448667
 20
136.233965
 30
0.0
 10
238.609842
 20
136.233965
 30
0.0
  0
LWPOLYLINE
  5
27d
100
AcDbEntity
  8
Calque_1
 62
1
100
AcDbPolyline
 90
3
 70
0
 10
238.624059
 20
144.709677
 30
0.0
 10
238.624059
 20
144.723893
 30
0.0
 10
238.624059
 20
146.615284
 30
0.0
  0
LWPOLYLINE
  5
27e
100
AcDbEntity
  8
Calque_1
 62
1
100
AcDbPolyline
 90
2
 70
0
 10
238.609842
 20
136.233965
 30
0.0
 10
238.624032
 20
138.125359
 30
0.0
  0
LWPOLYLINE
  5
27f
100
AcDbEntity
  8
Calque_1
 62
1
100
AcDbPolyline
 90
4
 70
1
 10
257.609008
 20
137.855159
 30
0.0
 10
257.609008
 20
146.359312
 30
0.0
 10
255.362094
 20
146.359312
 30
0.0
 10
255.461663
 20
141.438849
 30
0.0
  0
LWPOLYLINE
  5
280
100
AcDbEntity
  8
Calque_1
 62
1
100
AcDbPolyline
 90
4
 70
1
 10
257.623252
 20
136.404618
 30
0.0
 10
251.650430
 20
146.345091
 30
0.0
 10
249.545721
 20
146.345091
 30
0.0
 10
255.490096
 20
136.404618
 30
0.0
  0
SPLINE
  5
281
100
AcDbEntity
  8
Calque_1
 62
1
100
AcDbSpline
 70
8
 71
3
 72
8
 73
4
 74
0
 40
0
 40
0
 40
0
 40
0
 40
1
 40
1
 40
1
 40
1
 10
268.943139
 20
141.424628
 30
0.0
 10
268.943139
 20
142.941534
 30
0.0
 10
268.592352
 20
144.150318
 30
0.0
 10
267.890778
 20
145.050980
 30
0.0
  0
SPLINE
  5
282
100
AcDbEntity
  8
Calque_1
 62
1
100
AcDbSpline
 70
8
 71
3
 72
8
 73
4
 74
0
 40
0
 40
0
 40
0
 40
0
 40
1
 40
1
 40
1
 40
1
 10
267.890778
 20
145.050980
 30
0.0
 10
267.189212
 20
145.961124
 30
0.0
 10
266.079976
 20
146.482560
 30
0.0
 10
264.563068
 20
146.615289
 30
0.0
  0
LWPOLYLINE
  5
283
100
AcDbEntity
  8
Calque_1
 62
1
100
AcDbPolyline
 90
4
 70
1
 10
251.749973
 20
136.404618
 30
0.0
 10
251.650403
 20
141.367744
 30
0.0
 10
249.517261
 20
144.965655
 30
0.0
 10
249.517261
 20
136.404618
 30
0.0
  0
SPLINE
  5
284
100
AcDbEntity
  8
Calque_1
 62
1
100
AcDbSpline
 70
8
 71
3
 72
8
 73
4
 74
0
 40
0
 40
0
 40
0
 40
0
 40
1
 40
1
 40
1
 40
1
 10
264.563068
 20
144.709677
 30
0.0
 10
265.037097
 20
144.662270
 30
0.0
 10
265.406844
 20
144.534281
 30
0.0
 10
265.672309
 20
144.325710
 30
0.0
  0
SPLINE
  5
285
100
AcDbEntity
  8
Calque_1
 62
1
100
AcDbSpline
 70
8
 71
3
 72
8
 73
4
 74
0
 40
0
 40
0
 40
0
 40
0
 40
1
 40
1
 40
1
 40
1
 10
265.672309
 20
144.325710
 30
0.0
 10
265.947243
 20
144.126616
 30
0.0
 10
266.151077
 20
143.870639
 30
0.0
 10
266.283809
 20
143.557777
 30
0.0
  0
SPLINE
  5
286
100
AcDbEntity
  8
Calque_1
 62
1
100
AcDbSpline
 70
8
 71
3
 72
8
 73
4
 74
0
 40
0
 40
0
 40
0
 40
0
 40
1
 40
1
 40
1
 40
1
 10
266.283809
 20
143.557777
 30
0.0
 10
266.426020
 20
143.244915
 30
0.0
 10
266.511346
 20
142.894131
 30
0.0
 10
266.539788
 20
142.505424
 30
0.0
  0
SPLINE
  5
287
100
AcDbEntity
  8
Calque_1
 62
1
100
AcDbSpline
 70
8
 71
3
 72
8
 73
4
 74
0
 40
0
 40
0
 40
0
 40
0
 40
1
 40
1
 40
1
 40
1
 10
266.539788
 20
142.505424
 30
0.0
 10
266.577681
 20
142.116717
 30
0.0
 10
266.596627
 20
141.713789
 30
0.0
 10
266.596627
 20
141.296639
 30
0.0
  0
SPLINE
  5
288
100
AcDbEntity
  8
Calque_1
 62
1
100
AcDbSpline
 70
8
 71
3
 72
8
 73
4
 74
0
 40
0
 40
0
 40
0
 40
0
 40
1
 40
1
 40
1
 40
1
 10
266.596627
 20
141.296639
 30
0.0
 10
266.596627
 20
140.860529
 30
0.0
 10
266.572933
 20
140.467082
 30
0.0
 10
266.525545
 20
140.116296
 30
0.0
  0
SPLINE
  5
289
100
AcDbEntity
  8
Calque_1
 62
1
100
AcDbSpline
 70
8
 71
3
 72
8
 73
4
 74
0
 40
0
 40
0
 40
0
 40
0
 40
1
 40
1
 40
1
 40
1
 10
266.525545
 20
140.116296
 30
0.0
 10
266.478156
 20
139.765512
 30
0.0
 10
266.383348
 20
139.452650
 30
0.0
 10
266.241119
 20
139.177712
 30
0.0
  0
SPLINE
  5
28a
100
AcDbEntity
  8
Calque_1
 62
1
100
AcDbSpline
 70
8
 71
3
 72
8
 73
4
 74
0
 40
0
 40
0
 40
0
 40
0
 40
1
 40
1
 40
1
 40
1
 10
266.241119
 20
139.177712
 30
0.0
 10
266.098909
 20
138.912253
 30
0.0
 10
265.895076
 20
138.689457
 30
0.0
 10
265.629619
 20
138.509325
 30
0.0
  0
SPLINE
  5
28b
100
AcDbEntity
  8
Calque_1
 62
1
100
AcDbSpline
 70
8
 71
3
 72
8
 73
4
 74
0
 40
0
 40
0
 40
0
 40
0
 40
1
 40
1
 40
1
 40
1
 10
265.629619
 20
138.509325
 30
0.0
 10
265.364163
 20
138.329193
 30
0.0
 10
265.008637
 20
138.196463
 30
0.0
 10
264.563042
 20
138.111137
 30
0.0
  0
LWPOLYLINE
  5
28c
100
AcDbEntity
  8
Calque_1
 62
1
100
AcDbPolyline
 90
2
 70
0
 10
264.563068
 20
146.615289
 30
0.0
 10
264.563068
 20
144.709677
 30
0.0
  0
SPLINE
  5
28d
100
AcDbEntity
  8
Calque_1
 62
1
100
AcDbSpline
 70
8
 71
3
 72
8
 73
4
 74
0
 40
0
 40
0
 40
0
 40
0
 40
1
 40
1
 40
1
 40
1
 10
264.819020
 20
136.219745
 30
0.0
 10
265.530072
 20
136.219745
 30
0.0
 10
266.141577
 20
136.366695
 30
0.0
 10
266.653534
 20
136.660596
 30
0.0
  0
SPLINE
  5
28e
100
AcDbEntity
  8
Calque_1
 62
1
100
AcDbSpline
 70
8
 71
3
 72
8
 73
4
 74
0
 40
0
 40
0
 40
0
 40
0
 40
1
 40
1
 40
1
 40
1
 10
266.653534
 20
136.660596
 30
0.0
 10
267.174969
 20
136.963977
 30
0.0
 10
267.601596
 20
137.357425
 30
0.0
 10
267.933414
 20
137.840939
 30
0.0
  0
SPLINE
  5
28f
100
AcDbEntity
  8
Calque_1
 62
1
100
AcDbSpline
 70
8
 71
3
 72
8
 73
4
 74
0
 40
0
 40
0
 40
0
 40
0
 40
1
 40
1
 40
1
 40
1
 10
267.933414
 20
137.840939
 30
0.0
 10
268.274719
 20
138.333933
 30
0.0
 10
268.525958
 20
138.888551
 30
0.0
 10
268.687133
 20
139.504795
 30
0.0
  0
SPLINE
  5
290
100
AcDbEntity
  8
Calque_1
 62
1
100
AcDbSpline
 70
8
 71
3
 72
8
 73
4
 74
0
 40
0
 40
0
 40
0
 40
0
 40
1
 40
1
 40
1
 40
1
 10
268.687133
 20
139.504795
 30
0.0
 10
268.857786
 20
140.130518
 30
0.0
 10
268.943112
 20
140.770462
 30
0.0
 10
268.943112
 20
141.424628
 30
0.0
  0
LWPOLYLINE
  5
291
100
AcDbEntity
  8
Calque_1
 62
1
100
AcDbPolyline
 90
3
 70
0
 10
264.563042
 20
138.111137
 30
0.0
 10
264.563042
 20
136.219745
 30
0.0
 10
264.819020
 20
136.219745
 30
0.0
  0
SPLINE
  5
292
100
AcDbEntity
  8
Calque_1
 62
1
100
AcDbSpline
 70
8
 71
3
 72
8
 73
4
 74
0
 40
0
 40
0
 40
0
 40
0
 40
1
 40
1
 40
1
 40
1
 10
263.482274
 20
138.125359
 30
0.0
 10
263.027201
 20
138.220164
 30
0.0
 10
262.666936
 20
138.362374
 30
0.0
 10
262.401480
 20
138.551987
 30
0.0
  0
SPLINE
  5
293
100
AcDbEntity
  8
Calque_1
 62
1
100
AcDbSpline
 70
8
 71
3
 72
8
 73
4
 74
0
 40
0
 40
0
 40
0
 40
0
 40
1
 40
1
 40
1
 40
1
 10
262.401480
 20
138.551987
 30
0.0
 10
262.136023
 20
138.741600
 30
0.0
 10
261.932190
 20
138.973877
 30
0.0
 10
261.789980
 20
139.248816
 30
0.0
  0
SPLINE
  5
294
100
AcDbEntity
  8
Calque_1
 62
1
100
AcDbSpline
 70
8
 71
3
 72
8
 73
4
 74
0
 40
0
 40
0
 40
0
 40
0
 40
1
 40
1
 40
1
 40
1
 10
261.789980
 20
139.248816
 30
0.0
 10
261.647769
 20
139.533236
 30
0.0
 10
261.552961
 20
139.855579
 30
0.0
 10
261.505554
 20
140.215844
 30
0.0
  0
SPLINE
  5
295
100
AcDbEntity
  8
Calque_1
 62
1
100
AcDbSpline
 70
8
 71
3
 72
8
 73
4
 74
0
 40
0
 40
0
 40
0
 40
0
 40
1
 40
1
 40
1
 40
1
 10
261.505554
 20
140.215844
 30
0.0
 10
261.467662
 20
140.585590
 30
0.0
 10
261.448715
 20
140.988517
 30
0.0
 10
261.448715
 20
141.424628
 30
0.0
  0
SPLINE
  5
296
100
AcDbEntity
  8
Calque_1
 62
1
100
AcDbSpline
 70
8
 71
3
 72
8
 73
4
 74
0
 40
0
 40
0
 40
0
 40
0
 40
1
 40
1
 40
1
 40
1
 10
261.448715
 20
141.424628
 30
0.0
 10
261.448715
 20
141.822816
 30
0.0
 10
261.472409
 20
142.206783
 30
0.0
 10
261.519798
 20
142.576528
 30
0.0
  0
SPLINE
  5
297
100
AcDbEntity
  8
Calque_1
 62
1
100
AcDbSpline
 70
8
 71
3
 72
8
 73
4
 74
0
 40
0
 40
0
 40
0
 40
0
 40
1
 40
1
 40
1
 40
1
 10
261.519798
 20
142.576528
 30
0.0
 10
261.567186
 20
142.946274
 30
0.0
 10
261.661995
 20
143.278097
 30
0.0
 10
261.804223
 20
143.571997
 30
0.0
  0
SPLINE
  5
298
100
AcDbEntity
  8
Calque_1
 62
1
100
AcDbSpline
 70
8
 71
3
 72
8
 73
4
 74
0
 40
0
 40
0
 40
0
 40
0
 40
1
 40
1
 40
1
 40
1
 10
261.804223
 20
143.571997
 30
0.0
 10
261.955911
 20
143.875379
 30
0.0
 10
262.164488
 20
144.126616
 30
0.0
 10
262.429953
 20
144.325710
 30
0.0
  0
SPLINE
  5
299
100
AcDbEntity
  8
Calque_1
 62
1
100
AcDbSpline
 70
8
 71
3
 72
8
 73
4
 74
0
 40
0
 40
0
 40
0
 40
0
 40
1
 40
1
 40
1
 40
1
 10
262.429953
 20
144.325710
 30
0.0
 10
262.695410
 20
144.534285
 30
0.0
 10
263.046192
 20
144.662274
 30
0.0
 10
263.482301
 20
144.709677
 30
0.0
  0
LWPOLYLINE
  5
29a
100
AcDbEntity
  8
Calque_1
 62
1
100
AcDbPolyline
 90
1
 70
1
 10
268.943112
 20
141.424628
 30
0.0
  0
SPLINE
  5
29b
100
AcDbEntity
  8
Calque_1
 62
1
100
AcDbSpline
 70
8
 71
3
 72
8
 73
4
 74
0
 40
0
 40
0
 40
0
 40
0
 40
1
 40
1
 40
1
 40
1
 10
263.482301
 20
146.615284
 30
0.0
 10
262.742807
 20
146.596320
 30
0.0
 10
262.098122
 20
146.449370
 30
0.0
 10
261.548244
 20
146.174434
 30
0.0
  0
SPLINE
  5
29c
100
AcDbEntity
  8
Calque_1
 62
1
100
AcDbSpline
 70
8
 71
3
 72
8
 73
4
 74
0
 40
0
 40
0
 40
0
 40
0
 40
1
 40
1
 40
1
 40
1
 10
261.548244
 20
146.174434
 30
0.0
 10
260.998367
 20
145.899494
 30
0.0
 10
260.543294
 20
145.529749
 30
0.0
 10
260.183025
 20
145.065197
 30
0.0
  0
SPLINE
  5
29d
100
AcDbEntity
  8
Calque_1
 62
1
100
AcDbSpline
 70
8
 71
3
 72
8
 73
4
 74
0
 40
0
 40
0
 40
0
 40
0
 40
1
 40
1
 40
1
 40
1
 10
260.183025
 20
145.065197
 30
0.0
 10
259.822765
 20
144.600644
 30
0.0
 10
259.552569
 20
144.055506
 30
0.0
 10
259.372439
 20
143.429782
 30
0.0
  0
SPLINE
  5
29e
100
AcDbEntity
  8
Calque_1
 62
1
100
AcDbSpline
 70
8
 71
3
 72
8
 73
4
 74
0
 40
0
 40
0
 40
0
 40
0
 40
1
 40
1
 40
1
 40
1
 10
259.372439
 20
143.429782
 30
0.0
 10
259.192300
 20
142.804058
 30
0.0
 10
259.102231
 20
142.135672
 30
0.0
 10
259.102231
 20
141.424623
 30
0.0
  0
SPLINE
  5
29f
100
AcDbEntity
  8
Calque_1
 62
1
100
AcDbSpline
 70
8
 71
3
 72
8
 73
4
 74
0
 40
0
 40
0
 40
0
 40
0
 40
1
 40
1
 40
1
 40
1
 10
259.102231
 20
141.424623
 30
0.0
 10
259.102231
 20
140.827341
 30
0.0
 10
259.163858
 20
140.244280
 30
0.0
 10
259.287113
 20
139.675441
 30
0.0
  0
SPLINE
  5
2a0
100
AcDbEntity
  8
Calque_1
 62
1
100
AcDbSpline
 70
8
 71
3
 72
8
 73
4
 74
0
 40
0
 40
0
 40
0
 40
0
 40
1
 40
1
 40
1
 40
1
 10
259.287113
 20
139.675441
 30
0.0
 10
259.419837
 20
139.116081
 30
0.0
 10
259.623670
 20
138.604126
 30
0.0
 10
259.898613
 20
138.139574
 30
0.0
  0
SPLINE
  5
2a1
100
AcDbEntity
  8
Calque_1
 62
1
100
AcDbSpline
 70
8
 71
3
 72
8
 73
4
 74
0
 40
0
 40
0
 40
0
 40
0
 40
1
 40
1
 40
1
 40
1
 10
259.898613
 20
138.139574
 30
0.0
 10
260.173547
 20
137.675021
 30
0.0
 10
260.529073
 20
137.276834
 30
0.0
 10
260.965191
 20
136.945011
 30
0.0
  0
SPLINE
  5
2a2
100
AcDbEntity
  8
Calque_1
 62
1
100
AcDbSpline
 70
8
 71
3
 72
8
 73
4
 74
0
 40
0
 40
0
 40
0
 40
0
 40
1
 40
1
 40
1
 40
1
 10
260.965191
 20
136.945011
 30
0.0
 10
261.401300
 20
136.622668
 30
0.0
 10
261.927474
 20
136.404612
 30
0.0
 10
262.543713
 20
136.290845
 30
0.0
  0
SPLINE
  5
2a3
100
AcDbEntity
  8
Calque_1
 62
1
100
AcDbSpline
 70
8
 71
3
 72
8
 73
4
 74
0
 40
0
 40
0
 40
0
 40
0
 40
1
 40
1
 40
1
 40
1
 10
262.543713
 20
136.290845
 30
0.0
 10
262.695401
 20
136.262403
 30
0.0
 10
262.847093
 20
136.248182
 30
0.0
 10
262.998790
 20
136.248182
 30
0.0
  0
SPLINE
  5
2a4
100
AcDbEntity
  8
Calque_1
 62
1
100
AcDbSpline
 70
8
 71
3
 72
8
 73
4
 74
0
 40
0
 40
0
 40
0
 40
0
 40
1
 40
1
 40
1
 40
1
 10
262.998790
 20
136.248182
 30
0.0
 10
263.150478
 20
136.238704
 30
0.0
 10
263.306910
 20
136.233965
 30
0.0
 10
263.468084
 20
136.233965
 30
0.0
  0
LWPOLYLINE
  5
2a5
100
AcDbEntity
  8
Calque_1
 62
1
100
AcDbPolyline
 90
3
 70
0
 10
263.482301
 20
144.709677
 30
0.0
 10
263.482301
 20
144.723893
 30
0.0
 10
263.482301
 20
146.615284
 30
0.0
  0
LWPOLYLINE
  5
2a6
100
AcDbEntity
  8
Calque_1
 62
1
100
AcDbPolyline
 90
2
 70
0
 10
263.468084
 20
136.233965
 30
0.0
 10
263.482274
 20
138.125359
 30
0.0
  0
LWPOLYLINE
  5
2a7
100
AcDbEntity
  8
Calque_1
 62
1
100
AcDbPolyline
 90
4
 70
1
 10
277.873892
 20
144.510583
 30
0.0
 10
277.873892
 20
146.373533
 30
0.0
 10
275.698086
 20
146.373533
 30
0.0
 10
275.698086
 20
144.510583
 30
0.0
  0
LWPOLYLINE
  5
2a8
100
AcDbEntity
  8
Calque_1
 62
1
100
AcDbPolyline
 90
4
 70
1
 10
271.716214
 20
144.496367
 30
0.0
 10
271.716214
 20
146.373537
 30
0.0
 10
269.682601
 20
146.373537
 30
0.0
 10
269.682601
 20
144.496367
 30
0.0
  0
SPLINE
  5
2a9
100
AcDbEntity
  8
Calque_1
 62
1
100
AcDbSpline
 70
8
 71
3
 72
8
 73
4
 74
0
 40
0
 40
0
 40
0
 40
0
 40
1
 40
1
 40
1
 40
1
 10
229.693225
 20
123.299102
 30
0.0
 10
229.693225
 20
123.886902
 30
0.0
 10
229.617381
 20
124.441521
 30
0.0
 10
229.465693
 20
124.962958
 30
0.0
  0
SPLINE
  5
2aa
100
AcDbEntity
  8
Calque_1
 62
1
100
AcDbSpline
 70
8
 71
3
 72
8
 73
4
 74
0
 40
0
 40
0
 40
0
 40
0
 40
1
 40
1
 40
1
 40
1
 10
229.465693
 20
124.962958
 30
0.0
 10
229.323483
 20
125.493875
 30
0.0
 10
229.105428
 20
125.967908
 30
0.0
 10
228.811530
 20
126.385057
 30
0.0
  0
SPLINE
  5
2ab
100
AcDbEntity
  8
Calque_1
 62
1
100
AcDbSpline
 70
8
 71
3
 72
8
 73
4
 74
0
 40
0
 40
0
 40
0
 40
0
 40
1
 40
1
 40
1
 40
1
 10
228.811530
 20
126.385057
 30
0.0
 10
228.527109
 20
126.802206
 30
0.0
 10
228.162101
 20
127.157730
 30
0.0
 10
227.716506
 20
127.451630
 30
0.0
  0
SPLINE
  5
2ac
100
AcDbEntity
  8
Calque_1
 62
1
100
AcDbSpline
 70
8
 71
3
 72
8
 73
4
 74
0
 40
0
 40
0
 40
0
 40
0
 40
1
 40
1
 40
1
 40
1
 10
227.716506
 20
127.451630
 30
0.0
 10
227.270919
 20
127.755012
 30
0.0
 10
226.749484
 20
127.973067
 30
0.0
 10
226.152201
 20
128.105796
 30
0.0
  0
SPLINE
  5
2ad
100
AcDbEntity
  8
Calque_1
 62
1
100
AcDbSpline
 70
8
 71
3
 72
8
 73
4
 74
0
 40
0
 40
0
 40
0
 40
0
 40
1
 40
1
 40
1
 40
1
 10
226.152201
 20
128.105796
 30
0.0
 10
226.019468
 20
128.134238
 30
0.0
 10
225.924660
 20
128.157942
 30
0.0
 10
225.867775
 20
128.176906
 30
0.0
  0
SPLINE
  5
2ae
100
AcDbEntity
  8
Calque_1
 62
1
100
AcDbSpline
 70
8
 71
3
 72
8
 73
4
 74
0
 40
0
 40
0
 40
0
 40
0
 40
1
 40
1
 40
1
 40
1
 10
225.867775
 20
128.176906
 30
0.0
 10
225.820387
 20
128.195870
 30
0.0
 10
225.772985
 20
128.210091
 30
0.0
 10
225.725570
 20
128.219569
 30
0.0
  0
SPLINE
  5
2af
100
AcDbEntity
  8
Calque_1
 62
1
100
AcDbSpline
 70
8
 71
3
 72
8
 73
4
 74
0
 40
0
 40
0
 40
0
 40
0
 40
1
 40
1
 40
1
 40
1
 10
225.725570
 20
128.219569
 30
0.0
 10
225.687677
 20
128.229047
 30
0.0
 10
225.640275
 20
128.233786
 30
0.0
 10
225.583364
 20
128.233786
 30
0.0
  0
SPLINE
  5
2b0
100
AcDbEntity
  8
Calque_1
 62
1
100
AcDbSpline
 70
8
 71
3
 72
8
 73
4
 74
0
 40
0
 40
0
 40
0
 40
0
 40
1
 40
1
 40
1
 40
1
 10
225.583364
 20
128.233786
 30
0.0
 10
225.526480
 20
128.243263
 30
0.0
 10
225.431671
 20
128.248002
 30
0.0
 10
225.298938
 20
128.248002
 30
0.0
  0
LWPOLYLINE
  5
2b1
100
AcDbEntity
  8
Calque_1
 62
1
100
AcDbPolyline
 90
4
 70
1
 10
274.901704
 20
136.404622
 30
0.0
 10
274.901704
 20
146.373537
 30
0.0
 10
272.640572
 20
146.373537
 30
0.0
 10
272.640572
 20
136.404622
 30
0.0
  0
SPLINE
  5
2b2
100
AcDbEntity
  8
Calque_1
 62
1
100
AcDbSpline
 70
8
 71
3
 72
8
 73
4
 74
0
 40
0
 40
0
 40
0
 40
0
 40
1
 40
1
 40
1
 40
1
 10
224.559422
 20
126.370832
 30
0.0
 10
224.654226
 20
126.370832
 30
0.0
 10
224.711110
 20
126.366093
 30
0.0
 10
224.730075
 20
126.356616
 30
0.0
  0
LWPOLYLINE
  5
2b3
100
AcDbEntity
  8
Calque_1
 62
1
100
AcDbPolyline
 90
4
 70
0
 10
225.298938
 20
128.248002
 30
0.0
 10
224.573666
 20
128.248002
 30
0.0
 10
224.559422
 20
128.248002
 30
0.0
 10
224.559422
 20
126.370832
 30
0.0
  0
SPLINE
  5
2b4
100
AcDbEntity
  8
Calque_1
 62
1
100
AcDbSpline
 70
8
 71
3
 72
8
 73
4
 74
0
 40
0
 40
0
 40
0
 40
0
 40
1
 40
1
 40
1
 40
1
 10
224.787048
 20
126.342399
 30
0.0
 10
224.806040
 20
126.342399
 30
0.0
 10
224.862924
 20
126.337660
 30
0.0
 10
224.957701
 20
126.328182
 30
0.0
  0
SPLINE
  5
2b5
100
AcDbEntity
  8
Calque_1
 62
1
100
AcDbSpline
 70
8
 71
3
 72
8
 73
4
 74
0
 40
0
 40
0
 40
0
 40
0
 40
1
 40
1
 40
1
 40
1
 10
224.957701
 20
126.328182
 30
0.0
 10
225.422252
 20
126.299740
 30
0.0
 10
225.806220
 20
126.204934
 30
0.0
 10
226.109605
 20
126.043763
 30
0.0
  0
SPLINE
  5
2b6
100
AcDbEntity
  8
Calque_1
 62
1
100
AcDbSpline
 70
8
 71
3
 72
8
 73
4
 74
0
 40
0
 40
0
 40
0
 40
0
 40
1
 40
1
 40
1
 40
1
 10
226.109605
 20
126.043763
 30
0.0
 10
226.412981
 20
125.882591
 30
0.0
 10
226.649995
 20
125.669276
 30
0.0
 10
226.820648
 20
125.403817
 30
0.0
  0
SPLINE
  5
2b7
100
AcDbEntity
  8
Calque_1
 62
1
100
AcDbSpline
 70
8
 71
3
 72
8
 73
4
 74
0
 40
0
 40
0
 40
0
 40
0
 40
1
 40
1
 40
1
 40
1
 10
226.820648
 20
125.403817
 30
0.0
 10
227.000787
 20
125.138359
 30
0.0
 10
227.124037
 20
124.825497
 30
0.0
 10
227.190399
 20
124.465232
 30
0.0
  0
SPLINE
  5
2b8
100
AcDbEntity
  8
Calque_1
 62
1
100
AcDbSpline
 70
8
 71
3
 72
8
 73
4
 74
0
 40
0
 40
0
 40
0
 40
0
 40
1
 40
1
 40
1
 40
1
 10
227.190399
 20
124.465232
 30
0.0
 10
227.266274
 20
124.104967
 30
0.0
 10
227.304212
 20
123.716260
 30
0.0
 10
227.304212
 20
123.299111
 30
0.0
  0
SPLINE
  5
2b9
100
AcDbEntity
  8
Calque_1
 62
1
100
AcDbSpline
 70
8
 71
3
 72
8
 73
4
 74
0
 40
0
 40
0
 40
0
 40
0
 40
1
 40
1
 40
1
 40
1
 10
227.304212
 20
123.299111
 30
0.0
 10
227.304212
 20
122.777674
 30
0.0
 10
227.299464
 20
122.317862
 30
0.0
 10
227.289969
 20
121.919675
 30
0.0
  0
SPLINE
  5
2ba
100
AcDbEntity
  8
Calque_1
 62
1
100
AcDbSpline
 70
8
 71
3
 72
8
 73
4
 74
0
 40
0
 40
0
 40
0
 40
0
 40
1
 40
1
 40
1
 40
1
 10
227.289969
 20
121.919675
 30
0.0
 10
227.280473
 20
121.521487
 30
0.0
 10
227.214111
 20
121.184923
 30
0.0
 10
227.090883
 20
120.909984
 30
0.0
  0
SPLINE
  5
2bb
100
AcDbEntity
  8
Calque_1
 62
1
100
AcDbSpline
 70
8
 71
3
 72
8
 73
4
 74
0
 40
0
 40
0
 40
0
 40
0
 40
1
 40
1
 40
1
 40
1
 10
227.090883
 20
120.909984
 30
0.0
 10
226.967628
 20
120.644525
 30
0.0
 10
226.759051
 20
120.445432
 30
0.0
 10
226.465153
 20
120.312703
 30
0.0
  0
SPLINE
  5
2bc
100
AcDbEntity
  8
Calque_1
 62
1
100
AcDbSpline
 70
8
 71
3
 72
8
 73
4
 74
0
 40
0
 40
0
 40
0
 40
0
 40
1
 40
1
 40
1
 40
1
 10
226.465153
 20
120.312703
 30
0.0
 10
226.180732
 20
120.179974
 30
0.0
 10
225.758845
 20
120.113609
 30
0.0
 10
225.199490
 20
120.113609
 30
0.0
  0
LWPOLYLINE
  5
2bd
100
AcDbEntity
  8
Calque_1
 62
1
100
AcDbPolyline
 90
3
 70
0
 10
224.730075
 20
126.356616
 30
0.0
 10
224.758561
 20
126.356616
 30
0.0
 10
224.787048
 20
126.342399
 30
0.0
  0
SPLINE
  5
2be
100
AcDbEntity
  8
Calque_1
 62
1
100
AcDbSpline
 70
8
 71
3
 72
8
 73
4
 74
0
 40
0
 40
0
 40
0
 40
0
 40
1
 40
1
 40
1
 40
1
 10
224.872401
 20
120.113609
 30
0.0
 10
224.768120
 20
120.123087
 30
0.0
 10
224.663834
 20
120.127826
 30
0.0
 10
224.559543
 20
120.127826
 30
0.0
  0
LWPOLYLINE
  5
2bf
100
AcDbEntity
  8
Calque_1
 62
1
100
AcDbPolyline
 90
2
 70
0
 10
225.199490
 20
120.113609
 30
0.0
 10
224.872401
 20
120.113609
 30
0.0
  0
SPLINE
  5
2c0
100
AcDbEntity
  8
Calque_1
 62
1
100
AcDbSpline
 70
8
 71
3
 72
8
 73
4
 74
0
 40
0
 40
0
 40
0
 40
0
 40
1
 40
1
 40
1
 40
1
 10
224.559543
 20
118.279097
 30
0.0
 10
225.204224
 20
118.288574
 30
0.0
 10
225.758845
 20
118.312278
 30
0.0
 10
226.223404
 20
118.350206
 30
0.0
  0
SPLINE
  5
2c1
100
AcDbEntity
  8
Calque_1
 62
1
100
AcDbSpline
 70
8
 71
3
 72
8
 73
4
 74
0
 40
0
 40
0
 40
0
 40
0
 40
1
 40
1
 40
1
 40
1
 10
226.223404
 20
118.350206
 30
0.0
 10
226.697433
 20
118.397613
 30
0.0
 10
227.114582
 20
118.511381
 30
0.0
 10
227.474851
 20
118.691510
 30
0.0
  0
SPLINE
  5
2c2
100
AcDbEntity
  8
Calque_1
 62
1
100
AcDbSpline
 70
8
 71
3
 72
8
 73
4
 74
0
 40
0
 40
0
 40
0
 40
0
 40
1
 40
1
 40
1
 40
1
 10
227.474851
 20
118.691510
 30
0.0
 10
227.844589
 20
118.881123
 30
0.0
 10
228.171668
 20
119.160802
 30
0.0
 10
228.456089
 20
119.530547
 30
0.0
  0
SPLINE
  5
2c3
100
AcDbEntity
  8
Calque_1
 62
1
100
AcDbSpline
 70
8
 71
3
 72
8
 73
4
 74
0
 40
0
 40
0
 40
0
 40
0
 40
1
 40
1
 40
1
 40
1
 10
228.456089
 20
119.530547
 30
0.0
 10
228.740510
 20
119.909774
 30
0.0
 10
229.020192
 20
120.435951
 30
0.0
 10
229.295135
 20
121.109079
 30
0.0
  0
SPLINE
  5
2c4
100
AcDbEntity
  8
Calque_1
 62
1
100
AcDbSpline
 70
8
 71
3
 72
8
 73
4
 74
0
 40
0
 40
0
 40
0
 40
0
 40
1
 40
1
 40
1
 40
1
 10
229.295135
 20
121.109079
 30
0.0
 10
229.437345
 20
121.459863
 30
0.0
 10
229.536892
 20
121.820128
 30
0.0
 10
229.593777
 20
122.189873
 30
0.0
  0
SPLINE
  5
2c5
100
AcDbEntity
  8
Calque_1
 62
1
100
AcDbSpline
 70
8
 71
3
 72
8
 73
4
 74
0
 40
0
 40
0
 40
0
 40
0
 40
1
 40
1
 40
1
 40
1
 10
229.593777
 20
122.189873
 30
0.0
 10
229.660156
 20
122.559619
 30
0.0
 10
229.693346
 20
122.929365
 30
0.0
 10
229.693346
 20
123.299111
 30
0.0
  0
LWPOLYLINE
  5
2c6
100
AcDbEntity
  8
Calque_1
 62
1
100
AcDbPolyline
 90
2
 70
0
 10
224.559543
 20
120.127826
 30
0.0
 10
224.559543
 20
118.279097
 30
0.0
  0
LWPOLYLINE
  5
2c7
100
AcDbEntity
  8
Calque_1
 62
1
100
AcDbPolyline
 90
2
 70
0
 10
229.693346
 20
123.299111
 30
0.0
 10
229.693225
 20
123.299102
 30
0.0
  0
LWPOLYLINE
  5
2c8
100
AcDbEntity
  8
Calque_1
 62
1
100
AcDbPolyline
 90
4
 70
1
 10
223.478655
 20
118.279091
 30
0.0
 10
223.478655
 20
128.233786
 30
0.0
 10
221.260173
 20
128.233786
 30
0.0
 10
221.260173
 20
118.279091
 30
0.0
  0
SPLINE
  5
2c9
100
AcDbEntity
  8
Calque_1
 62
1
100
AcDbSpline
 70
8
 71
3
 72
8
 73
4
 74
0
 40
0
 40
0
 40
0
 40
0
 40
1
 40
1
 40
1
 40
1
 10
243.672442
 20
125.304261
 30
0.0
 10
243.644044
 20
125.436990
 30
0.0
 10
243.620350
 20
125.574460
 30
0.0
 10
243.601359
 20
125.716670
 30
0.0
  0
SPLINE
  5
2ca
100
AcDbEntity
  8
Calque_1
 62
1
100
AcDbSpline
 70
8
 71
3
 72
8
 73
4
 74
0
 40
0
 40
0
 40
0
 40
0
 40
1
 40
1
 40
1
 40
1
 10
243.601359
 20
125.716670
 30
0.0
 10
243.591863
 20
125.858880
 30
0.0
 10
243.568169
 20
125.996349
 30
0.0
 10
243.530276
 20
126.129078
 30
0.0
  0
SPLINE
  5
2cb
100
AcDbEntity
  8
Calque_1
 62
1
100
AcDbSpline
 70
8
 71
3
 72
8
 73
4
 74
0
 40
0
 40
0
 40
0
 40
0
 40
1
 40
1
 40
1
 40
1
 10
243.530276
 20
126.129078
 30
0.0
 10
243.331191
 20
126.878051
 30
0.0
 10
242.956705
 20
127.437410
 30
0.0
 10
242.406819
 20
127.807156
 30
0.0
  0
SPLINE
  5
2cc
100
AcDbEntity
  8
Calque_1
 62
1
100
AcDbSpline
 70
8
 71
3
 72
8
 73
4
 74
0
 40
0
 40
0
 40
0
 40
0
 40
1
 40
1
 40
1
 40
1
 10
242.406819
 20
127.807156
 30
0.0
 10
241.856942
 20
128.176901
 30
0.0
 10
241.207517
 20
128.385476
 30
0.0
 10
240.458546
 20
128.432879
 30
0.0
  0
LWPOLYLINE
  5
2cd
100
AcDbEntity
  8
Calque_1
 62
1
100
AcDbPolyline
 90
4
 70
1
 10
233.774654
 20
118.279091
 30
0.0
 10
233.774654
 20
128.233786
 30
0.0
 10
231.541956
 20
128.233786
 30
0.0
 10
231.541956
 20
118.279091
 30
0.0
  0
SPLINE
  5
2ce
100
AcDbEntity
  8
Calque_1
 62
1
100
AcDbSpline
 70
8
 71
3
 72
8
 73
4
 74
0
 40
0
 40
0
 40
0
 40
0
 40
1
 40
1
 40
1
 40
1
 10
240.259460
 20
126.626809
 30
0.0
 10
240.515430
 20
126.598367
 30
0.0
 10
240.714520
 20
126.550964
 30
0.0
 10
240.856730
 20
126.484599
 30
0.0
  0
SPLINE
  5
2cf
100
AcDbEntity
  8
Calque_1
 62
1
100
AcDbSpline
 70
8
 71
3
 72
8
 73
4
 74
0
 40
0
 40
0
 40
0
 40
0
 40
1
 40
1
 40
1
 40
1
 10
240.856730
 20
126.484599
 30
0.0
 10
240.998941
 20
126.427715
 30
0.0
 10
241.107970
 20
126.342390
 30
0.0
 10
241.183818
 20
126.228622
 30
0.0
  0
SPLINE
  5
2d0
100
AcDbEntity
  8
Calque_1
 62
1
100
AcDbSpline
 70
8
 71
3
 72
8
 73
4
 74
0
 40
0
 40
0
 40
0
 40
0
 40
1
 40
1
 40
1
 40
1
 10
241.183818
 20
126.228622
 30
0.0
 10
241.269100
 20
126.114854
 30
0.0
 10
241.325984
 20
125.967903
 30
0.0
 10
241.354471
 20
125.787770
 30
0.0
  0
SPLINE
  5
2d1
100
AcDbEntity
  8
Calque_1
 62
1
100
AcDbSpline
 70
8
 71
3
 72
8
 73
4
 74
0
 40
0
 40
0
 40
0
 40
0
 40
1
 40
1
 40
1
 40
1
 10
241.354471
 20
125.787770
 30
0.0
 10
241.392364
 20
125.607639
 30
0.0
 10
241.425554
 20
125.389583
 30
0.0
 10
241.454041
 20
125.133605
 30
0.0
  0
LWPOLYLINE
  5
2d2
100
AcDbEntity
  8
Calque_1
 62
1
100
AcDbPolyline
 90
3
 70
0
 10
240.458546
 20
128.432879
 30
0.0
 10
240.259460
 20
128.447096
 30
0.0
 10
240.259460
 20
126.626809
 30
0.0
  0
SPLINE
  5
2d3
100
AcDbEntity
  8
Calque_1
 62
1
100
AcDbSpline
 70
8
 71
3
 72
8
 73
4
 74
0
 40
0
 40
0
 40
0
 40
0
 40
1
 40
1
 40
1
 40
1
 10
243.828864
 20
121.052184
 30
0.0
 10
243.828864
 20
121.602063
 30
0.0
 10
243.743538
 20
122.061875
 30
0.0
 10
243.572885
 20
122.431621
 30
0.0
  0
SPLINE
  5
2d4
100
AcDbEntity
  8
Calque_1
 62
1
100
AcDbSpline
 70
8
 71
3
 72
8
 73
4
 74
0
 40
0
 40
0
 40
0
 40
0
 40
1
 40
1
 40
1
 40
1
 10
243.572885
 20
122.431621
 30
0.0
 10
243.411720
 20
122.801367
 30
0.0
 10
243.193665
 20
123.104748
 30
0.0
 10
242.918722
 20
123.341765
 30
0.0
  0
SPLINE
  5
2d5
100
AcDbEntity
  8
Calque_1
 62
1
100
AcDbSpline
 70
8
 71
3
 72
8
 73
4
 74
0
 40
0
 40
0
 40
0
 40
0
 40
1
 40
1
 40
1
 40
1
 10
242.918722
 20
123.341765
 30
0.0
 10
242.643788
 20
123.588261
 30
0.0
 10
242.330925
 20
123.777874
 30
0.0
 10
241.980134
 20
123.910604
 30
0.0
  0
SPLINE
  5
2d6
100
AcDbEntity
  8
Calque_1
 62
1
100
AcDbSpline
 70
8
 71
3
 72
8
 73
4
 74
0
 40
0
 40
0
 40
0
 40
0
 40
1
 40
1
 40
1
 40
1
 10
241.980134
 20
123.910604
 30
0.0
 10
241.629351
 20
124.052814
 30
0.0
 10
241.269086
 20
124.166582
 30
0.0
 10
240.899340
 20
124.251908
 30
0.0
  0
SPLINE
  5
2d7
100
AcDbEntity
  8
Calque_1
 62
1
100
AcDbSpline
 70
8
 71
3
 72
8
 73
4
 74
0
 40
0
 40
0
 40
0
 40
0
 40
1
 40
1
 40
1
 40
1
 10
240.899340
 20
124.251908
 30
0.0
 10
240.539079
 20
124.346715
 30
0.0
 10
240.183558
 20
124.422560
 30
0.0
 10
239.832775
 20
124.479444
 30
0.0
  0
SPLINE
  5
2d8
100
AcDbEntity
  8
Calque_1
 62
1
100
AcDbSpline
 70
8
 71
3
 72
8
 73
4
 74
0
 40
0
 40
0
 40
0
 40
0
 40
1
 40
1
 40
1
 40
1
 10
239.832775
 20
124.479444
 30
0.0
 10
239.481984
 20
124.545806
 30
0.0
 10
239.169121
 20
124.626391
 30
0.0
 10
238.894187
 20
124.721201
 30
0.0
  0
SPLINE
  5
2d9
100
AcDbEntity
  8
Calque_1
 62
1
100
AcDbSpline
 70
8
 71
3
 72
8
 73
4
 74
0
 40
0
 40
0
 40
0
 40
0
 40
1
 40
1
 40
1
 40
1
 10
238.894187
 20
124.721201
 30
0.0
 10
238.619244
 20
124.816007
 30
0.0
 10
238.396446
 20
124.934515
 30
0.0
 10
238.225794
 20
125.076725
 30
0.0
  0
SPLINE
  5
2da
100
AcDbEntity
  8
Calque_1
 62
1
100
AcDbSpline
 70
8
 71
3
 72
8
 73
4
 74
0
 40
0
 40
0
 40
0
 40
0
 40
1
 40
1
 40
1
 40
1
 10
238.225794
 20
125.076725
 30
0.0
 10
238.055141
 20
125.228416
 30
0.0
 10
237.969815
 20
125.432250
 30
0.0
 10
237.969815
 20
125.688228
 30
0.0
  0
SPLINE
  5
2db
100
AcDbEntity
  8
Calque_1
 62
1
100
AcDbSpline
 70
8
 71
3
 72
8
 73
4
 74
0
 40
0
 40
0
 40
0
 40
0
 40
1
 40
1
 40
1
 40
1
 10
237.969815
 20
125.688228
 30
0.0
 10
237.969815
 20
125.887321
 30
0.0
 10
238.003005
 20
126.048492
 30
0.0
 10
238.069385
 20
126.171741
 30
0.0
  0
SPLINE
  5
2dc
100
AcDbEntity
  8
Calque_1
 62
1
100
AcDbSpline
 70
8
 71
3
 72
8
 73
4
 74
0
 40
0
 40
0
 40
0
 40
0
 40
1
 40
1
 40
1
 40
1
 10
238.069385
 20
126.171741
 30
0.0
 10
238.135764
 20
126.304471
 30
0.0
 10
238.225829
 20
126.404018
 30
0.0
 10
238.339580
 20
126.470383
 30
0.0
  0
SPLINE
  5
2dd
100
AcDbEntity
  8
Calque_1
 62
1
100
AcDbSpline
 70
8
 71
3
 72
8
 73
4
 74
0
 40
0
 40
0
 40
0
 40
0
 40
1
 40
1
 40
1
 40
1
 10
238.339580
 20
126.470383
 30
0.0
 10
238.453348
 20
126.546231
 30
0.0
 10
238.581337
 20
126.593635
 30
0.0
 10
238.723548
 20
126.612593
 30
0.0
  0
SPLINE
  5
2de
100
AcDbEntity
  8
Calque_1
 62
1
100
AcDbSpline
 70
8
 71
3
 72
8
 73
4
 74
0
 40
0
 40
0
 40
0
 40
0
 40
1
 40
1
 40
1
 40
1
 10
238.723548
 20
126.612593
 30
0.0
 10
238.865758
 20
126.641035
 30
0.0
 10
239.017446
 20
126.655256
 30
0.0
 10
239.178612
 20
126.655256
 30
0.0
  0
LWPOLYLINE
  5
2df
100
AcDbEntity
  8
Calque_1
 62
1
100
AcDbPolyline
 90
2
 70
0
 10
241.454041
 20
125.133605
 30
0.0
 10
243.672442
 20
125.304261
 30
0.0
  0
SPLINE
  5
2e0
100
AcDbEntity
  8
Calque_1
 62
1
100
AcDbSpline
 70
8
 71
3
 72
8
 73
4
 74
0
 40
0
 40
0
 40
0
 40
0
 40
1
 40
1
 40
1
 40
1
 10
239.093286
 20
128.447101
 30
0.0
 10
238.609780
 20
128.447101
 30
0.0
 10
238.159450
 20
128.390217
 30
0.0
 10
237.742296
 20
128.276450
 30
0.0
  0
SPLINE
  5
2e1
100
AcDbEntity
  8
Calque_1
 62
1
100
AcDbSpline
 70
8
 71
3
 72
8
 73
4
 74
0
 40
0
 40
0
 40
0
 40
0
 40
1
 40
1
 40
1
 40
1
 10
237.742296
 20
128.276450
 30
0.0
 10
237.325152
 20
128.172162
 30
0.0
 10
236.964887
 20
128.001510
 30
0.0
 10
236.661502
 20
127.764494
 30
0.0
  0
SPLINE
  5
2e2
100
AcDbEntity
  8
Calque_1
 62
1
100
AcDbSpline
 70
8
 71
3
 72
8
 73
4
 74
0
 40
0
 40
0
 40
0
 40
0
 40
1
 40
1
 40
1
 40
1
 10
236.661502
 20
127.764494
 30
0.0
 10
236.358126
 20
127.527477
 30
0.0
 10
236.121112
 20
127.214615
 30
0.0
 10
235.950459
 20
126.825908
 30
0.0
  0
SPLINE
  5
2e3
100
AcDbEntity
  8
Calque_1
 62
1
100
AcDbSpline
 70
8
 71
3
 72
8
 73
4
 74
0
 40
0
 40
0
 40
0
 40
0
 40
1
 40
1
 40
1
 40
1
 10
235.950459
 20
126.825908
 30
0.0
 10
235.779807
 20
126.446682
 30
0.0
 10
235.694480
 20
125.982130
 30
0.0
 10
235.694480
 20
125.432252
 30
0.0
  0
SPLINE
  5
2e4
100
AcDbEntity
  8
Calque_1
 62
1
100
AcDbSpline
 70
8
 71
3
 72
8
 73
4
 74
0
 40
0
 40
0
 40
0
 40
0
 40
1
 40
1
 40
1
 40
1
 10
235.694480
 20
125.432252
 30
0.0
 10
235.694480
 20
124.939257
 30
0.0
 10
235.775063
 20
124.526848
 30
0.0
 10
235.936229
 20
124.195026
 30
0.0
  0
SPLINE
  5
2e5
100
AcDbEntity
  8
Calque_1
 62
1
100
AcDbSpline
 70
8
 71
3
 72
8
 73
4
 74
0
 40
0
 40
0
 40
0
 40
0
 40
1
 40
1
 40
1
 40
1
 10
235.936229
 20
124.195026
 30
0.0
 10
236.106882
 20
123.872682
 30
0.0
 10
236.329679
 20
123.602484
 30
0.0
 10
236.604622
 20
123.384429
 30
0.0
  0
SPLINE
  5
2e6
100
AcDbEntity
  8
Calque_1
 62
1
100
AcDbSpline
 70
8
 71
3
 72
8
 73
4
 74
0
 40
0
 40
0
 40
0
 40
0
 40
1
 40
1
 40
1
 40
1
 10
236.604622
 20
123.384429
 30
0.0
 10
236.879556
 20
123.175854
 30
0.0
 10
237.192419
 20
123.005202
 30
0.0
 10
237.543211
 20
122.872473
 30
0.0
  0
SPLINE
  5
2e7
100
AcDbEntity
  8
Calque_1
 62
1
100
AcDbSpline
 70
8
 71
3
 72
8
 73
4
 74
0
 40
0
 40
0
 40
0
 40
0
 40
1
 40
1
 40
1
 40
1
 10
237.543211
 20
122.872473
 30
0.0
 10
237.893993
 20
122.749225
 30
0.0
 10
238.249515
 20
122.640197
 30
0.0
 10
238.609775
 20
122.545390
 30
0.0
  0
SPLINE
  5
2e8
100
AcDbEntity
  8
Calque_1
 62
1
100
AcDbSpline
 70
8
 71
3
 72
8
 73
4
 74
0
 40
0
 40
0
 40
0
 40
0
 40
1
 40
1
 40
1
 40
1
 10
238.609775
 20
122.545390
 30
0.0
 10
238.979522
 20
122.460064
 30
0.0
 10
239.339787
 20
122.379478
 30
0.0
 10
239.690569
 20
122.303634
 30
0.0
  0
SPLINE
  5
2e9
100
AcDbEntity
  8
Calque_1
 62
1
100
AcDbSpline
 70
8
 71
3
 72
8
 73
4
 74
0
 40
0
 40
0
 40
0
 40
0
 40
1
 40
1
 40
1
 40
1
 10
239.690569
 20
122.303634
 30
0.0
 10
240.041361
 20
122.227785
 30
0.0
 10
240.354224
 20
122.137719
 30
0.0
 10
240.629158
 20
122.033434
 30
0.0
  0
SPLINE
  5
2ea
100
AcDbEntity
  8
Calque_1
 62
1
100
AcDbSpline
 70
8
 71
3
 72
8
 73
4
 74
0
 40
0
 40
0
 40
0
 40
0
 40
1
 40
1
 40
1
 40
1
 10
240.629158
 20
122.033434
 30
0.0
 10
240.904101
 20
121.929147
 30
0.0
 10
241.122155
 20
121.791678
 30
0.0
 10
241.283321
 20
121.621025
 30
0.0
  0
SPLINE
  5
2eb
100
AcDbEntity
  8
Calque_1
 62
1
100
AcDbSpline
 70
8
 71
3
 72
8
 73
4
 74
0
 40
0
 40
0
 40
0
 40
0
 40
1
 40
1
 40
1
 40
1
 10
241.283321
 20
121.621025
 30
0.0
 10
241.453973
 20
121.459854
 30
0.0
 10
241.539300
 20
121.241799
 30
0.0
 10
241.539300
 20
120.966861
 30
0.0
  0
SPLINE
  5
2ec
100
AcDbEntity
  8
Calque_1
 62
1
100
AcDbSpline
 70
8
 71
3
 72
8
 73
4
 74
0
 40
0
 40
0
 40
0
 40
0
 40
1
 40
1
 40
1
 40
1
 10
241.539300
 20
120.966861
 30
0.0
 10
241.539300
 20
120.767766
 30
0.0
 10
241.501362
 20
120.601854
 30
0.0
 10
241.425487
 20
120.469125
 30
0.0
  0
SPLINE
  5
2ed
100
AcDbEntity
  8
Calque_1
 62
1
100
AcDbSpline
 70
8
 71
3
 72
8
 73
4
 74
0
 40
0
 40
0
 40
0
 40
0
 40
1
 40
1
 40
1
 40
1
 10
241.425487
 20
120.469125
 30
0.0
 10
241.359107
 20
120.336396
 30
0.0
 10
241.264298
 20
120.227368
 30
0.0
 10
241.141061
 20
120.142042
 30
0.0
  0
SPLINE
  5
2ee
100
AcDbEntity
  8
Calque_1
 62
1
100
AcDbSpline
 70
8
 71
3
 72
8
 73
4
 74
0
 40
0
 40
0
 40
0
 40
0
 40
1
 40
1
 40
1
 40
1
 10
241.141061
 20
120.142042
 30
0.0
 10
241.017815
 20
120.066194
 30
0.0
 10
240.880344
 20
120.009310
 30
0.0
 10
240.728647
 20
119.971391
 30
0.0
  0
SPLINE
  5
2ef
100
AcDbEntity
  8
Calque_1
 62
1
100
AcDbSpline
 70
8
 71
3
 72
8
 73
4
 74
0
 40
0
 40
0
 40
0
 40
0
 40
1
 40
1
 40
1
 40
1
 10
240.728647
 20
119.971391
 30
0.0
 10
240.576959
 20
119.933471
 30
0.0
 10
240.420532
 20
119.909768
 30
0.0
 10
240.259366
 20
119.900281
 30
0.0
  0
LWPOLYLINE
  5
2f0
100
AcDbEntity
  8
Calque_1
 62
1
100
AcDbPolyline
 90
3
 70
0
 10
239.178612
 20
126.655256
 30
0.0
 10
239.178612
 20
128.447101
 30
0.0
 10
239.093286
 20
128.447101
 30
0.0
  0
SPLINE
  5
2f1
100
AcDbEntity
  8
Calque_1
 62
1
100
AcDbSpline
 70
8
 71
3
 72
8
 73
4
 74
0
 40
0
 40
0
 40
0
 40
0
 40
1
 40
1
 40
1
 40
1
 10
240.259366
 20
118.037332
 30
0.0
 10
240.392090
 20
118.046810
 30
0.0
 10
240.505854
 20
118.056292
 30
0.0
 10
240.600657
 20
118.065778
 30
0.0
  0
SPLINE
  5
2f2
100
AcDbEntity
  8
Calque_1
 62
1
100
AcDbSpline
 70
8
 71
3
 72
8
 73
4
 74
0
 40
0
 40
0
 40
0
 40
0
 40
1
 40
1
 40
1
 40
1
 10
240.600657
 20
118.065778
 30
0.0
 10
240.704948
 20
118.075256
 30
0.0
 10
240.799756
 20
118.089477
 30
0.0
 10
240.885083
 20
118.108442
 30
0.0
  0
SPLINE
  5
2f3
100
AcDbEntity
  8
Calque_1
 62
1
100
AcDbSpline
 70
8
 71
3
 72
8
 73
4
 74
0
 40
0
 40
0
 40
0
 40
0
 40
1
 40
1
 40
1
 40
1
 10
240.885083
 20
118.108442
 30
0.0
 10
240.979887
 20
118.117919
 30
0.0
 10
241.074695
 20
118.136879
 30
0.0
 10
241.169508
 20
118.165321
 30
0.0
  0
SPLINE
  5
2f4
100
AcDbEntity
  8
Calque_1
 62
1
100
AcDbSpline
 70
8
 71
3
 72
8
 73
4
 74
0
 40
0
 40
0
 40
0
 40
0
 40
1
 40
1
 40
1
 40
1
 10
241.169508
 20
118.165321
 30
0.0
 10
241.264312
 20
118.184286
 30
0.0
 10
241.378080
 20
118.212728
 30
0.0
 10
241.510813
 20
118.250647
 30
0.0
  0
SPLINE
  5
2f5
100
AcDbEntity
  8
Calque_1
 62
1
100
AcDbSpline
 70
8
 71
3
 72
8
 73
4
 74
0
 40
0
 40
0
 40
0
 40
0
 40
1
 40
1
 40
1
 40
1
 10
241.510813
 20
118.250647
 30
0.0
 10
241.823667
 20
118.335974
 30
0.0
 10
242.122304
 20
118.463963
 30
0.0
 10
242.406725
 20
118.634614
 30
0.0
  0
SPLINE
  5
2f6
100
AcDbEntity
  8
Calque_1
 62
1
100
AcDbSpline
 70
8
 71
3
 72
8
 73
4
 74
0
 40
0
 40
0
 40
0
 40
0
 40
1
 40
1
 40
1
 40
1
 10
242.406725
 20
118.634614
 30
0.0
 10
242.691145
 20
118.814747
 30
0.0
 10
242.937646
 20
119.023322
 30
0.0
 10
243.146227
 20
119.260339
 30
0.0
  0
SPLINE
  5
2f7
100
AcDbEntity
  8
Calque_1
 62
1
100
AcDbSpline
 70
8
 71
3
 72
8
 73
4
 74
0
 40
0
 40
0
 40
0
 40
0
 40
1
 40
1
 40
1
 40
1
 10
243.146227
 20
119.260339
 30
0.0
 10
243.354800
 20
119.506835
 30
0.0
 10
243.520709
 20
119.781774
 30
0.0
 10
243.643955
 20
120.085156
 30
0.0
  0
SPLINE
  5
2f8
100
AcDbEntity
  8
Calque_1
 62
1
100
AcDbSpline
 70
8
 71
3
 72
8
 73
4
 74
0
 40
0
 40
0
 40
0
 40
0
 40
1
 40
1
 40
1
 40
1
 10
243.643955
 20
120.085156
 30
0.0
 10
243.767201
 20
120.388537
 30
0.0
 10
243.828824
 20
120.710880
 30
0.0
 10
243.828824
 20
121.052183
 30
0.0
  0
LWPOLYLINE
  5
2f9
100
AcDbEntity
  8
Calque_1
 62
1
100
AcDbPolyline
 90
2
 70
0
 10
240.259366
 20
119.900281
 30
0.0
 10
240.259366
 20
118.037332
 30
0.0
  0
LWPOLYLINE
  5
2fa
100
AcDbEntity
  8
Calque_1
 62
1
100
AcDbPolyline
 90
1
 70
1
 10
243.828824
 20
121.052183
 30
0.0
  0
SPLINE
  5
2fb
100
AcDbEntity
  8
Calque_1
 62
1
100
AcDbSpline
 70
8
 71
3
 72
8
 73
4
 74
0
 40
0
 40
0
 40
0
 40
0
 40
1
 40
1
 40
1
 40
1
 10
239.164355
 20
119.886064
 30
0.0
 10
238.851492
 20
119.914506
 30
0.0
 10
238.604996
 20
119.957169
 30
0.0
 10
238.424866
 20
120.014053
 30
0.0
  0
SPLINE
  5
2fc
100
AcDbEntity
  8
Calque_1
 62
1
100
AcDbSpline
 70
8
 71
3
 72
8
 73
4
 74
0
 40
0
 40
0
 40
0
 40
0
 40
1
 40
1
 40
1
 40
1
 10
238.424866
 20
120.014053
 30
0.0
 10
238.254213
 20
120.070937
 30
0.0
 10
238.121485
 20
120.161003
 30
0.0
 10
238.026681
 20
120.284251
 30
0.0
  0
SPLINE
  5
2fd
100
AcDbEntity
  8
Calque_1
 62
1
100
AcDbSpline
 70
8
 71
3
 72
8
 73
4
 74
0
 40
0
 40
0
 40
0
 40
0
 40
1
 40
1
 40
1
 40
1
 10
238.026681
 20
120.284251
 30
0.0
 10
237.931868
 20
120.407499
 30
0.0
 10
237.856020
 20
120.568671
 30
0.0
 10
237.799136
 20
120.767764
 30
0.0
  0
SPLINE
  5
2fe
100
AcDbEntity
  8
Calque_1
 62
1
100
AcDbSpline
 70
8
 71
3
 72
8
 73
4
 74
0
 40
0
 40
0
 40
0
 40
0
 40
1
 40
1
 40
1
 40
1
 10
237.799136
 20
120.767764
 30
0.0
 10
237.742251
 20
120.966859
 30
0.0
 10
237.675890
 20
121.222837
 30
0.0
 10
237.600050
 20
121.535699
 30
0.0
  0
LWPOLYLINE
  5
2ff
100
AcDbEntity
  8
Calque_1
 62
1
100
AcDbPolyline
 90
2
 70
0
 10
239.178599
 20
118.008892
 30
0.0
 10
239.164355
 20
119.886064
 30
0.0
  0
SPLINE
  5
300
100
AcDbEntity
  8
Calque_1
 62
1
100
AcDbSpline
 70
8
 71
3
 72
8
 73
4
 74
0
 40
0
 40
0
 40
0
 40
0
 40
1
 40
1
 40
1
 40
1
 10
235.367352
 20
121.421926
 30
0.0
 10
235.395749
 20
120.388535
 30
0.0
 10
235.646989
 20
119.596899
 30
0.0
 10
236.121071
 20
119.047021
 30
0.0
  0
SPLINE
  5
301
100
AcDbEntity
  8
Calque_1
 62
1
100
AcDbSpline
 70
8
 71
3
 72
8
 73
4
 74
0
 40
0
 40
0
 40
0
 40
0
 40
1
 40
1
 40
1
 40
1
 10
236.121071
 20
119.047021
 30
0.0
 10
236.595100
 20
118.497143
 30
0.0
 10
237.325107
 20
118.170060
 30
0.0
 10
238.311093
 20
118.065773
 30
0.0
  0
SPLINE
  5
302
100
AcDbEntity
  8
Calque_1
 62
1
100
AcDbSpline
 70
8
 71
3
 72
8
 73
4
 74
0
 40
0
 40
0
 40
0
 40
0
 40
1
 40
1
 40
1
 40
1
 10
238.311093
 20
118.065773
 30
0.0
 10
238.462790
 20
118.046809
 30
0.0
 10
238.609744
 20
118.037327
 30
0.0
 10
238.751954
 20
118.037327
 30
0.0
  0
SPLINE
  5
303
100
AcDbEntity
  8
Calque_1
 62
1
100
AcDbSpline
 70
8
 71
3
 72
8
 73
4
 74
0
 40
0
 40
0
 40
0
 40
0
 40
1
 40
1
 40
1
 40
1
 10
238.751954
 20
118.037327
 30
0.0
 10
238.894164
 20
118.027849
 30
0.0
 10
239.036370
 20
118.018367
 30
0.0
 10
239.178572
 20
118.008880
 30
0.0
  0
LWPOLYLINE
  5
304
100
AcDbEntity
  8
Calque_1
 62
1
100
AcDbPolyline
 90
2
 70
0
 10
237.600050
 20
121.535699
 30
0.0
 10
235.367352
 20
121.421926
 30
0.0
  0
LWPOLYLINE
  5
305
100
AcDbEntity
  8
Calque_1
 62
1
100
AcDbPolyline
 90
1
 70
1
 10
239.178572
 20
118.008880
 30
0.0
  0
LWPOLYLINE
  5
306
100
AcDbEntity
  8
Calque_1
 62
1
100
AcDbPolyline
 90
4
 70
1
 10
252.688534
 20
126.385057
 30
0.0
 10
252.688534
 20
128.248006
 30
0.0
 10
250.512729
 20
128.248006
 30
0.0
 10
250.512729
 20
126.385057
 30
0.0
  0
LWPOLYLINE
  5
307
100
AcDbEntity
  8
Calque_1
 62
1
100
AcDbPolyline
 90
4
 70
1
 10
246.530857
 20
126.370840
 30
0.0
 10
246.530857
 20
128.248010
 30
0.0
 10
244.497244
 20
128.248010
 30
0.0
 10
244.497244
 20
126.370840
 30
0.0
  0
LWPOLYLINE
  5
308
100
AcDbEntity
  8
Calque_1
 62
1
100
AcDbPolyline
 90
4
 70
1
 10
249.716346
 20
118.279095
 30
0.0
 10
249.716346
 20
128.248010
 30
0.0
 10
247.455215
 20
128.248010
 30
0.0
 10
247.455215
 20
118.279095
 30
0.0
  0
SPLINE
  5
309
100
AcDbEntity
  8
Calque_1
 62
1
100
AcDbSpline
 70
8
 71
3
 72
8
 73
4
 74
0
 40
0
 40
0
 40
0
 40
0
 40
1
 40
1
 40
1
 40
1
 10
259.400832
 20
122.189867
 30
0.0
 10
259.400832
 20
121.905448
 30
0.0
 10
259.405580
 20
121.630509
 30
0.0
 10
259.415076
 20
121.365050
 30
0.0
  0
SPLINE
  5
30a
100
AcDbEntity
  8
Calque_1
 62
1
100
AcDbSpline
 70
8
 71
3
 72
8
 73
4
 74
0
 40
0
 40
0
 40
0
 40
0
 40
1
 40
1
 40
1
 40
1
 10
259.415076
 20
121.365050
 30
0.0
 10
259.424571
 20
121.109073
 30
0.0
 10
259.396129
 20
120.876796
 30
0.0
 10
259.329749
 20
120.668221
 30
0.0
  0
SPLINE
  5
30b
100
AcDbEntity
  8
Calque_1
 62
1
100
AcDbSpline
 70
8
 71
3
 72
8
 73
4
 74
0
 40
0
 40
0
 40
0
 40
0
 40
1
 40
1
 40
1
 40
1
 10
259.329749
 20
120.668221
 30
0.0
 10
259.272865
 20
120.469128
 30
0.0
 10
259.159097
 20
120.307957
 30
0.0
 10
258.988444
 20
120.184708
 30
0.0
  0
SPLINE
  5
30c
100
AcDbEntity
  8
Calque_1
 62
1
100
AcDbSpline
 70
8
 71
3
 72
8
 73
4
 74
0
 40
0
 40
0
 40
0
 40
0
 40
1
 40
1
 40
1
 40
1
 10
258.988444
 20
120.184708
 30
0.0
 10
258.817792
 20
120.061459
 30
0.0
 10
258.557074
 20
119.995095
 30
0.0
 10
258.206292
 20
119.985614
 30
0.0
  0
LWPOLYLINE
  5
30d
100
AcDbEntity
  8
Calque_1
 62
1
100
AcDbPolyline
 90
4
 70
0
 10
261.661977
 20
122.061879
 30
0.0
 10
261.661977
 20
128.205347
 30
0.0
 10
259.400832
 20
128.205347
 30
0.0
 10
259.400832
 20
122.189867
 30
0.0
  0
SPLINE
  5
30e
100
AcDbEntity
  8
Calque_1
 62
1
100
AcDbSpline
 70
8
 71
3
 72
8
 73
4
 74
0
 40
0
 40
0
 40
0
 40
0
 40
1
 40
1
 40
1
 40
1
 10
258.206292
 20
118.065785
 30
0.0
 10
258.917335
 20
118.094227
 30
0.0
 10
259.495654
 20
118.184293
 30
0.0
 10
259.941249
 20
118.335983
 30
0.0
  0
SPLINE
  5
30f
100
AcDbEntity
  8
Calque_1
 62
1
100
AcDbSpline
 70
8
 71
3
 72
8
 73
4
 74
0
 40
0
 40
0
 40
0
 40
0
 40
1
 40
1
 40
1
 40
1
 10
259.941249
 20
118.335983
 30
0.0
 10
260.386836
 20
118.497154
 30
0.0
 10
260.737618
 20
118.734171
 30
0.0
 10
260.993597
 20
119.047033
 30
0.0
  0
SPLINE
  5
310
100
AcDbEntity
  8
Calque_1
 62
1
100
AcDbSpline
 70
8
 71
3
 72
8
 73
4
 74
0
 40
0
 40
0
 40
0
 40
0
 40
1
 40
1
 40
1
 40
1
 10
260.993597
 20
119.047033
 30
0.0
 10
261.249576
 20
119.369375
 30
0.0
 10
261.424972
 20
119.777044
 30
0.0
 10
261.519784
 20
120.270038
 30
0.0
  0
SPLINE
  5
311
100
AcDbEntity
  8
Calque_1
 62
1
100
AcDbSpline
 70
8
 71
3
 72
8
 73
4
 74
0
 40
0
 40
0
 40
0
 40
0
 40
1
 40
1
 40
1
 40
1
 10
261.519784
 20
120.270038
 30
0.0
 10
261.614588
 20
120.763033
 30
0.0
 10
261.661990
 20
121.360315
 30
0.0
 10
261.661990
 20
122.061884
 30
0.0
  0
LWPOLYLINE
  5
312
100
AcDbEntity
  8
Calque_1
 62
1
100
AcDbPolyline
 90
3
 70
0
 10
258.206292
 20
119.985614
 30
0.0
 10
258.206292
 20
119.971398
 30
0.0
 10
258.206292
 20
118.065785
 30
0.0
  0
LWPOLYLINE
  5
313
100
AcDbEntity
  8
Calque_1
 62
1
100
AcDbPolyline
 90
1
 70
1
 10
261.661990
 20
122.061884
 30
0.0
  0
SPLINE
  5
314
100
AcDbEntity
  8
Calque_1
 62
1
100
AcDbSpline
 70
8
 71
3
 72
8
 73
4
 74
0
 40
0
 40
0
 40
0
 40
0
 40
1
 40
1
 40
1
 40
1
 10
257.139674
 20
119.942951
 30
0.0
 10
256.826811
 20
119.980871
 30
0.0
 10
256.585053
 20
120.051976
 30
0.0
 10
256.414401
 20
120.156267
 30
0.0
  0
SPLINE
  5
315
100
AcDbEntity
  8
Calque_1
 62
1
100
AcDbSpline
 70
8
 71
3
 72
8
 73
4
 74
0
 40
0
 40
0
 40
0
 40
0
 40
1
 40
1
 40
1
 40
1
 10
256.414401
 20
120.156267
 30
0.0
 10
256.253235
 20
120.260554
 30
0.0
 10
256.134728
 20
120.393283
 30
0.0
 10
256.058880
 20
120.554454
 30
0.0
  0
SPLINE
  5
316
100
AcDbEntity
  8
Calque_1
 62
1
100
AcDbSpline
 70
8
 71
3
 72
8
 73
4
 74
0
 40
0
 40
0
 40
0
 40
0
 40
1
 40
1
 40
1
 40
1
 10
256.058880
 20
120.554454
 30
0.0
 10
255.983004
 20
120.715625
 30
0.0
 10
255.940363
 20
120.909979
 30
0.0
 10
255.930957
 20
121.137514
 30
0.0
  0
SPLINE
  5
317
100
AcDbEntity
  8
Calque_1
 62
1
100
AcDbSpline
 70
8
 71
3
 72
8
 73
4
 74
0
 40
0
 40
0
 40
0
 40
0
 40
1
 40
1
 40
1
 40
1
 10
255.930957
 20
121.137514
 30
0.0
 10
255.921462
 20
121.365050
 30
0.0
 10
255.916714
 20
121.625768
 30
0.0
 10
255.916714
 20
121.919670
 30
0.0
  0
LWPOLYLINE
  5
318
100
AcDbEntity
  8
Calque_1
 62
1
100
AcDbPolyline
 90
2
 70
0
 10
257.153917
 20
118.037339
 30
0.0
 10
257.139674
 20
119.942951
 30
0.0
  0
SPLINE
  5
319
100
AcDbEntity
  8
Calque_1
 62
1
100
AcDbSpline
 70
8
 71
3
 72
8
 73
4
 74
0
 40
0
 40
0
 40
0
 40
0
 40
1
 40
1
 40
1
 40
1
 10
253.669786
 20
121.905448
 30
0.0
 10
253.669786
 20
121.232321
 30
0.0
 10
253.726670
 20
120.654001
 30
0.0
 10
253.840438
 20
120.170487
 30
0.0
  0
SPLINE
  5
31a
100
AcDbEntity
  8
Calque_1
 62
1
100
AcDbSpline
 70
8
 71
3
 72
8
 73
4
 74
0
 40
0
 40
0
 40
0
 40
0
 40
1
 40
1
 40
1
 40
1
 10
253.840438
 20
120.170487
 30
0.0
 10
253.954206
 20
119.686974
 30
0.0
 10
254.143823
 20
119.288786
 30
0.0
 10
254.409289
 20
118.975924
 30
0.0
  0
SPLINE
  5
31b
100
AcDbEntity
  8
Calque_1
 62
1
100
AcDbSpline
 70
8
 71
3
 72
8
 73
4
 74
0
 40
0
 40
0
 40
0
 40
0
 40
1
 40
1
 40
1
 40
1
 10
254.409289
 20
118.975924
 30
0.0
 10
254.674745
 20
118.663062
 30
0.0
 10
255.030266
 20
118.430786
 30
0.0
 10
255.475853
 20
118.279095
 30
0.0
  0
SPLINE
  5
31c
100
AcDbEntity
  8
Calque_1
 62
1
100
AcDbSpline
 70
8
 71
3
 72
8
 73
4
 74
0
 40
0
 40
0
 40
0
 40
0
 40
1
 40
1
 40
1
 40
1
 10
255.475853
 20
118.279095
 30
0.0
 10
255.921448
 20
118.127405
 30
0.0
 10
256.480808
 20
118.046819
 30
0.0
 10
257.153931
 20
118.037339
 30
0.0
  0
LWPOLYLINE
  5
31d
100
AcDbEntity
  8
Calque_1
 62
1
100
AcDbPolyline
 90
4
 70
0
 10
255.916714
 20
121.919670
 30
0.0
 10
255.916714
 20
128.205347
 30
0.0
 10
253.669786
 20
128.205347
 30
0.0
 10
253.669786
 20
121.905448
 30
0.0
  0
SPLINE
  5
31e
100
AcDbEntity
  8
Calque_1
 62
1
100
AcDbSpline
 70
8
 71
3
 72
8
 73
4
 74
0
 40
0
 40
0
 40
0
 40
0
 40
1
 40
1
 40
1
 40
1
 10
271.446005
 20
118.279095
 30
0.0
 10
271.284831
 20
118.544554
 30
0.0
 10
271.147359
 20
118.805271
 30
0.0
 10
271.033591
 20
119.061249
 30
0.0
  0
SPLINE
  5
31f
100
AcDbEntity
  8
Calque_1
 62
1
100
AcDbSpline
 70
8
 71
3
 72
8
 73
4
 74
0
 40
0
 40
0
 40
0
 40
0
 40
1
 40
1
 40
1
 40
1
 10
271.033591
 20
119.061249
 30
0.0
 10
270.929309
 20
119.326708
 30
0.0
 10
270.848726
 20
119.615869
 30
0.0
 10
270.791842
 20
119.928731
 30
0.0
  0
SPLINE
  5
320
100
AcDbEntity
  8
Calque_1
 62
1
100
AcDbSpline
 70
8
 71
3
 72
8
 73
4
 74
0
 40
0
 40
0
 40
0
 40
0
 40
1
 40
1
 40
1
 40
1
 10
270.791842
 20
119.928731
 30
0.0
 10
270.744454
 20
120.175228
 30
0.0
 10
270.701813
 20
120.450167
 30
0.0
 10
270.663920
 20
120.753548
 30
0.0
  0
SPLINE
  5
321
100
AcDbEntity
  8
Calque_1
 62
1
100
AcDbSpline
 70
8
 71
3
 72
8
 73
4
 74
0
 40
0
 40
0
 40
0
 40
0
 40
1
 40
1
 40
1
 40
1
 10
270.663920
 20
120.753548
 30
0.0
 10
270.626027
 20
121.056929
 30
0.0
 10
270.564400
 20
121.355570
 30
0.0
 10
270.479038
 20
121.649470
 30
0.0
  0
SPLINE
  5
322
100
AcDbEntity
  8
Calque_1
 62
1
100
AcDbSpline
 70
8
 71
3
 72
8
 73
4
 74
0
 40
0
 40
0
 40
0
 40
0
 40
1
 40
1
 40
1
 40
1
 10
270.479038
 20
121.649470
 30
0.0
 10
270.403162
 20
121.943371
 30
0.0
 10
270.289394
 20
122.208829
 30
0.0
 10
270.137733
 20
122.445846
 30
0.0
  0
SPLINE
  5
323
100
AcDbEntity
  8
Calque_1
 62
1
100
AcDbSpline
 70
8
 71
3
 72
8
 73
4
 74
0
 40
0
 40
0
 40
0
 40
0
 40
1
 40
1
 40
1
 40
1
 10
270.137733
 20
122.445846
 30
0.0
 10
269.986045
 20
122.682862
 30
0.0
 10
269.772734
 20
122.858254
 30
0.0
 10
269.497799
 20
122.972023
 30
0.0
  0
SPLINE
  5
324
100
AcDbEntity
  8
Calque_1
 62
1
100
AcDbSpline
 70
8
 71
3
 72
8
 73
4
 74
0
 40
0
 40
0
 40
0
 40
0
 40
1
 40
1
 40
1
 40
1
 10
269.497799
 20
122.972023
 30
0.0
 10
269.450411
 20
122.990987
 30
0.0
 10
269.403005
 20
123.009947
 30
0.0
 10
269.355580
 20
123.028902
 30
0.0
  0
SPLINE
  5
325
100
AcDbEntity
  8
Calque_1
 62
1
100
AcDbSpline
 70
8
 71
3
 72
8
 73
4
 74
0
 40
0
 40
0
 40
0
 40
0
 40
1
 40
1
 40
1
 40
1
 10
269.355580
 20
123.028902
 30
0.0
 10
269.308192
 20
123.047867
 30
0.0
 10
269.260790
 20
123.066827
 30
0.0
 10
269.213374
 20
123.085782
 30
0.0
  0
SPLINE
  5
326
100
AcDbEntity
  8
Calque_1
 62
1
100
AcDbSpline
 70
8
 71
3
 72
8
 73
4
 74
0
 40
0
 40
0
 40
0
 40
0
 40
1
 40
1
 40
1
 40
1
 10
269.213374
 20
123.085782
 30
0.0
 10
269.488317
 20
123.085782
 30
0.0
 10
269.734814
 20
123.156887
 30
0.0
 10
269.952864
 20
123.299098
 30
0.0
  0
SPLINE
  5
327
100
AcDbEntity
  8
Calque_1
 62
1
100
AcDbSpline
 70
8
 71
3
 72
8
 73
4
 74
0
 40
0
 40
0
 40
0
 40
0
 40
1
 40
1
 40
1
 40
1
 10
269.952864
 20
123.299098
 30
0.0
 10
270.170923
 20
123.450788
 30
0.0
 10
270.355796
 20
123.640402
 30
0.0
 10
270.507484
 20
123.867937
 30
0.0
  0
SPLINE
  5
328
100
AcDbEntity
  8
Calque_1
 62
1
100
AcDbSpline
 70
8
 71
3
 72
8
 73
4
 74
0
 40
0
 40
0
 40
0
 40
0
 40
1
 40
1
 40
1
 40
1
 10
270.507484
 20
123.867937
 30
0.0
 10
270.668659
 20
124.095473
 30
0.0
 10
270.787166
 20
124.341970
 30
0.0
 10
270.863006
 20
124.607428
 30
0.0
  0
SPLINE
  5
329
100
AcDbEntity
  8
Calque_1
 62
1
100
AcDbSpline
 70
8
 71
3
 72
8
 73
4
 74
0
 40
0
 40
0
 40
0
 40
0
 40
1
 40
1
 40
1
 40
1
 10
270.863006
 20
124.607428
 30
0.0
 10
270.948377
 20
124.882367
 30
0.0
 10
270.991062
 20
125.143086
 30
0.0
 10
270.991062
 20
125.389583
 30
0.0
  0
SPLINE
  5
32a
100
AcDbEntity
  8
Calque_1
 62
1
100
AcDbSpline
 70
8
 71
3
 72
8
 73
4
 74
0
 40
0
 40
0
 40
0
 40
0
 40
1
 40
1
 40
1
 40
1
 10
270.991062
 20
125.389583
 30
0.0
 10
270.991062
 20
125.901539
 30
0.0
 10
270.929439
 20
126.328169
 30
0.0
 10
270.806193
 20
126.669473
 30
0.0
  0
SPLINE
  5
32b
100
AcDbEntity
  8
Calque_1
 62
1
100
AcDbSpline
 70
8
 71
3
 72
8
 73
4
 74
0
 40
0
 40
0
 40
0
 40
0
 40
1
 40
1
 40
1
 40
1
 10
270.806193
 20
126.669473
 30
0.0
 10
270.682947
 20
127.010776
 30
0.0
 10
270.517033
 20
127.285715
 30
0.0
 10
270.308452
 20
127.494290
 30
0.0
  0
SPLINE
  5
32c
100
AcDbEntity
  8
Calque_1
 62
1
100
AcDbSpline
 70
8
 71
3
 72
8
 73
4
 74
0
 40
0
 40
0
 40
0
 40
0
 40
1
 40
1
 40
1
 40
1
 10
270.308452
 20
127.494290
 30
0.0
 10
270.099880
 20
127.712345
 30
0.0
 10
269.848645
 20
127.868776
 30
0.0
 10
269.554746
 20
127.963582
 30
0.0
  0
SPLINE
  5
32d
100
AcDbEntity
  8
Calque_1
 62
1
100
AcDbSpline
 70
8
 71
3
 72
8
 73
4
 74
0
 40
0
 40
0
 40
0
 40
0
 40
1
 40
1
 40
1
 40
1
 10
269.554746
 20
127.963582
 30
0.0
 10
269.260848
 20
128.067869
 30
0.0
 10
268.947985
 20
128.138975
 30
0.0
 10
268.616158
 20
128.176898
 30
0.0
  0
SPLINE
  5
32e
100
AcDbEntity
  8
Calque_1
 62
1
100
AcDbSpline
 70
8
 71
3
 72
8
 73
4
 74
0
 40
0
 40
0
 40
0
 40
0
 40
1
 40
1
 40
1
 40
1
 10
268.616158
 20
128.176898
 30
0.0
 10
268.284340
 20
128.224304
 30
0.0
 10
267.933557
 20
128.243264
 30
0.0
 10
267.563810
 20
128.233778
 30
0.0
  0
SPLINE
  5
32f
100
AcDbEntity
  8
Calque_1
 62
1
100
AcDbSpline
 70
8
 71
3
 72
8
 73
4
 74
0
 40
0
 40
0
 40
0
 40
0
 40
1
 40
1
 40
1
 40
1
 10
267.563810
 20
128.233778
 30
0.0
 10
267.194063
 20
128.233778
 30
0.0
 10
266.824316
 20
128.238516
 30
0.0
 10
266.454569
 20
128.247994
 30
0.0
  0
LWPOLYLINE
  5
330
100
AcDbEntity
  8
Calque_1
 62
1
100
AcDbPolyline
 90
1
 70
1
 10
257.153931
 20
118.037339
 30
0.0
  0
SPLINE
  5
331
100
AcDbEntity
  8
Calque_1
 62
1
100
AcDbSpline
 70
8
 71
3
 72
8
 73
4
 74
0
 40
0
 40
0
 40
0
 40
0
 40
1
 40
1
 40
1
 40
1
 10
266.511409
 20
126.356602
 30
0.0
 10
266.682061
 20
126.356602
 30
0.0
 10
266.852714
 20
126.361341
 30
0.0
 10
267.023366
 20
126.370819
 30
0.0
  0
SPLINE
  5
332
100
AcDbEntity
  8
Calque_1
 62
1
100
AcDbSpline
 70
8
 71
3
 72
8
 73
4
 74
0
 40
0
 40
0
 40
0
 40
0
 40
1
 40
1
 40
1
 40
1
 10
267.023366
 20
126.370819
 30
0.0
 10
267.203496
 20
126.380296
 30
0.0
 10
267.383631
 20
126.385035
 30
0.0
 10
267.563770
 20
126.385035
 30
0.0
  0
SPLINE
  5
333
100
AcDbEntity
  8
Calque_1
 62
1
100
AcDbSpline
 70
8
 71
3
 72
8
 73
4
 74
0
 40
0
 40
0
 40
0
 40
0
 40
1
 40
1
 40
1
 40
1
 10
267.563770
 20
126.385035
 30
0.0
 10
267.762864
 20
126.385035
 30
0.0
 10
267.938256
 20
126.370814
 30
0.0
 10
268.089944
 20
126.342372
 30
0.0
  0
SPLINE
  5
334
100
AcDbEntity
  8
Calque_1
 62
1
100
AcDbSpline
 70
8
 71
3
 72
8
 73
4
 74
0
 40
0
 40
0
 40
0
 40
0
 40
1
 40
1
 40
1
 40
1
 10
268.089944
 20
126.342372
 30
0.0
 10
268.251110
 20
126.323408
 30
0.0
 10
268.383838
 20
126.276004
 30
0.0
 10
268.488128
 20
126.200162
 30
0.0
  0
SPLINE
  5
335
100
AcDbEntity
  8
Calque_1
 62
1
100
AcDbSpline
 70
8
 71
3
 72
8
 73
4
 74
0
 40
0
 40
0
 40
0
 40
0
 40
1
 40
1
 40
1
 40
1
 10
268.488128
 20
126.200162
 30
0.0
 10
268.592419
 20
126.124314
 30
0.0
 10
268.668263
 20
126.005805
 30
0.0
 10
268.715660
 20
125.844637
 30
0.0
  0
SPLINE
  5
336
100
AcDbEntity
  8
Calque_1
 62
1
100
AcDbSpline
 70
8
 71
3
 72
8
 73
4
 74
0
 40
0
 40
0
 40
0
 40
0
 40
1
 40
1
 40
1
 40
1
 10
268.715660
 20
125.844637
 30
0.0
 10
268.772545
 20
125.692947
 30
0.0
 10
268.800987
 20
125.484372
 30
0.0
 10
268.800987
 20
125.218913
 30
0.0
  0
SPLINE
  5
337
100
AcDbEntity
  8
Calque_1
 62
1
100
AcDbSpline
 70
8
 71
3
 72
8
 73
4
 74
0
 40
0
 40
0
 40
0
 40
0
 40
1
 40
1
 40
1
 40
1
 10
268.800987
 20
125.218913
 30
0.0
 10
268.800987
 20
124.887091
 30
0.0
 10
268.777292
 20
124.621632
 30
0.0
 10
268.729904
 20
124.422538
 30
0.0
  0
SPLINE
  5
338
100
AcDbEntity
  8
Calque_1
 62
1
100
AcDbSpline
 70
8
 71
3
 72
8
 73
4
 74
0
 40
0
 40
0
 40
0
 40
0
 40
1
 40
1
 40
1
 40
1
 10
268.729904
 20
124.422538
 30
0.0
 10
268.692011
 20
124.232924
 30
0.0
 10
268.616162
 20
124.085974
 30
0.0
 10
268.502358
 20
123.981687
 30
0.0
  0
SPLINE
  5
339
100
AcDbEntity
  8
Calque_1
 62
1
100
AcDbSpline
 70
8
 71
3
 72
8
 73
4
 74
0
 40
0
 40
0
 40
0
 40
0
 40
1
 40
1
 40
1
 40
1
 10
268.502358
 20
123.981687
 30
0.0
 10
268.398077
 20
123.877400
 30
0.0
 10
268.255871
 20
123.806295
 30
0.0
 10
268.075741
 20
123.768373
 30
0.0
  0
SPLINE
  5
33a
100
AcDbEntity
  8
Calque_1
 62
1
100
AcDbSpline
 70
8
 71
3
 72
8
 73
4
 74
0
 40
0
 40
0
 40
0
 40
0
 40
1
 40
1
 40
1
 40
1
 10
268.075741
 20
123.768373
 30
0.0
 10
267.905088
 20
123.739931
 30
0.0
 10
267.687029
 20
123.725710
 30
0.0
 10
267.421564
 20
123.725710
 30
0.0
  0
LWPOLYLINE
  5
33b
100
AcDbEntity
  8
Calque_1
 62
1
100
AcDbPolyline
 90
3
 70
0
 10
266.454569
 20
128.247994
 30
0.0
 10
266.454569
 20
126.356602
 30
0.0
 10
266.511409
 20
126.356602
 30
0.0
  0
SPLINE
  5
33c
100
AcDbEntity
  8
Calque_1
 62
1
100
AcDbSpline
 70
8
 71
3
 72
8
 73
4
 74
0
 40
0
 40
0
 40
0
 40
0
 40
1
 40
1
 40
1
 40
1
 10
266.938053
 20
123.725710
 30
0.0
 10
266.786365
 20
123.735188
 30
0.0
 10
266.629934
 20
123.739926
 30
0.0
 10
266.468759
 20
123.739926
 30
0.0
  0
LWPOLYLINE
  5
33d
100
AcDbEntity
  8
Calque_1
 62
1
100
AcDbPolyline
 90
2
 70
0
 10
267.421564
 20
123.725710
 30
0.0
 10
266.938053
 20
123.725710
 30
0.0
  0
SPLINE
  5
33e
100
AcDbEntity
  8
Calque_1
 62
1
100
AcDbSpline
 70
8
 71
3
 72
8
 73
4
 74
0
 40
0
 40
0
 40
0
 40
0
 40
1
 40
1
 40
1
 40
1
 10
266.824173
 20
121.948081
 30
0.0
 10
266.862066
 20
121.948081
 30
0.0
 10
266.904707
 20
121.943342
 30
0.0
 10
266.952095
 20
121.933865
 30
0.0
  0
SPLINE
  5
33f
100
AcDbEntity
  8
Calque_1
 62
1
100
AcDbSpline
 70
8
 71
3
 72
8
 73
4
 74
0
 40
0
 40
0
 40
0
 40
0
 40
1
 40
1
 40
1
 40
1
 10
266.952095
 20
121.933865
 30
0.0
 10
266.999484
 20
121.924387
 30
0.0
 10
267.084810
 20
121.914905
 30
0.0
 10
267.208074
 20
121.905418
 30
0.0
  0
SPLINE
  5
340
100
AcDbEntity
  8
Calque_1
 62
1
100
AcDbSpline
 70
8
 71
3
 72
8
 73
4
 74
0
 40
0
 40
0
 40
0
 40
0
 40
1
 40
1
 40
1
 40
1
 10
267.208074
 20
121.905418
 30
0.0
 10
267.539901
 20
121.867498
 30
0.0
 10
267.791141
 20
121.777432
 30
0.0
 10
267.961793
 20
121.635220
 30
0.0
  0
SPLINE
  5
341
100
AcDbEntity
  8
Calque_1
 62
1
100
AcDbSpline
 70
8
 71
3
 72
8
 73
4
 74
0
 40
0
 40
0
 40
0
 40
0
 40
1
 40
1
 40
1
 40
1
 10
267.961793
 20
121.635220
 30
0.0
 10
268.132446
 20
121.502491
 30
0.0
 10
268.255692
 20
121.336579
 30
0.0
 10
268.331531
 20
121.137485
 30
0.0
  0
SPLINE
  5
342
100
AcDbEntity
  8
Calque_1
 62
1
100
AcDbSpline
 70
8
 71
3
 72
8
 73
4
 74
0
 40
0
 40
0
 40
0
 40
0
 40
1
 40
1
 40
1
 40
1
 10
268.331531
 20
121.137485
 30
0.0
 10
268.407407
 20
120.938391
 30
0.0
 10
268.454813
 20
120.715596
 30
0.0
 10
268.473750
 20
120.469098
 30
0.0
  0
SPLINE
  5
343
100
AcDbEntity
  8
Calque_1
 62
1
100
AcDbSpline
 70
8
 71
3
 72
8
 73
4
 74
0
 40
0
 40
0
 40
0
 40
0
 40
1
 40
1
 40
1
 40
1
 10
268.473750
 20
120.469098
 30
0.0
 10
268.502148
 20
120.222601
 30
0.0
 10
268.540085
 20
119.971363
 30
0.0
 10
268.587564
 20
119.715386
 30
0.0
  0
SPLINE
  5
344
100
AcDbEntity
  8
Calque_1
 62
1
100
AcDbSpline
 70
8
 71
3
 72
8
 73
4
 74
0
 40
0
 40
0
 40
0
 40
0
 40
1
 40
1
 40
1
 40
1
 10
268.587564
 20
119.715386
 30
0.0
 10
268.634952
 20
119.459408
 30
0.0
 10
268.701318
 20
119.212911
 30
0.0
 10
268.786663
 20
118.975895
 30
0.0
  0
SPLINE
  5
345
100
AcDbEntity
  8
Calque_1
 62
1
100
AcDbSpline
 70
8
 71
3
 72
8
 73
4
 74
0
 40
0
 40
0
 40
0
 40
0
 40
1
 40
1
 40
1
 40
1
 10
268.786663
 20
118.975895
 30
0.0
 10
268.872034
 20
118.738878
 30
0.0
 10
268.971581
 20
118.506601
 30
0.0
 10
269.085304
 20
118.279066
 30
0.0
  0
LWPOLYLINE
  5
346
100
AcDbEntity
  8
Calque_1
 62
1
100
AcDbPolyline
 90
4
 70
0
 10
266.468759
 20
123.739926
 30
0.0
 10
266.440272
 20
121.948081
 30
0.0
 10
266.696251
 20
121.948081
 30
0.0
 10
266.824173
 20
121.948081
 30
0.0
  0
LWPOLYLINE
  5
347
100
AcDbEntity
  8
Calque_1
 62
1
100
AcDbPolyline
 90
2
 70
0
 10
269.085304
 20
118.279066
 30
0.0
 10
271.446005
 20
118.279095
 30
0.0
  0
SPLINE
  5
348
100
AcDbEntity
  8
Calque_1
 62
1
100
AcDbSpline
 70
8
 71
3
 72
8
 73
4
 74
0
 40
0
 40
0
 40
0
 40
0
 40
1
 40
1
 40
1
 40
1
 10
281.030935
 20
121.208620
 30
0.0
 10
281.030935
 20
121.805902
 30
0.0
 10
280.888724
 20
122.294156
 30
0.0
 10
280.604304
 20
122.673382
 30
0.0
  0
SPLINE
  5
349
100
AcDbEntity
  8
Calque_1
 62
1
100
AcDbSpline
 70
8
 71
3
 72
8
 73
4
 74
0
 40
0
 40
0
 40
0
 40
0
 40
1
 40
1
 40
1
 40
1
 10
280.604304
 20
122.673382
 30
0.0
 10
280.319883
 20
123.062089
 30
0.0
 10
279.912212
 20
123.379691
 30
0.0
 10
279.381290
 20
123.626189
 30
0.0
  0
SPLINE
  5
34a
100
AcDbEntity
  8
Calque_1
 62
1
100
AcDbSpline
 70
8
 71
3
 72
8
 73
4
 74
0
 40
0
 40
0
 40
0
 40
0
 40
1
 40
1
 40
1
 40
1
 10
279.381290
 20
123.626189
 30
0.0
 10
279.826886
 20
123.882166
 30
0.0
 10
280.168190
 20
124.161846
 30
0.0
 10
280.405205
 20
124.465226
 30
0.0
  0
SPLINE
  5
34b
100
AcDbEntity
  8
Calque_1
 62
1
100
AcDbSpline
 70
8
 71
3
 72
8
 73
4
 74
0
 40
0
 40
0
 40
0
 40
0
 40
1
 40
1
 40
1
 40
1
 10
280.405205
 20
124.465226
 30
0.0
 10
280.642219
 20
124.778088
 30
0.0
 10
280.760726
 20
125.204718
 30
0.0
 10
280.760726
 20
125.745115
 30
0.0
  0
SPLINE
  5
34c
100
AcDbEntity
  8
Calque_1
 62
1
100
AcDbSpline
 70
8
 71
3
 72
8
 73
4
 74
0
 40
0
 40
0
 40
0
 40
0
 40
1
 40
1
 40
1
 40
1
 10
280.760726
 20
125.745115
 30
0.0
 10
280.760726
 20
126.332917
 30
0.0
 10
280.627998
 20
126.792729
 30
0.0
 10
280.362542
 20
127.124552
 30
0.0
  0
SPLINE
  5
34d
100
AcDbEntity
  8
Calque_1
 62
1
100
AcDbSpline
 70
8
 71
3
 72
8
 73
4
 74
0
 40
0
 40
0
 40
0
 40
0
 40
1
 40
1
 40
1
 40
1
 10
280.362542
 20
127.124552
 30
0.0
 10
280.097085
 20
127.465855
 30
0.0
 10
279.755780
 20
127.717093
 30
0.0
 10
279.338627
 20
127.878264
 30
0.0
  0
SPLINE
  5
34e
100
AcDbEntity
  8
Calque_1
 62
1
100
AcDbSpline
 70
8
 71
3
 72
8
 73
4
 74
0
 40
0
 40
0
 40
0
 40
0
 40
1
 40
1
 40
1
 40
1
 10
279.338627
 20
127.878264
 30
0.0
 10
278.921483
 20
128.048917
 30
0.0
 10
278.466414
 20
128.153204
 30
0.0
 10
277.973421
 20
128.191127
 30
0.0
  0
SPLINE
  5
34f
100
AcDbEntity
  8
Calque_1
 62
1
100
AcDbSpline
 70
8
 71
3
 72
8
 73
4
 74
0
 40
0
 40
0
 40
0
 40
0
 40
1
 40
1
 40
1
 40
1
 10
277.973421
 20
128.191127
 30
0.0
 10
277.480428
 20
128.238533
 30
0.0
 10
277.006395
 20
128.262236
 30
0.0
 10
276.551322
 20
128.262236
 30
0.0
  0
LWPOLYLINE
  5
350
100
AcDbEntity
  8
Calque_1
 62
1
100
AcDbPolyline
 90
4
 70
1
 10
265.373641
 20
118.279095
 30
0.0
 10
265.373641
 20
128.248010
 30
0.0
 10
263.140942
 20
128.248010
 30
0.0
 10
263.140942
 20
118.279095
 30
0.0
  0
SPLINE
  5
351
100
AcDbEntity
  8
Calque_1
 62
1
100
AcDbSpline
 70
8
 71
3
 72
8
 73
4
 74
0
 40
0
 40
0
 40
0
 40
0
 40
1
 40
1
 40
1
 40
1
 10
276.394886
 20
128.262236
 30
0.0
 10
276.375895
 20
128.262236
 30
0.0
 10
276.366399
 20
128.257497
 30
0.0
 10
276.366399
 20
128.248020
 30
0.0
  0
LWPOLYLINE
  5
352
100
AcDbEntity
  8
Calque_1
 62
1
100
AcDbPolyline
 90
2
 70
0
 10
276.551322
 20
128.262236
 30
0.0
 10
276.394886
 20
128.262236
 30
0.0
  0
SPLINE
  5
353
100
AcDbEntity
  8
Calque_1
 62
1
100
AcDbSpline
 70
8
 71
3
 72
8
 73
4
 74
0
 40
0
 40
0
 40
0
 40
0
 40
1
 40
1
 40
1
 40
1
 10
276.409049
 20
126.370850
 30
0.0
 10
276.437446
 20
126.380327
 30
0.0
 10
276.456392
 20
126.385066
 30
0.0
 10
276.465888
 20
126.385066
 30
0.0
  0
SPLINE
  5
354
100
AcDbEntity
  8
Calque_1
 62
1
100
AcDbSpline
 70
8
 71
3
 72
8
 73
4
 74
0
 40
0
 40
0
 40
0
 40
0
 40
1
 40
1
 40
1
 40
1
 10
276.465888
 20
126.385066
 30
0.0
 10
276.484879
 20
126.394544
 30
0.0
 10
276.508573
 20
126.399283
 30
0.0
 10
276.536971
 20
126.399283
 30
0.0
  0
SPLINE
  5
355
100
AcDbEntity
  8
Calque_1
 62
1
100
AcDbSpline
 70
8
 71
3
 72
8
 73
4
 74
0
 40
0
 40
0
 40
0
 40
0
 40
1
 40
1
 40
1
 40
1
 10
276.536971
 20
126.399283
 30
0.0
 10
276.565458
 20
126.408760
 30
0.0
 10
276.631824
 20
126.413499
 30
0.0
 10
276.736070
 20
126.413499
 30
0.0
  0
SPLINE
  5
356
100
AcDbEntity
  8
Calque_1
 62
1
100
AcDbSpline
 70
8
 71
3
 72
8
 73
4
 74
0
 40
0
 40
0
 40
0
 40
0
 40
1
 40
1
 40
1
 40
1
 10
276.736070
 20
126.413499
 30
0.0
 10
276.925687
 20
126.413499
 30
0.0
 10
277.124781
 20
126.404017
 30
0.0
 10
277.333353
 20
126.385053
 30
0.0
  0
SPLINE
  5
357
100
AcDbEntity
  8
Calque_1
 62
1
100
AcDbSpline
 70
8
 71
3
 72
8
 73
4
 74
0
 40
0
 40
0
 40
0
 40
0
 40
1
 40
1
 40
1
 40
1
 10
277.333353
 20
126.385053
 30
0.0
 10
277.551412
 20
126.366088
 30
0.0
 10
277.750507
 20
126.318685
 30
0.0
 10
277.930637
 20
126.242843
 30
0.0
  0
SPLINE
  5
358
100
AcDbEntity
  8
Calque_1
 62
1
100
AcDbSpline
 70
8
 71
3
 72
8
 73
4
 74
0
 40
0
 40
0
 40
0
 40
0
 40
1
 40
1
 40
1
 40
1
 10
277.930637
 20
126.242843
 30
0.0
 10
278.120245
 20
126.166994
 30
0.0
 10
278.271933
 20
126.057967
 30
0.0
 10
278.385701
 20
125.915760
 30
0.0
  0
SPLINE
  5
359
100
AcDbEntity
  8
Calque_1
 62
1
100
AcDbSpline
 70
8
 71
3
 72
8
 73
4
 74
0
 40
0
 40
0
 40
0
 40
0
 40
1
 40
1
 40
1
 40
1
 10
278.385701
 20
125.915760
 30
0.0
 10
278.508956
 20
125.773549
 30
0.0
 10
278.570583
 20
125.583936
 30
0.0
 10
278.570583
 20
125.346920
 30
0.0
  0
SPLINE
  5
35a
100
AcDbEntity
  8
Calque_1
 62
1
100
AcDbSpline
 70
8
 71
3
 72
8
 73
4
 74
0
 40
0
 40
0
 40
0
 40
0
 40
1
 40
1
 40
1
 40
1
 10
278.570583
 20
125.346920
 30
0.0
 10
278.570583
 20
125.119384
 30
0.0
 10
278.508956
 20
124.939252
 30
0.0
 10
278.385701
 20
124.806523
 30
0.0
  0
SPLINE
  5
35b
100
AcDbEntity
  8
Calque_1
 62
1
100
AcDbSpline
 70
8
 71
3
 72
8
 73
4
 74
0
 40
0
 40
0
 40
0
 40
0
 40
1
 40
1
 40
1
 40
1
 10
278.385701
 20
124.806523
 30
0.0
 10
278.262455
 20
124.673793
 30
0.0
 10
278.106028
 20
124.569506
 30
0.0
 10
277.916420
 20
124.493661
 30
0.0
  0
SPLINE
  5
35c
100
AcDbEntity
  8
Calque_1
 62
1
100
AcDbSpline
 70
8
 71
3
 72
8
 73
4
 74
0
 40
0
 40
0
 40
0
 40
0
 40
1
 40
1
 40
1
 40
1
 10
277.916420
 20
124.493661
 30
0.0
 10
277.736281
 20
124.427299
 30
0.0
 10
277.541926
 20
124.384636
 30
0.0
 10
277.333353
 20
124.365671
 30
0.0
  0
SPLINE
  5
35d
100
AcDbEntity
  8
Calque_1
 62
1
100
AcDbSpline
 70
8
 71
3
 72
8
 73
4
 74
0
 40
0
 40
0
 40
0
 40
0
 40
1
 40
1
 40
1
 40
1
 10
277.333353
 20
124.365671
 30
0.0
 10
277.124781
 20
124.356194
 30
0.0
 10
276.935169
 20
124.351455
 30
0.0
 10
276.764516
 20
124.351455
 30
0.0
  0
LWPOLYLINE
  5
35e
100
AcDbEntity
  8
Calque_1
 62
1
100
AcDbPolyline
 90
5
 70
0
 10
276.366399
 20
128.248020
 30
0.0
 10
276.337912
 20
128.248020
 30
0.0
 10
276.195706
 20
128.248020
 30
0.0
 10
276.209950
 20
126.370850
 30
0.0
 10
276.409049
 20
126.370850
 30
0.0
  0
SPLINE
  5
35f
100
AcDbEntity
  8
Calque_1
 62
1
100
AcDbSpline
 70
8
 71
3
 72
8
 73
4
 74
0
 40
0
 40
0
 40
0
 40
0
 40
1
 40
1
 40
1
 40
1
 10
276.551201
 20
124.351455
 30
0.0
 10
276.522803
 20
124.360932
 30
0.0
 10
276.499109
 20
124.370415
 30
0.0
 10
276.480118
 20
124.379901
 30
0.0
  0
SPLINE
  5
360
100
AcDbEntity
  8
Calque_1
 62
1
100
AcDbSpline
 70
8
 71
3
 72
8
 73
4
 74
0
 40
0
 40
0
 40
0
 40
0
 40
1
 40
1
 40
1
 40
1
 10
276.480118
 20
124.379901
 30
0.0
 10
276.470622
 20
124.389379
 30
0.0
 10
276.446928
 20
124.394118
 30
0.0
 10
276.409035
 20
124.394118
 30
0.0
  0
SPLINE
  5
361
100
AcDbEntity
  8
Calque_1
 62
1
100
AcDbSpline
 70
8
 71
3
 72
8
 73
4
 74
0
 40
0
 40
0
 40
0
 40
0
 40
1
 40
1
 40
1
 40
1
 10
276.409035
 20
124.394118
 30
0.0
 10
276.380638
 20
124.403596
 30
0.0
 10
276.314272
 20
124.408334
 30
0.0
 10
276.209936
 20
124.408334
 30
0.0
  0
LWPOLYLINE
  5
362
100
AcDbEntity
  8
Calque_1
 62
1
100
AcDbPolyline
 90
2
 70
0
 10
276.764516
 20
124.351455
 30
0.0
 10
276.551201
 20
124.351455
 30
0.0
  0
SPLINE
  5
363
100
AcDbEntity
  8
Calque_1
 62
1
100
AcDbSpline
 70
8
 71
3
 72
8
 73
4
 74
0
 40
0
 40
0
 40
0
 40
0
 40
1
 40
1
 40
1
 40
1
 10
276.409035
 20
122.616489
 30
0.0
 10
276.446928
 20
122.625967
 30
0.0
 10
276.475370
 20
122.630706
 30
0.0
 10
276.494361
 20
122.630706
 30
0.0
  0
SPLINE
  5
364
100
AcDbEntity
  8
Calque_1
 62
1
100
AcDbSpline
 70
8
 71
3
 72
8
 73
4
 74
0
 40
0
 40
0
 40
0
 40
0
 40
1
 40
1
 40
1
 40
1
 10
276.494361
 20
122.630706
 30
0.0
 10
276.513353
 20
122.640183
 30
0.0
 10
276.537047
 20
122.644922
 30
0.0
 10
276.565444
 20
122.644922
 30
0.0
  0
SPLINE
  5
365
100
AcDbEntity
  8
Calque_1
 62
1
100
AcDbSpline
 70
8
 71
3
 72
8
 73
4
 74
0
 40
0
 40
0
 40
0
 40
0
 40
1
 40
1
 40
1
 40
1
 10
276.565444
 20
122.644922
 30
0.0
 10
276.603337
 20
122.654400
 30
0.0
 10
276.674442
 20
122.659139
 30
0.0
 10
276.778760
 20
122.659139
 30
0.0
  0
SPLINE
  5
366
100
AcDbEntity
  8
Calque_1
 62
1
100
AcDbSpline
 70
8
 71
3
 72
8
 73
4
 74
0
 40
0
 40
0
 40
0
 40
0
 40
1
 40
1
 40
1
 40
1
 10
276.778760
 20
122.659139
 30
0.0
 10
276.996819
 20
122.659139
 30
0.0
 10
277.219616
 20
122.644918
 30
0.0
 10
277.447153
 20
122.616476
 30
0.0
  0
SPLINE
  5
367
100
AcDbEntity
  8
Calque_1
 62
1
100
AcDbSpline
 70
8
 71
3
 72
8
 73
4
 74
0
 40
0
 40
0
 40
0
 40
0
 40
1
 40
1
 40
1
 40
1
 10
277.447153
 20
122.616476
 30
0.0
 10
277.684167
 20
122.597511
 30
0.0
 10
277.897478
 20
122.545368
 30
0.0
 10
278.087086
 20
122.460045
 30
0.0
  0
SPLINE
  5
368
100
AcDbEntity
  8
Calque_1
 62
1
100
AcDbSpline
 70
8
 71
3
 72
8
 73
4
 74
0
 40
0
 40
0
 40
0
 40
0
 40
1
 40
1
 40
1
 40
1
 10
278.087086
 20
122.460045
 30
0.0
 10
278.276703
 20
122.374719
 30
0.0
 10
278.433134
 20
122.246730
 30
0.0
 10
278.556380
 20
122.076079
 30
0.0
  0
SPLINE
  5
369
100
AcDbEntity
  8
Calque_1
 62
1
100
AcDbSpline
 70
8
 71
3
 72
8
 73
4
 74
0
 40
0
 40
0
 40
0
 40
0
 40
1
 40
1
 40
1
 40
1
 10
278.556380
 20
122.076079
 30
0.0
 10
278.679635
 20
121.914907
 30
0.0
 10
278.741263
 20
121.696852
 30
0.0
 10
278.741263
 20
121.421913
 30
0.0
  0
SPLINE
  5
36a
100
AcDbEntity
  8
Calque_1
 62
1
100
AcDbSpline
 70
8
 71
3
 72
8
 73
4
 74
0
 40
0
 40
0
 40
0
 40
0
 40
1
 40
1
 40
1
 40
1
 10
278.741263
 20
121.421913
 30
0.0
 10
278.741263
 20
121.128012
 30
0.0
 10
278.674896
 20
120.890996
 30
0.0
 10
278.542164
 20
120.710863
 30
0.0
  0
SPLINE
  5
36b
100
AcDbEntity
  8
Calque_1
 62
1
100
AcDbSpline
 70
8
 71
3
 72
8
 73
4
 74
0
 40
0
 40
0
 40
0
 40
0
 40
1
 40
1
 40
1
 40
1
 10
278.542164
 20
120.710863
 30
0.0
 10
278.409431
 20
120.540212
 30
0.0
 10
278.243518
 20
120.407482
 30
0.0
 10
278.044423
 20
120.312676
 30
0.0
  0
SPLINE
  5
36c
100
AcDbEntity
  8
Calque_1
 62
1
100
AcDbSpline
 70
8
 71
3
 72
8
 73
4
 74
0
 40
0
 40
0
 40
0
 40
0
 40
1
 40
1
 40
1
 40
1
 10
278.044423
 20
120.312676
 30
0.0
 10
277.845337
 20
120.217869
 30
0.0
 10
277.622544
 20
120.156245
 30
0.0
 10
277.376043
 20
120.127803
 30
0.0
  0
SPLINE
  5
36d
100
AcDbEntity
  8
Calque_1
 62
1
100
AcDbSpline
 70
8
 71
3
 72
8
 73
4
 74
0
 40
0
 40
0
 40
0
 40
0
 40
1
 40
1
 40
1
 40
1
 10
277.376043
 20
120.127803
 30
0.0
 10
277.129542
 20
120.108838
 30
0.0
 10
276.892524
 20
120.099356
 30
0.0
 10
276.664987
 20
120.099356
 30
0.0
  0
LWPOLYLINE
  5
36e
100
AcDbEntity
  8
Calque_1
 62
1
100
AcDbPolyline
 90
3
 70
0
 10
276.209936
 20
124.408334
 30
0.0
 10
276.209936
 20
122.616489
 30
0.0
 10
276.409035
 20
122.616489
 30
0.0
  0
SPLINE
  5
36f
100
AcDbEntity
  8
Calque_1
 62
1
100
AcDbSpline
 70
8
 71
3
 72
8
 73
4
 74
0
 40
0
 40
0
 40
0
 40
0
 40
1
 40
1
 40
1
 40
1
 10
276.465901
 20
120.099356
 30
0.0
 10
276.446910
 20
120.108834
 30
0.0
 10
276.432712
 20
120.113573
 30
0.0
 10
276.423305
 20
120.113573
 30
0.0
  0
SPLINE
  5
370
100
AcDbEntity
  8
Calque_1
 62
1
100
AcDbSpline
 70
8
 71
3
 72
8
 73
4
 74
0
 40
0
 40
0
 40
0
 40
0
 40
1
 40
1
 40
1
 40
1
 10
276.423305
 20
120.113573
 30
0.0
 10
276.423305
 20
120.123051
 30
0.0
 10
276.409107
 20
120.127789
 30
0.0
 10
276.380710
 20
120.127789
 30
0.0
  0
SPLINE
  5
371
100
AcDbEntity
  8
Calque_1
 62
1
100
AcDbSpline
 70
8
 71
3
 72
8
 73
4
 74
0
 40
0
 40
0
 40
0
 40
0
 40
1
 40
1
 40
1
 40
1
 10
276.380710
 20
120.127789
 30
0.0
 10
276.361718
 20
120.137267
 30
0.0
 10
276.304834
 20
120.142006
 30
0.0
 10
276.210057
 20
120.142006
 30
0.0
  0
LWPOLYLINE
  5
372
100
AcDbEntity
  8
Calque_1
 62
1
100
AcDbPolyline
 90
2
 70
0
 10
276.664987
 20
120.099356
 30
0.0
 10
276.465901
 20
120.099356
 30
0.0
  0
SPLINE
  5
373
100
AcDbEntity
  8
Calque_1
 62
1
100
AcDbSpline
 70
8
 71
3
 72
8
 73
4
 74
0
 40
0
 40
0
 40
0
 40
0
 40
1
 40
1
 40
1
 40
1
 10
276.992210
 20
118.279056
 30
0.0
 10
277.305072
 20
118.279056
 30
0.0
 10
277.622674
 20
118.288539
 30
0.0
 10
277.945015
 20
118.307503
 30
0.0
  0
SPLINE
  5
374
100
AcDbEntity
  8
Calque_1
 62
1
100
AcDbSpline
 70
8
 71
3
 72
8
 73
4
 74
0
 40
0
 40
0
 40
0
 40
0
 40
1
 40
1
 40
1
 40
1
 10
277.945015
 20
118.307503
 30
0.0
 10
278.267355
 20
118.326467
 30
0.0
 10
278.580218
 20
118.378611
 30
0.0
 10
278.883603
 20
118.463933
 30
0.0
  0
SPLINE
  5
375
100
AcDbEntity
  8
Calque_1
 62
1
100
AcDbSpline
 70
8
 71
3
 72
8
 73
4
 74
0
 40
0
 40
0
 40
0
 40
0
 40
1
 40
1
 40
1
 40
1
 10
278.883603
 20
118.463933
 30
0.0
 10
279.186979
 20
118.549260
 30
0.0
 10
279.471400
 20
118.667768
 30
0.0
 10
279.736865
 20
118.819458
 30
0.0
  0
SPLINE
  5
376
100
AcDbEntity
  8
Calque_1
 62
1
100
AcDbSpline
 70
8
 71
3
 72
8
 73
4
 74
0
 40
0
 40
0
 40
0
 40
0
 40
1
 40
1
 40
1
 40
1
 10
279.736865
 20
118.819458
 30
0.0
 10
280.002322
 20
118.980629
 30
0.0
 10
280.239336
 20
119.193944
 30
0.0
 10
280.447908
 20
119.459403
 30
0.0
  0
SPLINE
  5
377
100
AcDbEntity
  8
Calque_1
 62
1
100
AcDbSpline
 70
8
 71
3
 72
8
 73
4
 74
0
 40
0
 40
0
 40
0
 40
0
 40
1
 40
1
 40
1
 40
1
 10
280.447908
 20
119.459403
 30
0.0
 10
280.637525
 20
119.705900
 30
0.0
 10
280.779735
 20
119.980839
 30
0.0
 10
280.874539
 20
120.284220
 30
0.0
  0
SPLINE
  5
378
100
AcDbEntity
  8
Calque_1
 62
1
100
AcDbSpline
 70
8
 71
3
 72
8
 73
4
 74
0
 40
0
 40
0
 40
0
 40
0
 40
1
 40
1
 40
1
 40
1
 10
280.874539
 20
120.284220
 30
0.0
 10
280.978830
 20
120.587601
 30
0.0
 10
281.030975
 20
120.895723
 30
0.0
 10
281.030975
 20
121.208585
 30
0.0
  0
LWPOLYLINE
  5
379
100
AcDbEntity
  8
Calque_1
 62
1
100
AcDbPolyline
 90
6
 70
0
 10
276.210057
 20
120.142006
 30
0.0
 10
276.210057
 20
118.279056
 30
0.0
 10
276.466036
 20
118.279056
 30
0.0
 10
276.594092
 20
118.279056
 30
0.0
 10
276.722014
 20
118.279056
 30
0.0
 10
276.992210
 20
118.279056
 30
0.0
  0
LWPOLYLINE
  5
37a
100
AcDbEntity
  8
Calque_1
 62
1
100
AcDbPolyline
 90
1
 70
1
 10
281.030975
 20
121.208585
 30
0.0
  0
LWPOLYLINE
  5
37b
100
AcDbEntity
  8
Calque_1
 62
1
100
AcDbPolyline
 90
4
 70
1
 10
275.143439
 20
118.279095
 30
0.0
 10
275.143439
 20
128.248010
 30
0.0
 10
272.896524
 20
128.248010
 30
0.0
 10
272.896524
 20
118.279095
 30
0.0
  0
LWPOLYLINE
  5
37c
100
AcDbEntity
  8
Calque_1
 62
7
100
AcDbPolyline
 90
12
 70
1
 10
46.920600
 20
178.856270
 30
0.0
 10
48.836200
 20
175.988190
 30
0.0
 10
47.809600
 20
175.988190
 30
0.0
 10
46.423200
 20
178.115440
 30
0.0
 10
45.015600
 20
175.988190
 30
0.0
 10
44.010200
 20
175.988190
 30
0.0
 10
45.968100
 20
178.813930
 30
0.0
 10
44.116000
 20
181.533840
 30
0.0
 10
45.121400
 20
181.533840
 30
0.0
 10
46.454900
 20
179.523010
 30
0.0
 10
47.788400
 20
181.533840
 30
0.0
 10
48.783200
 20
181.533840
 30
0.0
  0
SPLINE
  5
37d
100
AcDbEntity
  8
Calque_1
 62
7
100
AcDbSpline
 70
8
 71
3
 72
8
 73
4
 74
0
 40
0
 40
0
 40
0
 40
0
 40
1
 40
1
 40
1
 40
1
 10
50.021500
 20
181.999510
 30
0.0
 10
50.741167
 20
182.091230
 30
0.0
 10
51.210367
 20
182.218230
 30
0.0
 10
51.429100
 20
182.380510
 30
0.0
  0
SPLINE
  5
37e
100
AcDbEntity
  8
Calque_1
 62
7
100
AcDbSpline
 70
8
 71
3
 72
8
 73
4
 74
0
 40
0
 40
0
 40
0
 40
0
 40
1
 40
1
 40
1
 40
1
 10
51.429100
 20
182.380510
 30
0.0
 10
51.647767
 20
182.542783
 30
0.0
 10
51.838267
 20
182.913197
 30
0.0
 10
52.000600
 20
183.491750
 30
0.0
  0
LWPOLYLINE
  5
37f
100
AcDbEntity
  8
Calque_1
 62
7
100
AcDbPolyline
 90
3
 70
0
 10
51.683100
 20
181.332760
 30
0.0
 10
50.021500
 20
181.332760
 30
0.0
 10
50.021500
 20
181.999510
 30
0.0
  0
SPLINE
  5
380
100
AcDbEntity
  8
Calque_1
 62
7
100
AcDbSpline
 70
8
 71
3
 72
8
 73
4
 74
0
 40
0
 40
0
 40
0
 40
0
 40
1
 40
1
 40
1
 40
1
 10
55.355500
 20
180.888260
 30
0.0
 10
55.404833
 20
182.623920
 30
0.0
 10
56.230333
 20
183.491750
 30
0.0
 10
57.832000
 20
183.491750
 30
0.0
  0
SPLINE
  5
381
100
AcDbEntity
  8
Calque_1
 62
7
100
AcDbSpline
 70
8
 71
3
 72
8
 73
4
 74
0
 40
0
 40
0
 40
0
 40
0
 40
1
 40
1
 40
1
 40
1
 10
57.832000
 20
183.491750
 30
0.0
 10
58.544600
 20
183.491750
 30
0.0
 10
59.123133
 20
183.287140
 30
0.0
 10
59.567600
 20
182.877920
 30
0.0
  0
SPLINE
  5
382
100
AcDbEntity
  8
Calque_1
 62
7
100
AcDbSpline
 70
8
 71
3
 72
8
 73
4
 74
0
 40
0
 40
0
 40
0
 40
0
 40
1
 40
1
 40
1
 40
1
 10
59.567600
 20
182.877920
 30
0.0
 10
60.012133
 20
182.468700
 30
0.0
 10
60.234400
 20
181.939537
 30
0.0
 10
60.234400
 20
181.290430
 30
0.0
  0
SPLINE
  5
383
100
AcDbEntity
  8
Calque_1
 62
7
100
AcDbSpline
 70
8
 71
3
 72
8
 73
4
 74
0
 40
0
 40
0
 40
0
 40
0
 40
1
 40
1
 40
1
 40
1
 10
60.234400
 20
181.290430
 30
0.0
 10
60.234400
 20
180.359097
 30
0.0
 10
59.705233
 20
179.604153
 30
0.0
 10
58.646900
 20
179.025600
 30
0.0
  0
LWPOLYLINE
  5
384
100
AcDbEntity
  8
Calque_1
 62
7
100
AcDbPolyline
 90
5
 70
0
 10
52.000600
 20
183.491750
 30
0.0
 10
52.614400
 20
183.491750
 30
0.0
 10
52.614400
 20
175.988190
 30
0.0
 10
51.683100
 20
175.988190
 30
0.0
 10
51.683100
 20
181.332760
 30
0.0
  0
SPLINE
  5
385
100
AcDbEntity
  8
Calque_1
 62
7
100
AcDbSpline
 70
8
 71
3
 72
8
 73
4
 74
0
 40
0
 40
0
 40
0
 40
0
 40
1
 40
1
 40
1
 40
1
 10
57.588500
 20
178.454100
 30
0.0
 10
57.129900
 20
178.207160
 30
0.0
 10
56.801833
 20
177.967273
 30
0.0
 10
56.604300
 20
177.734440
 30
0.0
  0
SPLINE
  5
386
100
AcDbEntity
  8
Calque_1
 62
7
100
AcDbSpline
 70
8
 71
3
 72
8
 73
4
 74
0
 40
0
 40
0
 40
0
 40
0
 40
1
 40
1
 40
1
 40
1
 10
56.604300
 20
177.734440
 30
0.0
 10
56.406767
 20
177.501607
 30
0.0
 10
56.283300
 20
177.226440
 30
0.0
 10
56.233900
 20
176.908940
 30
0.0
  0
LWPOLYLINE
  5
387
100
AcDbEntity
  8
Calque_1
 62
7
100
AcDbPolyline
 90
2
 70
0
 10
58.646900
 20
179.025600
 30
0.0
 10
57.588500
 20
178.454100
 30
0.0
  0
SPLINE
  5
388
100
AcDbEntity
  8
Calque_1
 62
7
100
AcDbSpline
 70
8
 71
3
 72
8
 73
4
 74
0
 40
0
 40
0
 40
0
 40
0
 40
1
 40
1
 40
1
 40
1
 10
55.186100
 20
175.988190
 30
0.0
 10
55.228100
 20
176.813690
 30
0.0
 10
55.393900
 20
177.448690
 30
0.0
 10
55.683500
 20
177.893190
 30
0.0
  0
SPLINE
  5
389
100
AcDbEntity
  8
Calque_1
 62
7
100
AcDbSpline
 70
8
 71
3
 72
8
 73
4
 74
0
 40
0
 40
0
 40
0
 40
0
 40
1
 40
1
 40
1
 40
1
 10
55.683500
 20
177.893190
 30
0.0
 10
55.972833
 20
178.344743
 30
0.0
 10
56.509067
 20
178.792770
 30
0.0
 10
57.292200
 20
179.237270
 30
0.0
  0
LWPOLYLINE
  5
38a
100
AcDbEntity
  8
Calque_1
 62
7
100
AcDbPolyline
 90
4
 70
0
 10
56.233900
 20
176.908940
 30
0.0
 10
60.181500
 20
176.908940
 30
0.0
 10
60.181500
 20
175.988190
 30
0.0
 10
55.186100
 20
175.988190
 30
0.0
  0
SPLINE
  5
38b
100
AcDbEntity
  8
Calque_1
 62
7
100
AcDbSpline
 70
8
 71
3
 72
8
 73
4
 74
0
 40
0
 40
0
 40
0
 40
0
 40
1
 40
1
 40
1
 40
1
 10
58.265900
 20
179.787600
 30
0.0
 10
58.943233
 20
180.175653
 30
0.0
 10
59.281900
 20
180.669540
 30
0.0
 10
59.281900
 20
181.269260
 30
0.0
  0
SPLINE
  5
38c
100
AcDbEntity
  8
Calque_1
 62
7
100
AcDbSpline
 70
8
 71
3
 72
8
 73
4
 74
0
 40
0
 40
0
 40
0
 40
0
 40
1
 40
1
 40
1
 40
1
 10
59.281900
 20
181.269260
 30
0.0
 10
59.281900
 20
181.671427
 30
0.0
 10
59.140767
 20
182.006563
 30
0.0
 10
58.858500
 20
182.274670
 30
0.0
  0
SPLINE
  5
38d
100
AcDbEntity
  8
Calque_1
 62
7
100
AcDbSpline
 70
8
 71
3
 72
8
 73
4
 74
0
 40
0
 40
0
 40
0
 40
0
 40
1
 40
1
 40
1
 40
1
 10
58.858500
 20
182.274670
 30
0.0
 10
58.576300
 20
182.542783
 30
0.0
 10
58.223533
 20
182.676840
 30
0.0
 10
57.800200
 20
182.676840
 30
0.0
  0
SPLINE
  5
38e
100
AcDbEntity
  8
Calque_1
 62
7
100
AcDbSpline
 70
8
 71
3
 72
8
 73
4
 74
0
 40
0
 40
0
 40
0
 40
0
 40
1
 40
1
 40
1
 40
1
 10
57.800200
 20
182.676840
 30
0.0
 10
56.861800
 20
182.676840
 30
0.0
 10
56.357333
 20
182.080647
 30
0.0
 10
56.286800
 20
180.888260
 30
0.0
  0
LWPOLYLINE
  5
38f
100
AcDbEntity
  8
Calque_1
 62
7
100
AcDbPolyline
 90
2
 70
0
 10
57.292200
 20
179.237270
 30
0.0
 10
58.265900
 20
179.787600
 30
0.0
  0
LWPOLYLINE
  5
390
100
AcDbEntity
  8
Calque_1
 62
7
100
AcDbPolyline
 90
2
 70
0
 10
56.286800
 20
180.888260
 30
0.0
 10
55.355500
 20
180.888260
 30
0.0
  0
ENDSEC
  0
SECTION
  2
OBJECTS
  0
DICTIONARY
  5
C
330
0
100
AcDbDictionary
  3
ACAD_GROUP
350
D
  3
ACAD_MLINESTYLE
350
17
  0
DICTIONARY
  5
D
330
C
100
AcDbDictionary
  0
DICTIONARY
  5
1A
330
C
100
AcDbDictionary
  0
DICTIONARY
  5
17
330
C
100
AcDbDictionary
  3
STANDARD
350
18
  0
DICTIONARY
  5
19
330
C
100
AcDbDictionary
  0
ENDSEC
  0
EOF
