  0
SECTION
  2
HEADER
  9
$ACADVER
  1
AC1015
  9
$ACADMAINTVER
 70
     6
  9
$DWGCODEPAGE
  3
ANSI_1252
  9
$INSBASE
 10
0.0
 20
0.0
 30
0.0
  9
$EXTMIN
 10
4643.5985735742
 20
-15995.1131837078
 30
0.0
  9
$EXTMAX
 10
4688.9193659033
 20
-15932.6980392227
 30
0.0
  9
$LIMMIN
 10
0.0
 20
0.0
  9
$LIMMAX
 10
420.0
 20
297.0
  9
$ORTHOMODE
 70
     0
  9
$REGENMODE
 70
     1
  9
$FILLMODE
 70
     1
  9
$QTEXTMODE
 70
     0
  9
$MIRRTEXT
 70
     1
  9
$LTSCALE
 40
1.0
  9
$ATTMODE
 70
     1
  9
$TEXTSIZE
 40
3.5
  9
$TRACEWID
 40
1.0
  9
$TEXTSTYLE
  7
Standard
  9
$CLAYER
  8
0
  9
$CELTYPE
  6
ByLayer
  9
$CECOLOR
 62
   256
  9
$CELTSCALE
 40
1.0
  9
$DISPSILH
 70
     0
  9
$DIMSCALE
 40
1.0
  9
$DIMASZ
 40
3.302
  9
$DIMEXO
 40
1.0
  9
$DIMDLI
 40
3.75
  9
$DIMRND
 40
0.0
  9
$DIMDLE
 40
0.0
  9
$DIMEXE
 40
1.0
  9
$DIMTP
 40
0.0
  9
$DIMTM
 40
0.0
  9
$DIMTXT
 40
3.5
  9
$DIMCEN
 40
2.5
  9
$DIMTSZ
 40
0.0
  9
$DIMTOL
 70
     0
  9
$DIMLIM
 70
     0
  9
$DIMTIH
 70
     1
  9
$DIMTOH
 70
     1
  9
$DIMSE1
 70
     0
  9
$DIMSE2
 70
     0
  9
$DIMTAD
 70
     1
  9
$DIMZIN
 70
     0
  9
$DIMBLK
  1

  9
$DIMASO
 70
     1
  9
$DIMSHO
 70
     1
  9
$DIMPOST
  1

  9
$DIMAPOST
  1

  9
$DIMALT
 70
     0
  9
$DIMALTD
 70
     3
  9
$DIMALTF
 40
0.0393700787
  9
$DIMLFAC
 40
1.0
  9
$DIMTOFL
 70
     1
  9
$DIMTVP
 40
0.0
  9
$DIMTIX
 70
     0
  9
$DIMSOXD
 70
     0
  9
$DIMSAH
 70
     0
  9
$DIMBLK1
  1

  9
$DIMBLK2
  1

  9
$DIMSTYLE
  2
ISO-25
  9
$DIMCLRD
 70
     0
  9
$DIMCLRE
 70
     0
  9
$DIMCLRT
 70
     0
  9
$DIMTFAC
 40
1.0
  9
$DIMGAP
 40
1.524
  9
$DIMJUST
 70
     0
  9
$DIMSD1
 70
     0
  9
$DIMSD2
 70
     0
  9
$DIMTOLJ
 70
     0
  9
$DIMTZIN
 70
     0
  9
$DIMALTZ
 70
     0
  9
$DIMALTTZ
 70
     0
  9
$DIMUPT
 70
     0
  9
$DIMDEC
 70
     2
  9
$DIMTDEC
 70
     2
  9
$DIMALTU
 70
     2
  9
$DIMALTTD
 70
     3
  9
$DIMTXSTY
  7
Standard
  9
$DIMAUNIT
 70
     0
  9
$DIMADEC
 70
     2
  9
$DIMALTRND
 40
0.0
  9
$DIMAZIN
 70
     0
  9
$DIMDSEP
 70
    44
  9
$DIMATFIT
 70
     3
  9
$DIMFRAC
 70
     0
  9
$DIMLDRBLK
  1

  9
$DIMLUNIT
 70
     2
  9
$DIMLWD
 70
    -2
  9
$DIMLWE
 70
    -2
  9
$DIMTMOVE
 70
     0
  9
$LUNITS
 70
     2
  9
$LUPREC
 70
     2
  9
$SKETCHINC
 40
1.0
  9
$FILLETRAD
 40
10.0
  9
$AUNITS
 70
     0
  9
$AUPREC
 70
     2
  9
$MENU
  1
.
  9
$ELEVATION
 40
0.0
  9
$PELEVATION
 40
0.0
  9
$THICKNESS
 40
0.0
  9
$LIMCHECK
 70
     0
  9
$CHAMFERA
 40
0.0
  9
$CHAMFERB
 40
0.0
  9
$CHAMFERC
 40
0.0
  9
$CHAMFERD
 40
0.0
  9
$SKPOLY
 70
     0
  9
$TDCREATE
 40
2458171.632745278
  9
$TDUCREATE
 40
2458171.591078611
  9
$TDUPDATE
 40
2458171.63277184
  9
$TDUUPDATE
 40
2458171.591105174
  9
$TDINDWG
 40
0.0000000116
  9
$TDUSRTIMER
 40
0.0000000116
  9
$USRTIMER
 70
     1
  9
$ANGBASE
 50
0.0
  9
$ANGDIR
 70
     0
  9
$PDMODE
 70
     0
  9
$PDSIZE
 40
-1.0
  9
$PLINEWID
 40
0.0
  9
$SPLFRAME
 70
     0
  9
$SPLINETYPE
 70
     6
  9
$SPLINESEGS
 70
     8
  9
$HANDSEED
  5
102
  9
$SURFTAB1
 70
     6
  9
$SURFTAB2
 70
     6
  9
$SURFTYPE
 70
     6
  9
$SURFU
 70
     6
  9
$SURFV
 70
     6
  9
$UCSBASE
  2

  9
$UCSNAME
  2

  9
$UCSORG
 10
0.0
 20
0.0
 30
0.0
  9
$UCSXDIR
 10
1.0
 20
0.0
 30
0.0
  9
$UCSYDIR
 10
0.0
 20
1.0
 30
0.0
  9
$UCSORTHOREF
  2

  9
$UCSORTHOVIEW
 70
     0
  9
$UCSORGTOP
 10
0.0
 20
0.0
 30
0.0
  9
$UCSORGBOTTOM
 10
0.0
 20
0.0
 30
0.0
  9
$UCSORGLEFT
 10
0.0
 20
0.0
 30
0.0
  9
$UCSORGRIGHT
 10
0.0
 20
0.0
 30
0.0
  9
$UCSORGFRONT
 10
0.0
 20
0.0
 30
0.0
  9
$UCSORGBACK
 10
0.0
 20
0.0
 30
0.0
  9
$PUCSBASE
  2

  9
$PUCSNAME
  2

  9
$PUCSORG
 10
0.0
 20
0.0
 30
0.0
  9
$PUCSXDIR
 10
1.0
 20
0.0
 30
0.0
  9
$PUCSYDIR
 10
0.0
 20
1.0
 30
0.0
  9
$PUCSORTHOREF
  2

  9
$PUCSORTHOVIEW
 70
     0
  9
$PUCSORGTOP
 10
0.0
 20
0.0
 30
0.0
  9
$PUCSORGBOTTOM
 10
0.0
 20
0.0
 30
0.0
  9
$PUCSORGLEFT
 10
0.0
 20
0.0
 30
0.0
  9
$PUCSORGRIGHT
 10
0.0
 20
0.0
 30
0.0
  9
$PUCSORGFRONT
 10
0.0
 20
0.0
 30
0.0
  9
$PUCSORGBACK
 10
0.0
 20
0.0
 30
0.0
  9
$USERI1
 70
     0
  9
$USERI2
 70
     0
  9
$USERI3
 70
     0
  9
$USERI4
 70
     0
  9
$USERI5
 70
     0
  9
$USERR1
 40
0.0
  9
$USERR2
 40
0.0
  9
$USERR3
 40
0.0
  9
$USERR4
 40
0.0
  9
$USERR5
 40
0.0
  9
$WORLDVIEW
 70
     1
  9
$SHADEDGE
 70
     3
  9
$SHADEDIF
 70
    70
  9
$TILEMODE
 70
     1
  9
$MAXACTVP
 70
    64
  9
$PINSBASE
 10
0.0
 20
0.0
 30
0.0
  9
$PLIMCHECK
 70
     0
  9
$PEXTMIN
 10
1.0000000000E+20
 20
1.0000000000E+20
 30
1.0000000000E+20
  9
$PEXTMAX
 10
-1.0000000000E+20
 20
-1.0000000000E+20
 30
-1.0000000000E+20
  9
$PLIMMIN
 10
0.0
 20
0.0
  9
$PLIMMAX
 10
420.0
 20
297.0
  9
$UNITMODE
 70
     0
  9
$VISRETAIN
 70
     1
  9
$PLINEGEN
 70
     0
  9
$PSLTSCALE
 70
     1
  9
$TREEDEPTH
 70
  3020
  9
$CMLSTYLE
  2
Standard
  9
$CMLJUST
 70
     0
  9
$CMLSCALE
 40
20.0
  9
$PROXYGRAPHICS
 70
     1
  9
$MEASUREMENT
 70
     1
  9
$CELWEIGHT
370
    -1
  9
$ENDCAPS
280
     0
  9
$JOINSTYLE
280
     0
  9
$LWDISPLAY
290
     1
  9
$INSUNITS
 70
     4
  9
$HYPERLINKBASE
  1

  9
$STYLESHEET
  1

  9
$XEDIT
290
     1
  9
$CEPSNTYPE
380
     0
  9
$PSTYLEMODE
290
     1
  9
$FINGERPRINTGUID
  2
{81B2C368-699B-42C9-9BE5-FBE295BA93A7}
  9
$VERSIONGUID
  2
{FAEB1C32-E019-11D5-929B-00C0DF256EC4}
  9
$EXTNAMES
290
     1
  9
$PSVPSCALE
 40
0.0
  9
$OLESTARTUP
290
     0
  0
ENDSEC
  0
SECTION
  2
CLASSES
  0
CLASS
  1
ACDBDICTIONARYWDFLT
  2
AcDbDictionaryWithDefault
  3
ObjectDBX Classes
 90
        0
280
     0
281
     0
  0
CLASS
  1
VISUALSTYLE
  2
AcDbVisualStyle
  3
ObjectDBX Classes
 90
     4095
280
     0
281
     0
  0
CLASS
  1
MATERIAL
  2
AcDbMaterial
  3
ObjectDBX Classes
 90
     1153
280
     0
281
     0
  0
CLASS
  1
SCALE
  2
AcDbScale
  3
ObjectDBX Classes
 90
     1153
280
     0
281
     0
  0
CLASS
  1
TABLESTYLE
  2
AcDbTableStyle
  3
ObjectDBX Classes
 90
     4095
280
     0
281
     0
  0
CLASS
  1
MLEADERSTYLE
  2
AcDbMLeaderStyle
  3
ACDB_MLEADERSTYLE_CLASS
 90
     4095
280
     0
281
     0
  0
CLASS
  1
SUN
  2
AcDbSun
  3
SCENEOE
 90
     1153
280
     0
281
     0
  0
CLASS
  1
ACDBPLACEHOLDER
  2
AcDbPlaceHolder
  3
ObjectDBX Classes
 90
        0
280
     0
281
     0
  0
CLASS
  1
LAYOUT
  2
AcDbLayout
  3
ObjectDBX Classes
 90
        0
280
     0
281
     0
  0
ENDSEC
  0
SECTION
  2
TABLES
  0
TABLE
  2
VPORT
  5
8
330
0
100
AcDbSymbolTable
 70
     1
  0
VPORT
  5
29
330
8
100
AcDbSymbolTableRecord
100
AcDbViewportTableRecord
  2
*Active
 70
     0
 10
0.0
 20
0.0
 11
1.0
 21
1.0
 12
4666.2589697388
 22
-15963.9056114652
 13
0.0
 23
0.0
 14
10.0
 24
10.0
 15
10.0
 25
10.0
 16
0.0
 26
0.0
 36
1.0
 17
0.0
 27
0.0
 37
0.0
 40
63.6634473748
 41
0.7261185198
 42
50.0
 43
0.0
 44
0.0
 50
0.0
 51
0.0
 71
     0
 72
   100
 73
     1
 74
     3
 75
     0
 76
     0
 77
     0
 78
     0
281
     0
 65
     1
110
0.0
120
0.0
130
0.0
111
1.0
121
0.0
131
0.0
112
0.0
122
1.0
132
0.0
 79
     0
146
0.0
  0
ENDTAB
  0
TABLE
  2
LTYPE
  5
5
330
0
100
AcDbSymbolTable
 70
     6
  0
LTYPE
  5
14
330
5
100
AcDbSymbolTableRecord
100
AcDbLinetypeTableRecord
  2
ByBlock
 70
     0
  3

 72
    65
 73
     0
 40
0.0
  0
LTYPE
  5
15
330
5
100
AcDbSymbolTableRecord
100
AcDbLinetypeTableRecord
  2
ByLayer
 70
     0
  3

 72
    65
 73
     0
 40
0.0
  0
LTYPE
  5
16
330
5
100
AcDbSymbolTableRecord
100
AcDbLinetypeTableRecord
  2
Continuous
 70
     0
  3
Solid line
 72
    65
 73
     0
 40
0.0
  0
LTYPE
  5
6E
330
5
100
AcDbSymbolTableRecord
100
AcDbLinetypeTableRecord
  2
HIDDEN
 70
     0
  3
Hidden __ __ __ __ __ __ __ __ __ __ __ __ __ __
 72
    65
 73
     2
 40
1.905
 49
1.27
 74
     0
 49
-0.635
 74
     0
  0
LTYPE
  5
6F
330
5
100
AcDbSymbolTableRecord
100
AcDbLinetypeTableRecord
  2
PHANTOM
 70
     0
  3
Phantom ______  __  __  ______  __  __  ______
 72
    65
 73
     6
 40
12.7
 49
6.35
 74
     0
 49
-1.27
 74
     0
 49
1.27
 74
     0
 49
-1.27
 74
     0
 49
1.27
 74
     0
 49
-1.27
 74
     0
  0
LTYPE
  5
70
330
5
100
AcDbSymbolTableRecord
100
AcDbLinetypeTableRecord
  2
CENTER
 70
     0
  3
Center ____ _ ____ _ ____ _ ____ _ ____ _ ____
 72
    65
 73
     4
 40
10.16
 49
6.35
 74
     0
 49
-1.27
 74
     0
 49
1.27
 74
     0
 49
-1.27
 74
     0
  0
LTYPE
  5
71
330
5
100
AcDbSymbolTableRecord
100
AcDbLinetypeTableRecord
  2
CENTERX2
 70
     0
  3
Center (2x) ________  __  ________  __  _____
 72
    65
 73
     4
 40
20.32
 49
12.7
 74
     0
 49
-2.54
 74
     0
 49
2.54
 74
     0
 49
-2.54
 74
     0
  0
LTYPE
  5
72
330
5
100
AcDbSymbolTableRecord
100
AcDbLinetypeTableRecord
  2
DOT2
 70
     0
  3
Dot (.5x) ........................................
 72
    65
 73
     2
 40
0.635
 49
0.0
 74
     0
 49
-0.635
 74
     0
  0
ENDTAB
  0
TABLE
  2
LAYER
  5
2
330
0
100
AcDbSymbolTable
 70
     1
  0
LAYER
  5
10
330
2
100
AcDbSymbolTableRecord
100
AcDbLayerTableRecord
  2
0
 70
     0
 62
     7
  6
Continuous
370
    -3
390
F
  0
ENDTAB
  0
TABLE
  2
STYLE
  5
3
330
0
100
AcDbSymbolTable
 70
     1
  0
STYLE
  5
11
330
3
100
AcDbSymbolTableRecord
100
AcDbTextStyleTableRecord
  2
Standard
 70
     0
 40
0.0
 41
1.0
 50
0.0
 71
     0
 42
3.5
  3
txt
  4

  0
ENDTAB
  0
TABLE
  2
VIEW
  5
6
330
0
100
AcDbSymbolTable
 70
     0
  0
ENDTAB
  0
TABLE
  2
UCS
  5
7
330
0
100
AcDbSymbolTable
 70
     0
  0
ENDTAB
  0
TABLE
  2
APPID
  5
9
330
0
100
AcDbSymbolTable
 70
     1
  0
APPID
  5
12
330
9
100
AcDbSymbolTableRecord
100
AcDbRegAppTableRecord
  2
ACAD
 70
     0
  0
ENDTAB
  0
TABLE
  2
DIMSTYLE
  5
A
330
0
100
AcDbSymbolTable
 70
     1
100
AcDbDimStyleTable
  0
DIMSTYLE
105
27
330
A
100
AcDbSymbolTableRecord
100
AcDbDimStyleTableRecord
  2
ISO-25
 70
     0
 41
2.5
 42
0.625
 43
3.75
 44
1.25
 73
     0
 74
     0
 77
     1
 78
     8
140
2.5
141
2.5
143
0.0393700787
147
0.625
171
     3
172
     1
178
     0
271
     2
272
     2
274
     3
278
    44
283
     0
284
     8
340
11
  0
ENDTAB
  0
TABLE
  2
BLOCK_RECORD
  5
1
330
0
100
AcDbSymbolTable
 70
     1
  0
BLOCK_RECORD
  5
1F
330
1
100
AcDbSymbolTableRecord
100
AcDbBlockTableRecord
  2
*Model_Space
340
22
  0
BLOCK_RECORD
  5
1B
330
1
100
AcDbSymbolTableRecord
100
AcDbBlockTableRecord
  2
*Paper_Space
340
1E
  0
BLOCK_RECORD
  5
23
330
1
100
AcDbSymbolTableRecord
100
AcDbBlockTableRecord
  2
*Paper_Space0
340
26
  0
ENDTAB
  0
ENDSEC
  0
SECTION
  2
BLOCKS
  0
BLOCK
  5
20
330
1F
100
AcDbEntity
  8
0
100
AcDbBlockBegin
  2
*Model_Space
 70
     0
 10
0.0
 20
0.0
 30
0.0
  3
*Model_Space
  1

  0
ENDBLK
  5
21
330
1F
100
AcDbEntity
  8
0
100
AcDbBlockEnd
  0
BLOCK
  5
1C
330
1B
100
AcDbEntity
 67
     1
  8
0
100
AcDbBlockBegin
  2
*Paper_Space
 70
     0
 10
0.0
 20
0.0
 30
0.0
  3
*Paper_Space
  1

  0
ENDBLK
  5
1D
330
1B
100
AcDbEntity
 67
     1
  8
0
100
AcDbBlockEnd
  0
BLOCK
  5
24
330
23
100
AcDbEntity
  8
0
100
AcDbBlockBegin
  2
*Paper_Space0
 70
     0
 10
0.0
 20
0.0
 30
0.0
  3
*Paper_Space0
  1

  0
ENDBLK
  5
25
330
23
100
AcDbEntity
  8
0
100
AcDbBlockEnd
  0
ENDSEC
  0
SECTION
  2
ENTITIES
  0
SPLINE
  5
73
330
1F
100
AcDbEntity
  8
0
  6
Continuous
 62
     7
370
    25
100
AcDbSpline
210
0.0
220
0.0
230
1.0
 70
     8
 71
     3
 72
     8
 73
     4
 74
     0
 42
0.000000001
 43
0.00000001
 40
1.0
 40
1.0
 40
1.0
 40
1.0
 40
2.0
 40
2.0
 40
2.0
 40
2.0
 10
4647.368285196731
 20
-15940.70834098049
 30
0.0
 10
4647.368285196731
 20
-15941.2844918594
 30
0.0
 10
4647.836907755324
 20
-15941.75311441799
 30
0.0
 10
4648.41305863423
 20
-15941.75311441799
 30
0.0
  0
SPLINE
  5
74
330
1F
100
AcDbEntity
  8
0
  6
Continuous
 62
     7
370
    25
100
AcDbSpline
210
0.0
220
0.0
230
1.0
 70
     8
 71
     3
 72
     8
 73
     4
 74
     0
 42
0.000000001
 43
0.00000001
 40
0.9488139530792878
 40
0.9488139530792878
 40
0.9488139530792878
 40
0.9488139530792878
 40
1.0
 40
1.0
 40
1.0
 40
1.0
 10
4647.368843674855
 20
-15940.69485343167
 30
0.0
 10
4647.368473826037
 20
-15940.69930047413
 30
0.0
 10
4647.368285196731
 20
-15940.70379879367
 30
0.0
 10
4647.368285196731
 20
-15940.70834098049
 30
0.0
  0
SPLINE
  5
75
330
1F
100
AcDbEntity
  8
0
  6
Continuous
 62
     7
370
    25
100
AcDbSpline
210
0.0
220
0.0
230
1.0
 70
     8
 71
     3
 72
     8
 73
     4
 74
     0
 42
0.000000001
 43
0.00000001
 40
2.0
 40
2.0
 40
2.0
 40
2.0
 40
2.051186046941163
 40
2.051186046941163
 40
2.051186046941163
 40
2.051186046941163
 10
4647.368285196731
 20
-15940.68136588284
 30
0.0
 10
4647.368285196731
 20
-15940.68590806966
 30
0.0
 10
4647.368473826037
 20
-15940.69040638921
 30
0.0
 10
4647.368843674855
 20
-15940.69485343167
 30
0.0
  0
LINE
  5
76
330
1F
100
AcDbEntity
  8
0
  6
Continuous
 62
     7
370
    25
100
AcDbLine
 10
4647.3682851967
 20
-15936.8237408828
 30
0.0
 11
4647.3682851967
 21
-15940.6813658828
 31
0.0
  0
SPLINE
  5
77
330
1F
100
AcDbEntity
  8
0
  6
Continuous
 62
     7
370
    25
100
AcDbSpline
210
0.0
220
0.0
230
1.0
 70
     8
 71
     3
 72
     8
 73
     4
 74
     0
 42
0.000000001
 43
0.00000001
 40
0.9343400099232883
 40
0.9343400099232883
 40
0.9343400099232883
 40
0.9343400099232883
 40
1.0
 40
1.0
 40
1.0
 40
1.0
 10
4647.369200725882
 20
-15936.80649331439
 30
0.0
 10
4647.368595586654
 20
-15936.81215989309
 30
0.0
 10
4647.368285196731
 20
-15936.81791429611
 30
0.0
 10
4647.368285196731
 20
-15936.82374088284
 30
0.0
  0
SPLINE
  5
78
330
1F
100
AcDbEntity
  8
0
  6
Continuous
 62
     7
370
    25
100
AcDbSpline
210
0.0
220
0.0
230
1.0
 70
     8
 71
     3
 72
     8
 73
     4
 74
     0
 42
0.000000001
 43
0.00000001
 40
0.0256033372656054
 40
0.0256033372656054
 40
0.0256033372656054
 40
0.0256033372656054
 40
0.9743966626896947
 40
0.9743966626896947
 40
0.9743966626896947
 40
0.9743966626896947
 10
4648.369022003353
 20
-15935.80667203699
 30
0.0
 10
4647.827822697546
 20
-15935.82921526622
 30
0.0
 10
4647.391743955151
 20
-15936.26529400859
 30
0.0
 10
4647.369200725881
 20
-15936.80649331439
 30
0.0
  0
SPLINE
  5
79
330
1F
100
AcDbEntity
  8
0
  6
Continuous
 62
     7
370
    25
100
AcDbSpline
210
0.0
220
0.0
230
1.0
 70
     8
 71
     3
 72
     8
 73
     4
 74
     0
 42
0.000000001
 43
0.00000001
 40
1.0
 40
1.0
 40
1.0
 40
1.0
 40
1.065659989785375
 40
1.065659989785375
 40
1.065659989785375
 40
1.065659989785375
 10
4648.386269571731
 20
-15935.80575650784
 30
0.0
 10
4648.38044298503
 20
-15935.80575650784
 30
0.0
 10
4648.374688582031
 20
-15935.80606689776
 30
0.0
 10
4648.369022003352
 20
-15935.80667203698
 30
0.0
  0
LINE
  5
7A
330
1F
100
AcDbEntity
  8
0
  6
Continuous
 62
     7
370
    25
100
AcDbLine
 10
4652.1905024819
 20
-15935.8057565078
 30
0.0
 11
4648.3862695717
 21
-15935.8057565078
 31
0.0
  0
SPLINE
  5
7B
330
1F
100
AcDbEntity
  8
0
  6
Continuous
 62
     7
370
    25
100
AcDbSpline
210
0.0
220
0.0
230
1.0
 70
     8
 71
     3
 72
     8
 73
     4
 74
     0
 42
0.000000001
 43
0.00000001
 40
5.949170805932469
 40
5.949170805932469
 40
5.949170805932469
 40
5.949170805932469
 40
6.0
 40
6.0
 40
6.0
 40
6.0
 10
4652.203897013135
 20
-15935.80630727698
 30
0.0
 10
4652.199480264406
 20
-15935.80594251618
 30
0.0
 10
4652.195013002023
 20
-15935.80575650784
 30
0.0
 10
4652.190502481885
 20
-15935.80575650784
 30
0.0
  0
SPLINE
  5
7C
330
1F
100
AcDbEntity
  8
0
  6
Continuous
 62
     7
370
    25
100
AcDbSpline
210
0.0
220
0.0
230
1.0
 70
     8
 71
     3
 72
     8
 73
     4
 74
     0
 42
0.000000001
 43
0.00000001
 40
0.0
 40
0.0
 40
0.0
 40
0.0
 40
0.0508291940722348
 40
0.0508291940722348
 40
0.0508291940722348
 40
0.0508291940722348
 10
4652.217291544386
 20
-15935.80575650784
 30
0.0
 10
4652.212781024248
 20
-15935.80575650784
 30
0.0
 10
4652.208313761867
 20
-15935.80594251619
 30
0.0
 10
4652.203897013137
 20
-15935.80630727699
 30
0.0
  0
SPLINE
  5
7D
330
1F
100
AcDbEntity
  8
0
  6
Continuous
 62
     7
370
    25
100
AcDbSpline
210
0.0
220
0.0
230
1.0
 70
     8
 71
     3
 72
     8
 73
     4
 74
     0
 42
0.000000001
 43
0.00000001
 40
5.0
 40
5.0
 40
5.0
 40
5.0
 40
6.0
 40
6.0
 40
6.0
 40
6.0
 10
4653.262064981886
 20
-15936.85052994534
 30
0.0
 10
4653.262064981886
 20
-15936.27437906643
 30
0.0
 10
4652.793442423293
 20
-15935.80575650784
 30
0.0
 10
4652.217291544386
 20
-15935.80575650784
 30
0.0
  0
SPLINE
  5
7E
330
1F
100
AcDbEntity
  8
0
  6
Continuous
 62
     7
370
    25
100
AcDbSpline
210
0.0
220
0.0
230
1.0
 70
     8
 71
     3
 72
     8
 73
     4
 74
     0
 42
0.000000001
 43
0.00000001
 40
4.463813328681506
 40
4.463813328681506
 40
4.463813328681506
 40
4.463813328681506
 40
5.0
 40
5.0
 40
5.0
 40
5.0
 10
4653.208486856821
 20
-15936.9703135439
 30
0.0
 10
4653.24136652275
 20
-15936.94087744109
 30
0.0
 10
4653.262064981886
 20
-15936.89811049079
 30
0.0
 10
4653.262064981886
 20
-15936.85052994534
 30
0.0
  0
LINE
  5
7F
330
1F
100
AcDbEntity
  8
0
  6
Continuous
 62
     7
370
    25
100
AcDbLine
 10
4653.2084868569
 20
-15940.5885573819
 30
0.0
 11
4653.2084868569
 21
-15936.970313544
 31
0.0
  0
SPLINE
  5
80
330
1F
100
AcDbEntity
  8
0
  6
Continuous
 62
     7
370
    25
100
AcDbSpline
210
0.0
220
0.0
230
1.0
 70
     8
 71
     3
 72
     8
 73
     4
 74
     0
 42
0.000000001
 43
0.00000001
 40
5.0
 40
5.0
 40
5.0
 40
5.0
 40
5.536186671324711
 40
5.536186671324711
 40
5.536186671324711
 40
5.536186671324711
 10
4653.262064981886
 20
-15940.70834098049
 30
0.0
 10
4653.262064981886
 20
-15940.66076043504
 30
0.0
 10
4653.24136652275
 20
-15940.61799348474
 30
0.0
 10
4653.208486856821
 20
-15940.58855738193
 30
0.0
  0
SPLINE
  5
81
330
1F
100
AcDbEntity
  8
0
  6
Continuous
 62
     7
370
    25
100
AcDbSpline
210
0.0
220
0.0
230
1.0
 70
     8
 71
     3
 72
     8
 73
     4
 74
     0
 42
0.000000001
 43
0.00000001
 40
4.0
 40
4.0
 40
4.0
 40
4.0
 40
5.0
 40
5.0
 40
5.0
 40
5.0
 10
4652.217291544386
 20
-15941.75311441799
 30
0.0
 10
4652.793442423293
 20
-15941.75311441799
 30
0.0
 10
4653.262064981886
 20
-15941.2844918594
 30
0.0
 10
4653.262064981886
 20
-15940.70834098049
 30
0.0
  0
SPLINE
  5
82
330
1F
100
AcDbEntity
  8
0
  6
Continuous
 62
     7
370
    25
100
AcDbSpline
210
0.0
220
0.0
230
1.0
 70
     8
 71
     3
 72
     8
 73
     4
 74
     0
 42
0.000000001
 43
0.00000001
 40
3.46381332868439
 40
3.46381332868439
 40
3.46381332868439
 40
3.46381332868439
 40
4.0
 40
4.0
 40
4.0
 40
4.0
 10
4652.097507945823
 20
-15941.69953629293
 30
0.0
 10
4652.126944048631
 20
-15941.73241595886
 30
0.0
 10
4652.169710998935
 20
-15941.75311441799
 30
0.0
 10
4652.217291544386
 20
-15941.75311441799
 30
0.0
  0
LINE
  5
83
330
1F
100
AcDbEntity
  8
0
  6
Continuous
 62
     7
370
    25
100
AcDbLine
 10
4648.5328422329
 20
-15941.699536293
 30
0.0
 11
4652.0975079457
 21
-15941.699536293
 31
0.0
  0
SPLINE
  5
84
330
1F
100
AcDbEntity
  8
0
  6
Continuous
 62
     7
370
    25
100
AcDbSpline
210
0.0
220
0.0
230
1.0
 70
     8
 71
     3
 72
     8
 73
     4
 74
     0
 42
0.000000001
 43
0.00000001
 40
2.0
 40
2.0
 40
2.0
 40
2.0
 40
2.536186671313471
 40
2.536186671313471
 40
2.536186671313471
 40
2.536186671313471
 10
4648.41305863423
 20
-15941.75311441799
 30
0.0
 10
4648.460639179681
 20
-15941.753114418
 30
0.0
 10
4648.503406129985
 20
-15941.73241595886
 30
0.0
 10
4648.532842232793
 20
-15941.69953629293
 30
0.0
  0
SPLINE
  5
85
330
1F
100
AcDbEntity
  8
0
  6
Continuous
 62
     7
370
    25
100
AcDbSpline
210
0.0
220
0.0
230
1.0
 70
     8
 71
     3
 72
     8
 73
     4
 74
     0
 42
0.000000001
 43
0.00000001
 40
0.0256033372666304
 40
0.0256033372666304
 40
0.0256033372666304
 40
0.0256033372666304
 40
0.9743966626914663
 40
0.9743966626914663
 40
0.9743966626914663
 40
0.9743966626914663
 10
4667.925781768976
 20
-15956.00636930261
 30
0.0
 10
4667.384582463169
 20
-15956.02891253184
 30
0.0
 10
4666.948503720774
 20
-15956.46499127422
 30
0.0
 10
4666.925960491505
 20
-15957.00619058001
 30
0.0
  0
SPLINE
  5
86
330
1F
100
AcDbEntity
  8
0
  6
Continuous
 62
     7
370
    25
100
AcDbSpline
210
0.0
220
0.0
230
1.0
 70
     8
 71
     3
 72
     8
 73
     4
 74
     0
 42
0.000000001
 43
0.00000001
 40
1.0
 40
1.0
 40
1.0
 40
1.0
 40
1.065659989784634
 40
1.065659989784634
 40
1.065659989784634
 40
1.065659989784634
 10
4667.943029337355
 20
-15956.00545377346
 30
0.0
 10
4667.937202750654
 20
-15956.00545377346
 30
0.0
 10
4667.931448347656
 20
-15956.00576416338
 30
0.0
 10
4667.925781768977
 20
-15956.00636930261
 30
0.0
  0
LINE
  5
87
330
1F
100
AcDbEntity
  8
0
  6
Continuous
 62
     7
370
    25
100
AcDbLine
 10
4671.7472622475
 20
-15956.0054537735
 30
0.0
 11
4667.9430293374
 21
-15956.0054537735
 31
0.0
  0
SPLINE
  5
88
330
1F
100
AcDbEntity
  8
0
  6
Continuous
 62
     7
370
    25
100
AcDbSpline
210
0.0
220
0.0
230
1.0
 70
     8
 71
     3
 72
     8
 73
     4
 74
     0
 42
0.000000001
 43
0.00000001
 40
5.949170805925293
 40
5.949170805925293
 40
5.949170805925293
 40
5.949170805925293
 40
6.0
 40
6.0
 40
6.0
 40
6.0
 10
4671.760656778762
 20
-15956.00600454261
 30
0.0
 10
4671.756240030031
 20
-15956.00563978181
 30
0.0
 10
4671.751772767649
 20
-15956.00545377346
 30
0.0
 10
4671.747262247511
 20
-15956.00545377346
 30
0.0
  0
SPLINE
  5
89
330
1F
100
AcDbEntity
  8
0
  6
Continuous
 62
     7
370
    25
100
AcDbSpline
210
0.0
220
0.0
230
1.0
 70
     8
 71
     3
 72
     8
 73
     4
 74
     0
 42
0.000000001
 43
0.00000001
 40
0.0
 40
0.0
 40
0.0
 40
0.0
 40
0.050829194073526
 40
0.050829194073526
 40
0.050829194073526
 40
0.050829194073526
 10
4671.774051310012
 20
-15956.00545377346
 30
0.0
 10
4671.769540789873
 20
-15956.00545377346
 30
0.0
 10
4671.765073527489
 20
-15956.00563978181
 30
0.0
 10
4671.760656778759
 20
-15956.00600454261
 30
0.0
  0
SPLINE
  5
8A
330
1F
100
AcDbEntity
  8
0
  6
Continuous
 62
     7
370
    25
100
AcDbSpline
210
0.0
220
0.0
230
1.0
 70
     8
 71
     3
 72
     8
 73
     4
 74
     0
 42
0.000000001
 43
0.00000001
 40
5.0
 40
5.0
 40
5.0
 40
5.0
 40
6.0
 40
6.0
 40
6.0
 40
6.0
 10
4672.818824747511
 20
-15957.05022721096
 30
0.0
 10
4672.818824747511
 20
-15956.47407633206
 30
0.0
 10
4672.350202188917
 20
-15956.00545377346
 30
0.0
 10
4671.774051310012
 20
-15956.00545377346
 30
0.0
  0
SPLINE
  5
8B
330
1F
100
AcDbEntity
  8
0
  6
Continuous
 62
     7
370
    25
100
AcDbSpline
210
0.0
220
0.0
230
1.0
 70
     8
 71
     3
 72
     8
 73
     4
 74
     0
 42
0.000000001
 43
0.00000001
 40
4.463813328687698
 40
4.463813328687698
 40
4.463813328687698
 40
4.463813328687698
 40
5.0
 40
5.0
 40
5.0
 40
5.0
 10
4672.765246622448
 20
-15957.17001080953
 30
0.0
 10
4672.798126288374
 20
-15957.14057470672
 30
0.0
 10
4672.818824747511
 20
-15957.09780775642
 30
0.0
 10
4672.818824747511
 20
-15957.05022721096
 30
0.0
  0
LINE
  5
8C
330
1F
100
AcDbEntity
  8
0
  6
Continuous
 62
     7
370
    25
100
AcDbLine
 10
4672.7652466225
 20
-15959.8095006485
 30
0.0
 11
4672.7652466225
 21
-15957.1700108096
 31
0.0
  0
LINE
  5
8D
330
1F
100
AcDbEntity
  8
0
  6
Continuous
 62
     7
370
    25
100
AcDbLine
 10
4676.4087451577
 20
-15959.8095006485
 30
0.0
 11
4672.7652466225
 21
-15959.8095006485
 31
0.0
  0
LINE
  5
8E
330
1F
100
AcDbEntity
  8
0
  6
Continuous
 62
     7
370
    25
100
AcDbLine
 10
4676.4087451577
 20
-15932.6980392227
 30
0.0
 11
4676.4087451577
 21
-15959.8095006485
 31
0.0
  0
LINE
  5
8F
330
1F
100
AcDbEntity
  8
0
  6
Continuous
 62
     7
370
    25
100
AcDbLine
 10
4643.7783647866
 20
-15932.6980392227
 30
0.0
 11
4676.4087451577
 21
-15932.6980392227
 31
0.0
  0
LINE
  5
90
330
1F
100
AcDbEntity
  8
0
  6
Continuous
 62
     7
370
    25
100
AcDbLine
 10
4643.7783647866
 20
-15959.8095006485
 30
0.0
 11
4643.7783647866
 21
-15932.6980392227
 31
0.0
  0
LINE
  5
91
330
1F
100
AcDbEntity
  8
0
  6
Continuous
 62
     7
370
    25
100
AcDbLine
 10
4666.9250449624
 20
-15959.8095006485
 30
0.0
 11
4643.7783647866
 21
-15959.8095006485
 31
0.0
  0
LINE
  5
92
330
1F
100
AcDbEntity
  8
0
  6
Continuous
 62
     7
370
    25
100
AcDbLine
 10
4666.9250449624
 20
-15957.0234381485
 30
0.0
 11
4666.9250449624
 21
-15959.8095006485
 31
0.0
  0
SPLINE
  5
93
330
1F
100
AcDbEntity
  8
0
  6
Continuous
 62
     7
370
    25
100
AcDbSpline
210
0.0
220
0.0
230
1.0
 70
     8
 71
     3
 72
     8
 73
     4
 74
     0
 42
0.000000001
 43
0.00000001
 40
0.9343400099221814
 40
0.9343400099221814
 40
0.9343400099221814
 40
0.9343400099221814
 40
1.0
 40
1.0
 40
1.0
 40
1.0
 10
4666.925960491508
 20
-15957.00619058001
 30
0.0
 10
4666.925355352279
 20
-15957.01185715872
 30
0.0
 10
4666.925044962355
 20
-15957.01761156174
 30
0.0
 10
4666.925044962355
 20
-15957.02343814846
 30
0.0
  0
SPLINE
  5
94
330
1F
100
AcDbEntity
  8
0
  6
Continuous
 62
     7
370
    25
100
AcDbSpline
210
0.0
220
0.0
230
1.0
 70
     8
 71
     3
 72
     8
 73
     4
 74
     0
 42
0.000000001
 43
0.00000001
 40
2.0
 40
2.0
 40
2.0
 40
2.0
 40
3.0
 40
3.0
 40
3.0
 40
3.0
 10
4651.627932169386
 20
-15947.91478482815
 30
0.0
 10
4652.204083048293
 20
-15947.91478482815
 30
0.0
 10
4652.672705606887
 20
-15947.44616226956
 30
0.0
 10
4652.672705606887
 20
-15946.87001139065
 30
0.0
  0
SPLINE
  5
95
330
1F
100
AcDbEntity
  8
0
  6
Continuous
 62
     7
370
    25
100
AcDbSpline
210
0.0
220
0.0
230
1.0
 70
     8
 71
     3
 72
     8
 73
     4
 74
     0
 42
0.000000001
 43
0.00000001
 40
1.0
 40
1.0
 40
1.0
 40
1.0
 40
2.0
 40
2.0
 40
2.0
 40
2.0
 10
4650.583158731885
 20
-15946.87001139065
 30
0.0
 10
4650.583158731885
 20
-15947.44616226956
 30
0.0
 10
4651.05178129048
 20
-15947.91478482815
 30
0.0
 10
4651.627932169386
 20
-15947.91478482815
 30
0.0
  0
SPLINE
  5
96
330
1F
100
AcDbEntity
  8
0
  6
Continuous
 62
     7
370
    25
100
AcDbSpline
210
0.0
220
0.0
230
1.0
 70
     8
 71
     3
 72
     8
 73
     4
 74
     0
 42
0.000000001
 43
0.00000001
 40
0.0
 40
0.0
 40
0.0
 40
0.0
 40
1.0
 40
1.0
 40
1.0
 40
1.0
 10
4651.627932169386
 20
-15945.82523795315
 30
0.0
 10
4651.05178129048
 20
-15945.82523795315
 30
0.0
 10
4650.583158731885
 20
-15946.29386051175
 30
0.0
 10
4650.583158731885
 20
-15946.87001139065
 30
0.0
  0
SPLINE
  5
97
330
1F
100
AcDbEntity
  8
0
  6
Continuous
 62
     7
370
    25
100
AcDbSpline
210
0.0
220
0.0
230
1.0
 70
     8
 71
     3
 72
     8
 73
     4
 74
     0
 42
0.000000001
 43
0.00000001
 40
3.0
 40
3.0
 40
3.0
 40
3.0
 40
4.0
 40
4.0
 40
4.0
 40
4.0
 10
4652.672705606887
 20
-15946.87001139065
 30
0.0
 10
4652.672705606887
 20
-15946.29386051175
 30
0.0
 10
4652.204083048293
 20
-15945.82523795315
 30
0.0
 10
4651.627932169386
 20
-15945.82523795315
 30
0.0
  0
SPLINE
  5
98
330
1F
100
AcDbEntity
  8
0
  6
Continuous
 62
     7
370
    25
100
AcDbSpline
210
0.0
220
0.0
230
1.0
 70
     8
 71
     3
 72
     8
 73
     4
 74
     0
 42
0.000000001
 43
0.00000001
 40
2.0
 40
2.0
 40
2.0
 40
2.0
 40
3.0
 40
3.0
 40
3.0
 40
3.0
 10
4668.612755899855
 20
-15947.91478482815
 30
0.0
 10
4669.188906778762
 20
-15947.91478482815
 30
0.0
 10
4669.657529337355
 20
-15947.44616226956
 30
0.0
 10
4669.657529337355
 20
-15946.87001139065
 30
0.0
  0
SPLINE
  5
99
330
1F
100
AcDbEntity
  8
0
  6
Continuous
 62
     7
370
    25
100
AcDbSpline
210
0.0
220
0.0
230
1.0
 70
     8
 71
     3
 72
     8
 73
     4
 74
     0
 42
0.000000001
 43
0.00000001
 40
1.0
 40
1.0
 40
1.0
 40
1.0
 40
2.0
 40
2.0
 40
2.0
 40
2.0
 10
4667.567982462355
 20
-15946.87001139065
 30
0.0
 10
4667.567982462355
 20
-15947.44616226956
 30
0.0
 10
4668.036605020949
 20
-15947.91478482815
 30
0.0
 10
4668.612755899855
 20
-15947.91478482815
 30
0.0
  0
SPLINE
  5
9A
330
1F
100
AcDbEntity
  8
0
  6
Continuous
 62
     7
370
    25
100
AcDbSpline
210
0.0
220
0.0
230
1.0
 70
     8
 71
     3
 72
     8
 73
     4
 74
     0
 42
0.000000001
 43
0.00000001
 40
0.0
 40
0.0
 40
0.0
 40
0.0
 40
1.0
 40
1.0
 40
1.0
 40
1.0
 10
4668.612755899855
 20
-15945.82523795315
 30
0.0
 10
4668.036605020949
 20
-15945.82523795315
 30
0.0
 10
4667.567982462355
 20
-15946.29386051175
 30
0.0
 10
4667.567982462355
 20
-15946.87001139065
 30
0.0
  0
SPLINE
  5
9B
330
1F
100
AcDbEntity
  8
0
  6
Continuous
 62
     7
370
    25
100
AcDbSpline
210
0.0
220
0.0
230
1.0
 70
     8
 71
     3
 72
     8
 73
     4
 74
     0
 42
0.000000001
 43
0.00000001
 40
3.0
 40
3.0
 40
3.0
 40
3.0
 40
4.0
 40
4.0
 40
4.0
 40
4.0
 10
4669.657529337355
 20
-15946.87001139065
 30
0.0
 10
4669.657529337355
 20
-15946.29386051175
 30
0.0
 10
4669.188906778762
 20
-15945.82523795315
 30
0.0
 10
4668.612755899855
 20
-15945.82523795315
 30
0.0
  0
SPLINE
  5
9C
330
1F
100
AcDbEntity
  8
0
  6
Continuous
 62
     7
370
    25
100
AcDbSpline
210
0.0
220
0.0
230
1.0
 70
     8
 71
     3
 72
     8
 73
     4
 74
     0
 42
0.000000001
 43
0.00000001
 40
2.0
 40
2.0
 40
2.0
 40
2.0
 40
3.0
 40
3.0
 40
3.0
 40
3.0
 10
4660.093461954542
 20
-15954.23718961331
 30
0.0
 10
4660.492321329543
 20
-15954.23718961331
 30
0.0
 10
4660.816766642042
 20
-15953.91274430081
 30
0.0
 10
4660.816766642042
 20
-15953.51388492581
 30
0.0
  0
SPLINE
  5
9D
330
1F
100
AcDbEntity
  8
0
  6
Continuous
 62
     7
370
    25
100
AcDbSpline
210
0.0
220
0.0
230
1.0
 70
     8
 71
     3
 72
     8
 73
     4
 74
     0
 42
0.000000001
 43
0.00000001
 40
1.0
 40
1.0
 40
1.0
 40
1.0
 40
2.0
 40
2.0
 40
2.0
 40
2.0
 10
4659.370157267042
 20
-15953.51388492581
 30
0.0
 10
4659.370157267042
 20
-15953.91274430081
 30
0.0
 10
4659.694602579542
 20
-15954.23718961331
 30
0.0
 10
4660.093461954542
 20
-15954.23718961331
 30
0.0
  0
SPLINE
  5
9E
330
1F
100
AcDbEntity
  8
0
  6
Continuous
 62
     7
370
    25
100
AcDbSpline
210
0.0
220
0.0
230
1.0
 70
     8
 71
     3
 72
     8
 73
     4
 74
     0
 42
0.000000001
 43
0.00000001
 40
0.0
 40
0.0
 40
0.0
 40
0.0
 40
1.0
 40
1.0
 40
1.0
 40
1.0
 10
4660.093461954542
 20
-15952.79058023831
 30
0.0
 10
4659.694602579542
 20
-15952.79058023831
 30
0.0
 10
4659.370157267042
 20
-15953.11502555081
 30
0.0
 10
4659.370157267042
 20
-15953.51388492581
 30
0.0
  0
SPLINE
  5
9F
330
1F
100
AcDbEntity
  8
0
  6
Continuous
 62
     7
370
    25
100
AcDbSpline
210
0.0
220
0.0
230
1.0
 70
     8
 71
     3
 72
     8
 73
     4
 74
     0
 42
0.000000001
 43
0.00000001
 40
3.0
 40
3.0
 40
3.0
 40
3.0
 40
4.0
 40
4.0
 40
4.0
 40
4.0
 10
4660.816766642042
 20
-15953.51388492581
 30
0.0
 10
4660.816766642042
 20
-15953.11502555081
 30
0.0
 10
4660.492321329543
 20
-15952.79058023831
 30
0.0
 10
4660.093461954542
 20
-15952.79058023831
 30
0.0
  0
SPLINE
  5
A0
330
1F
100
AcDbEntity
  8
0
  6
Continuous
 62
     7
370
    25
100
AcDbSpline
210
0.0
220
0.0
230
1.0
 70
     8
 71
     3
 72
     8
 73
     4
 74
     0
 42
0.000000001
 43
0.00000001
 40
2.0
 40
2.0
 40
2.0
 40
2.0
 40
3.0
 40
3.0
 40
3.0
 40
3.0
 10
4660.093461954542
 20
-15941.163755043
 30
0.0
 10
4660.492321329543
 20
-15941.163755043
 30
0.0
 10
4660.816766642042
 20
-15940.83912369534
 30
0.0
 10
4660.816766642042
 20
-15940.44026432034
 30
0.0
  0
SPLINE
  5
A1
330
1F
100
AcDbEntity
  8
0
  6
Continuous
 62
     7
370
    25
100
AcDbSpline
210
0.0
220
0.0
230
1.0
 70
     8
 71
     3
 72
     8
 73
     4
 74
     0
 42
0.000000001
 43
0.00000001
 40
1.0
 40
1.0
 40
1.0
 40
1.0
 40
2.0
 40
2.0
 40
2.0
 40
2.0
 10
4659.370157267042
 20
-15940.44026432034
 30
0.0
 10
4659.370157267042
 20
-15940.83912369534
 30
0.0
 10
4659.694602579542
 20
-15941.163755043
 30
0.0
 10
4660.093461954542
 20
-15941.163755043
 30
0.0
  0
SPLINE
  5
A2
330
1F
100
AcDbEntity
  8
0
  6
Continuous
 62
     7
370
    25
100
AcDbSpline
210
0.0
220
0.0
230
1.0
 70
     8
 71
     3
 72
     8
 73
     4
 74
     0
 42
0.000000001
 43
0.00000001
 40
0.0
 40
0.0
 40
0.0
 40
0.0
 40
1.0
 40
1.0
 40
1.0
 40
1.0
 10
4660.093461954542
 20
-15939.71695963284
 30
0.0
 10
4659.694602579542
 20
-15939.71695963284
 30
0.0
 10
4659.370157267042
 20
-15940.04140494534
 30
0.0
 10
4659.370157267042
 20
-15940.44026432034
 30
0.0
  0
SPLINE
  5
A3
330
1F
100
AcDbEntity
  8
0
  6
Continuous
 62
     7
370
    25
100
AcDbSpline
210
0.0
220
0.0
230
1.0
 70
     8
 71
     3
 72
     8
 73
     4
 74
     0
 42
0.000000001
 43
0.00000001
 40
3.0
 40
3.0
 40
3.0
 40
3.0
 40
4.0
 40
4.0
 40
4.0
 40
4.0
 10
4660.816766642042
 20
-15940.44026432034
 30
0.0
 10
4660.816766642042
 20
-15940.04140494534
 30
0.0
 10
4660.492321329543
 20
-15939.71695963284
 30
0.0
 10
4660.093461954542
 20
-15939.71695963284
 30
0.0
  0
SPLINE
  5
A4
330
1F
100
AcDbEntity
  8
0
  6
Continuous
 62
     7
370
    25
100
AcDbSpline
210
0.0
220
0.0
230
1.0
 70
     8
 71
     3
 72
     8
 73
     4
 74
     0
 42
0.000000001
 43
0.00000001
 40
2.0
 40
2.0
 40
2.0
 40
2.0
 40
3.0
 40
3.0
 40
3.0
 40
3.0
 10
4660.093461954542
 20
-15950.59369107815
 30
0.0
 10
4662.087758829543
 20
-15950.59369107815
 30
0.0
 10
4663.710171427198
 20
-15948.97127848049
 30
0.0
 10
4663.710171427198
 20
-15946.97716764065
 30
0.0
  0
SPLINE
  5
A5
330
1F
100
AcDbEntity
  8
0
  6
Continuous
 62
     7
370
    25
100
AcDbSpline
210
0.0
220
0.0
230
1.0
 70
     8
 71
     3
 72
     8
 73
     4
 74
     0
 42
0.000000001
 43
0.00000001
 40
1.0
 40
1.0
 40
1.0
 40
1.0
 40
2.0
 40
2.0
 40
2.0
 40
2.0
 10
4656.476938517042
 20
-15946.97716764065
 30
0.0
 10
4656.476938517042
 20
-15948.97127848049
 30
0.0
 10
4658.099351114698
 20
-15950.59369107815
 30
0.0
 10
4660.093461954542
 20
-15950.59369107815
 30
0.0
  0
SPLINE
  5
A6
330
1F
100
AcDbEntity
  8
0
  6
Continuous
 62
     7
370
    25
100
AcDbSpline
210
0.0
220
0.0
230
1.0
 70
     8
 71
     3
 72
     8
 73
     4
 74
     0
 42
0.000000001
 43
0.00000001
 40
0.0
 40
0.0
 40
0.0
 40
0.0
 40
1.0
 40
1.0
 40
1.0
 40
1.0
 10
4660.093461954542
 20
-15943.36045816799
 30
0.0
 10
4658.099351114698
 20
-15943.36045816799
 30
0.0
 10
4656.476938517042
 20
-15944.98287076565
 30
0.0
 10
4656.476938517042
 20
-15946.97716764065
 30
0.0
  0
SPLINE
  5
A7
330
1F
100
AcDbEntity
  8
0
  6
Continuous
 62
     7
370
    25
100
AcDbSpline
210
0.0
220
0.0
230
1.0
 70
     8
 71
     3
 72
     8
 73
     4
 74
     0
 42
0.000000001
 43
0.00000001
 40
3.0
 40
3.0
 40
3.0
 40
3.0
 40
4.0
 40
4.0
 40
4.0
 40
4.0
 10
4663.710171427198
 20
-15946.97716764065
 30
0.0
 10
4663.710171427198
 20
-15944.98287076565
 30
0.0
 10
4662.087758829543
 20
-15943.36045816799
 30
0.0
 10
4660.093461954542
 20
-15943.36045816799
 30
0.0
  0
LINE
  5
A8
330
1F
100
AcDbEntity
  8
0
  6
Continuous
 62
     7
370
    25
100
AcDbLine
 10
4646.4815530543
 20
-15986.2136311493
 30
0.0
 11
4646.2672405543
 21
-15986.0528967743
 31
0.0
  0
SPLINE
  5
A9
330
1F
100
AcDbEntity
  8
0
  6
Continuous
 62
     7
370
    25
100
AcDbSpline
210
0.0
220
0.0
230
1.0
 70
     8
 71
     3
 72
     8
 73
     4
 74
     0
 42
0.000000001
 43
0.00000001
 40
20.0
 40
20.0
 40
20.0
 40
20.0
 40
21.0
 40
21.0
 40
21.0
 40
21.0
 10
4646.539782058233
 20
-15986.2980911102
 30
0.0
 10
4646.530108230108
 20
-15986.26423271176
 30
0.0
 10
4646.50964436292
 20
-15986.23465312192
 30
0.0
 10
4646.481553054326
 20
-15986.21363114926
 30
0.0
  0
LINE
  5
AA
330
1F
100
AcDbEntity
  8
0
  6
Continuous
 62
     7
370
    25
100
AcDbLine
 10
4646.6469383082
 20
-15986.6731379852
 30
0.0
 11
4646.5397820582
 21
-15986.2980911102
 31
0.0
  0
SPLINE
  5
AB
330
1F
100
AcDbEntity
  8
0
  6
Continuous
 62
     7
370
    25
100
AcDbSpline
210
0.0
220
0.0
230
1.0
 70
     8
 71
     3
 72
     8
 73
     4
 74
     0
 42
0.000000001
 43
0.00000001
 40
18.0
 40
18.0
 40
18.0
 40
18.0
 40
19.0
 40
19.0
 40
19.0
 40
19.0
 10
4646.648240554327
 20
-15986.75629570005
 30
0.0
 10
4646.655123855107
 20
-15986.72894853208
 30
0.0
 10
4646.654565749639
 20
-15986.70011308286
 30
0.0
 10
4646.646938308232
 20
-15986.6731379852
 30
0.0
  0
LINE
  5
AC
330
1F
100
AcDbEntity
  8
0
  6
Continuous
 62
     7
370
    25
100
AcDbLine
 10
4646.5377356715
 20
-15987.1430627899
 30
0.0
 11
4646.6482405543
 21
-15986.7562957
 31
0.0
  0
SPLINE
  5
AD
330
1F
100
AcDbEntity
  8
0
  6
Continuous
 62
     7
370
    25
100
AcDbSpline
210
0.0
220
0.0
230
1.0
 70
     8
 71
     3
 72
     8
 73
     4
 74
     0
 42
0.000000001
 43
0.00000001
 40
16.0
 40
16.0
 40
16.0
 40
16.0
 40
17.0
 40
17.0
 40
17.0
 40
17.0
 10
4646.456996413702
 20
-15987.23608036802
 30
0.0
 10
4646.495133620732
 20
-15987.21691874692
 30
0.0
 10
4646.524155105108
 20
-15987.18361845396
 30
0.0
 10
4646.537735671514
 20
-15987.14306278989
 30
0.0
  0
LINE
  5
AE
330
1F
100
AcDbEntity
  8
0
  6
Continuous
 62
     7
370
    25
100
AcDbLine
 10
4646.2099417262
 20
-15987.3553289032
 30
0.0
 11
4646.4569964137
 21
-15987.236080368
 31
0.0
  0
LINE
  5
AF
330
1F
100
AcDbEntity
  8
0
  6
Continuous
 62
     7
370
    25
100
AcDbLine
 10
4645.9956292262
 20
-15987.4089070282
 30
0.0
 11
4646.2099417262
 21
-15987.3553289032
 31
0.0
  0
SPLINE
  5
B0
330
1F
100
AcDbEntity
  8
0
  6
Continuous
 62
     7
370
    25
100
AcDbSpline
210
0.0
220
0.0
230
1.0
 70
     8
 71
     3
 72
     8
 73
     4
 74
     0
 42
0.000000001
 43
0.00000001
 40
13.0
 40
13.0
 40
13.0
 40
13.0
 40
14.0
 40
14.0
 40
14.0
 40
14.0
 10
4645.917494460577
 20
-15987.40890702817
 30
0.0
 10
4645.943167312139
 20
-15987.41523222349
 30
0.0
 10
4645.969956374639
 20
-15987.41523222349
 30
0.0
 10
4645.995629226202
 20
-15987.40890702817
 30
0.0
  0
LINE
  5
B1
330
1F
100
AcDbEntity
  8
0
  6
Continuous
 62
     7
370
    25
100
AcDbLine
 10
4645.7031819606
 20
-15987.3553289032
 30
0.0
 11
4645.9174944606
 21
-15987.4089070282
 31
0.0
  0
SPLINE
  5
B2
330
1F
100
AcDbEntity
  8
0
  6
Continuous
 62
     7
370
    25
100
AcDbSpline
210
0.0
220
0.0
230
1.0
 70
     8
 71
     3
 72
     8
 73
     4
 74
     0
 42
0.000000001
 43
0.00000001
 40
11.0
 40
11.0
 40
11.0
 40
11.0
 40
12.0
 40
12.0
 40
12.0
 40
12.0
 10
4645.653138503545
 20
-15987.33319071958
 30
0.0
 10
4645.668393386358
 20
-15987.34342265317
 30
0.0
 10
4645.685322585577
 20
-15987.35086405942
 30
0.0
 10
4645.703181960576
 20
-15987.35532890317
 30
0.0
  0
LINE
  5
B3
330
1F
100
AcDbEntity
  8
0
  6
Continuous
 62
     7
370
    25
100
AcDbLine
 10
4645.4924041285
 20
-15987.2260344696
 30
0.0
 11
4645.6531385035
 21
-15987.3331907196
 31
0.0
  0
SPLINE
  5
B4
330
1F
100
AcDbEntity
  8
0
  6
Continuous
 62
     7
370
    25
100
AcDbSpline
210
0.0
220
0.0
230
1.0
 70
     8
 71
     3
 72
     8
 73
     4
 74
     0
 42
0.000000001
 43
0.00000001
 40
9.0
 40
9.0
 40
9.0
 40
9.0
 40
10.0
 40
10.0
 40
10.0
 40
10.0
 10
4645.447755691045
 20
-15987.18138603208
 30
0.0
 10
4645.459475905889
 20
-15987.19905937192
 30
0.0
 10
4645.474730788702
 20
-15987.21431425474
 30
0.0
 10
4645.492404128546
 20
-15987.22603446958
 30
0.0
  0
LINE
  5
B5
330
1F
100
AcDbEntity
  8
0
  6
Continuous
 62
     7
370
    25
100
AcDbLine
 10
4645.340599441
 20
-15987.0206516571
 30
0.0
 11
4645.447755691
 21
-15987.1813860321
 31
0.0
  0
SPLINE
  5
B6
330
1F
100
AcDbEntity
  8
0
  6
Continuous
 62
     7
370
    25
100
AcDbSpline
210
0.0
220
0.0
230
1.0
 70
     8
 71
     3
 72
     8
 73
     4
 74
     0
 42
0.000000001
 43
0.00000001
 40
7.0
 40
7.0
 40
7.0
 40
7.0
 40
8.0
 40
8.0
 40
8.0
 40
8.0
 10
4645.318461257452
 20
-15986.97060820005
 30
0.0
 10
4645.322926101201
 20
-15986.98846757505
 30
0.0
 10
4645.330367507451
 20
-15987.00539677426
 30
0.0
 10
4645.340599441045
 20
-15987.02065165708
 30
0.0
  0
LINE
  5
B7
330
1F
100
AcDbEntity
  8
0
  6
Continuous
 62
     7
370
    25
100
AcDbLine
 10
4645.2648831325
 20
-15986.7562957
 30
0.0
 11
4645.3184612575
 21
-15986.9706082
 31
0.0
  0
SPLINE
  5
B8
330
1F
100
AcDbEntity
  8
0
  6
Continuous
 62
     7
370
    25
100
AcDbSpline
210
0.0
220
0.0
230
1.0
 70
     8
 71
     3
 72
     8
 73
     4
 74
     0
 42
0.000000001
 43
0.00000001
 40
5.0
 40
5.0
 40
5.0
 40
5.0
 40
6.0
 40
6.0
 40
6.0
 40
6.0
 10
4645.273068679327
 20
-15986.65397636411
 30
0.0
 10
4645.259116042608
 20
-15986.68616044614
 30
0.0
 10
4645.256325515265
 20
-15986.7220652313
 30
0.0
 10
4645.264883132451
 20
-15986.75629570005
 30
0.0
  0
LINE
  5
B9
330
1F
100
AcDbEntity
  8
0
  6
Continuous
 62
     7
370
    25
100
AcDbLine
 10
4645.4338030543
 20
-15986.2789294891
 30
0.0
 11
4645.2730686793
 21
-15986.6539763641
 31
0.0
  0
SPLINE
  5
BA
330
1F
100
AcDbEntity
  8
0
  6
Continuous
 62
     7
370
    25
100
AcDbSpline
210
0.0
220
0.0
230
1.0
 70
     8
 71
     3
 72
     8
 73
     4
 74
     0
 42
0.000000001
 43
0.00000001
 40
3.0
 40
3.0
 40
3.0
 40
3.0
 40
4.0
 40
4.0
 40
4.0
 40
4.0
 10
4645.467847487921
 20
-15986.22851396177
 30
0.0
 10
4645.453336745732
 20
-15986.24302470395
 30
0.0
 10
4645.441802566045
 20
-15986.26013993833
 30
0.0
 10
4645.433803054326
 20
-15986.27892948911
 30
0.0
  0
LINE
  5
BB
330
1F
100
AcDbEntity
  8
0
  6
Continuous
 62
     7
370
    25
100
AcDbLine
 10
4645.6285818629
 20
-15986.0677795868
 30
0.0
 11
4645.4678474879
 21
-15986.2285139618
 31
0.0
  0
SPLINE
  5
BC
330
1F
100
AcDbEntity
  8
0
  6
Continuous
 62
     7
370
    25
100
AcDbSpline
210
0.0
220
0.0
230
1.0
 70
     8
 71
     3
 72
     8
 73
     4
 74
     0
 42
0.000000001
 43
0.00000001
 40
1.0
 40
1.0
 40
1.0
 40
1.0
 40
2.0
 40
2.0
 40
2.0
 40
2.0
 10
4645.742249343389
 20
-15986.02071269223
 30
0.0
 10
4645.699647292608
 20
-15986.02071269223
 30
0.0
 10
4645.658719558232
 20
-15986.03764189145
 30
0.0
 10
4645.62858186292
 20
-15986.06777958677
 30
0.0
  0
LINE
  5
BD
330
1F
100
AcDbEntity
  8
0
  6
Continuous
 62
     7
370
    25
100
AcDbLine
 10
4646.1708743434
 20
-15986.0207126922
 30
0.0
 11
4645.7422493434
 21
-15986.0207126922
 31
0.0
  0
SPLINE
  5
BE
330
1F
100
AcDbEntity
  8
0
  6
Continuous
 62
     7
370
    25
100
AcDbSpline
210
0.0
220
0.0
230
1.0
 70
     8
 71
     3
 72
     8
 73
     4
 74
     0
 42
0.000000001
 43
0.00000001
 40
22.0
 40
22.0
 40
22.0
 40
22.0
 40
23.0
 40
23.0
 40
23.0
 40
23.0
 10
4646.267240554326
 20
-15986.05289677426
 30
0.0
 10
4646.239521316045
 20
-15986.03206083676
 30
0.0
 10
4646.205662917608
 20
-15986.02071269223
 30
0.0
 10
4646.170874343388
 20
-15986.02071269223
 30
0.0
  0
LINE
  5
BF
330
1F
100
AcDbEntity
  8
0
  6
Continuous
 62
     7
370
    25
100
AcDbLine
 10
4643.5991243434
 20
-15988.8605393524
 30
0.0
 11
4643.5991243434
 21
-15983.0721124364
 31
0.0
  0
SPLINE
  5
C0
330
1F
100
AcDbEntity
  8
0
  6
Continuous
 62
     7
370
    25
100
AcDbSpline
210
0.0
220
0.0
230
1.0
 70
     8
 71
     3
 72
     8
 73
     4
 74
     0
 42
0.000000001
 43
0.00000001
 40
3.949170805942495
 40
3.949170805942495
 40
3.949170805942495
 40
3.949170805942495
 40
4.0
 40
4.0
 40
4.0
 40
4.0
 10
4643.598573574242
 20
-15988.87393388364
 30
0.0
 10
4643.598938335041
 20
-15988.86951713491
 30
0.0
 10
4643.599124343389
 20
-15988.86504987253
 30
0.0
 10
4643.599124343389
 20
-15988.86053935239
 30
0.0
  0
SPLINE
  5
C1
330
1F
100
AcDbEntity
  8
0
  6
Continuous
 62
     7
370
    25
100
AcDbSpline
210
0.0
220
0.0
230
1.0
 70
     8
 71
     3
 72
     8
 73
     4
 74
     0
 42
0.000000001
 43
0.00000001
 40
7.0
 40
7.0
 40
7.0
 40
7.0
 40
7.0508291940771
 40
7.0508291940771
 40
7.0508291940771
 40
7.0508291940771
 10
4643.599124343389
 20
-15988.88732841489
 30
0.0
 10
4643.599124343389
 20
-15988.88281789475
 30
0.0
 10
4643.598938335042
 20
-15988.87835063237
 30
0.0
 10
4643.598573574243
 20
-15988.87393388364
 30
0.0
  0
SPLINE
  5
C2
330
1F
100
AcDbEntity
  8
0
  6
Continuous
 62
     7
370
    25
100
AcDbSpline
210
0.0
220
0.0
230
1.0
 70
     8
 71
     3
 72
     8
 73
     4
 74
     0
 42
0.000000001
 43
0.00000001
 40
6.0
 40
6.0
 40
6.0
 40
6.0
 40
7.0
 40
7.0
 40
7.0
 40
7.0
 10
4644.820073073858
 20
-15990.99957157895
 30
0.0
 10
4644.067002761358
 20
-15990.56573759458
 30
0.0
 10
4643.599124343389
 20
-15989.75648466489
 30
0.0
 10
4643.599124343389
 20
-15988.88732841489
 30
0.0
  0
SPLINE
  5
C3
330
1F
100
AcDbEntity
  8
0
  6
Continuous
 62
     7
370
    25
100
AcDbSpline
210
0.0
220
0.0
230
1.0
 70
     8
 71
     3
 72
     8
 73
     4
 74
     0
 42
0.000000001
 43
0.00000001
 40
5.019406070645356
 40
5.019406070645356
 40
5.019406070645356
 40
5.019406070645356
 40
6.0
 40
6.0
 40
6.0
 40
6.0
 10
4647.216107781619
 20
-15991.02111855164
 30
0.0
 10
4646.47157698594
 20
-15991.43216887461
 30
0.0
 10
4645.558529250673
 20
-15991.42498655038
 30
0.0
 10
4644.820073073858
 20
-15990.99957157895
 30
0.0
  0
SPLINE
  5
C4
330
1F
100
AcDbEntity
  8
0
  6
Continuous
 62
     7
370
    25
100
AcDbSpline
210
0.0
220
0.0
230
1.0
 70
     8
 71
     3
 72
     8
 73
     4
 74
     0
 42
0.000000001
 43
0.00000001
 40
2.0
 40
2.0
 40
2.0
 40
2.0
 40
2.283722114686835
 40
2.283722114686835
 40
2.283722114686835
 40
2.283722114686835
 10
4647.26866780042
 20
-15990.97185234067
 30
0.0
 10
4647.246921497789
 20
-15990.98452008977
 30
0.0
 10
4647.229248531799
 20
-15991.00151575906
 30
0.0
 10
4647.216107781616
 20
-15991.02111855164
 30
0.0
  0
LINE
  5
C5
330
1F
100
AcDbEntity
  8
0
  6
Continuous
 62
     7
370
    25
100
AcDbLine
 10
4664.843036941
 20
-15980.7382444305
 30
0.0
 11
4647.2686678004
 21
-15990.9718523407
 31
0.0
  0
SPLINE
  5
C6
330
1F
100
AcDbEntity
  8
0
  6
Continuous
 62
     7
370
    25
100
AcDbSpline
210
0.0
220
0.0
230
1.0
 70
     8
 71
     3
 72
     8
 73
     4
 74
     0
 42
0.000000001
 43
0.00000001
 40
0.0
 40
0.0
 40
0.0
 40
0.0
 40
1.0
 40
1.0
 40
1.0
 40
1.0
 10
4664.923776198858
 20
-15980.71647831723
 30
0.0
 10
4664.896429030889
 20
-15980.71647831723
 30
0.0
 10
4664.868523757452
 20
-15980.72354765317
 30
0.0
 10
4664.843036941045
 20
-15980.73824443051
 30
0.0
  0
SPLINE
  5
C7
330
1F
100
AcDbEntity
  8
0
  6
Continuous
 62
     7
370
    25
100
AcDbSpline
210
0.0
220
0.0
230
1.0
 70
     8
 71
     3
 72
     8
 73
     4
 74
     0
 42
0.000000001
 43
0.00000001
 40
6.72503807367359
 40
6.72503807367359
 40
6.72503807367359
 40
6.72503807367359
 40
7.0
 40
7.0
 40
7.0
 40
7.0
 10
4664.96866664059
 20
-15980.72284873105
 30
0.0
 10
4664.954136554356
 20
-15980.71864432928
 30
0.0
 10
4664.939019669167
 20
-15980.71647831723
 30
0.0
 10
4664.923776198858
 20
-15980.71647831723
 30
0.0
  0
SPLINE
  5
C8
330
1F
100
AcDbEntity
  8
0
  6
Continuous
 62
     7
370
    25
100
AcDbSpline
210
0.0
220
0.0
230
1.0
 70
     8
 71
     3
 72
     8
 73
     4
 74
     0
 42
0.000000001
 43
0.00000001
 40
1.115146500859943
 40
1.115146500859943
 40
1.115146500859943
 40
1.115146500859943
 40
1.867867714374492
 40
1.867867714374492
 40
1.867867714374492
 40
1.867867714374492
 10
4665.24002244187
 20
-15980.2418325157
 30
0.0
 10
4665.216630605409
 20
-15980.43131493045
 30
0.0
 10
4665.118535491807
 20
-15980.60498295138
 30
0.0
 10
4664.968666640588
 20
-15980.72284873105
 30
0.0
  0
SPLINE
  5
C9
330
1F
100
AcDbEntity
  8
0
  6
Continuous
 62
     7
370
    25
100
AcDbSpline
210
0.0
220
0.0
230
1.0
 70
     8
 71
     3
 72
     8
 73
     4
 74
     0
 42
0.000000001
 43
0.00000001
 40
9.0
 40
9.0
 40
9.0
 40
9.0
 40
9.506155365370946
 40
9.506155365370946
 40
9.506155365370946
 40
9.506155365370946
 10
4665.191852859014
 20
-15980.12711894224
 30
0.0
 10
4665.191852859014
 20
-15980.17203454655
 30
0.0
 10
4665.210297647445
 20
-15980.21266066518
 30
0.0
 10
4665.240022441873
 20
-15980.2418325157
 30
0.0
  0
LINE
  5
CA
330
1F
100
AcDbEntity
  8
0
  6
Continuous
 62
     7
370
    25
100
AcDbLine
 10
4665.191852859
 20
-15978.3054626922
 30
0.0
 11
4665.191852859
 21
-15980.1271189422
 31
0.0
  0
LINE
  5
CB
330
1F
100
AcDbEntity
  8
0
  6
Continuous
 62
     7
370
    25
100
AcDbLine
 10
4662.405790359
 20
-15978.3054626922
 30
0.0
 11
4665.191852859
 21
-15978.3054626922
 31
0.0
  0
SPLINE
  5
CC
330
1F
100
AcDbEntity
  8
0
  6
Continuous
 62
     7
370
    25
100
AcDbSpline
210
0.0
220
0.0
230
1.0
 70
     8
 71
     3
 72
     8
 73
     4
 74
     0
 42
0.000000001
 43
0.00000001
 40
6.0
 40
6.0
 40
6.0
 40
6.0
 40
7.0
 40
7.0
 40
7.0
 40
7.0
 10
4662.245055984014
 20
-15978.14472831723
 30
0.0
 10
4662.245055984014
 20
-15978.23346708677
 30
0.0
 10
4662.317051589483
 20
-15978.30546269223
 30
0.0
 10
4662.405790359015
 20
-15978.30546269223
 30
0.0
  0
LINE
  5
CD
330
1F
100
AcDbEntity
  8
0
  6
Continuous
 62
     7
370
    25
100
AcDbLine
 10
4662.245055984
 20
-15976.1738718719
 30
0.0
 11
4662.245055984
 21
-15978.1447283172
 31
0.0
  0
LINE
  5
CE
330
1F
100
AcDbEntity
  8
0
  6
Continuous
 62
     7
370
    25
100
AcDbLine
 10
4660.0342141871
 20
-15973.9116843719
 30
0.0
 11
4662.245055984
 21
-15976.1738718719
 31
0.0
  0
LINE
  5
CF
330
1F
100
AcDbEntity
  8
0
  6
Continuous
 62
     7
370
    25
100
AcDbLine
 10
4653.7934530723
 20
-15973.9116843719
 30
0.0
 11
4660.0342141871
 21
-15973.9116843719
 31
0.0
  0
LINE
  5
D0
330
1F
100
AcDbEntity
  8
0
  6
Continuous
 62
     7
370
    25
100
AcDbLine
 10
4651.5822649684
 20
-15976.1738718719
 30
0.0
 11
4653.7934530723
 21
-15973.9116843719
 31
0.0
  0
LINE
  5
D1
330
1F
100
AcDbEntity
  8
0
  6
Continuous
 62
     7
370
    25
100
AcDbLine
 10
4651.5822649684
 20
-15978.1447283172
 30
0.0
 11
4651.5822649684
 21
-15976.1738718719
 31
0.0
  0
SPLINE
  5
D2
330
1F
100
AcDbEntity
  8
0
  6
Continuous
 62
     7
370
    25
100
AcDbSpline
210
0.0
220
0.0
230
1.0
 70
     8
 71
     3
 72
     8
 73
     4
 74
     0
 42
0.000000001
 43
0.00000001
 40
8.0
 40
8.0
 40
8.0
 40
8.0
 40
9.0
 40
9.0
 40
9.0
 40
9.0
 10
4651.421530593389
 20
-15978.30546269223
 30
0.0
 10
4651.510269362921
 20
-15978.30546269223
 30
0.0
 10
4651.582264968389
 20
-15978.23346708677
 30
0.0
 10
4651.582264968389
 20
-15978.14472831723
 30
0.0
  0
LINE
  5
D3
330
1F
100
AcDbEntity
  8
0
  6
Continuous
 62
     7
370
    25
100
AcDbLine
 10
4648.3657740876
 20
-15978.3054626922
 30
0.0
 11
4651.4215305934
 21
-15978.3054626922
 31
0.0
  0
SPLINE
  5
D4
330
1F
100
AcDbEntity
  8
0
  6
Continuous
 62
     7
370
    25
100
AcDbSpline
210
0.0
220
0.0
230
1.0
 70
     8
 71
     3
 72
     8
 73
     4
 74
     0
 42
0.000000001
 43
0.00000001
 40
4.016568560661382
 40
4.016568560661382
 40
4.016568560661382
 40
4.016568560661382
 40
4.983431439338715
 40
4.983431439338715
 40
4.983431439338715
 40
4.983431439338715
 10
4643.599124343388
 20
-15983.07211243643
 30
0.0
 10
4646.196219849655
 20
-15983.00210454337
 30
0.0
 10
4648.295766194527
 20
-15980.9025581985
 30
0.0
 10
4648.365774087584
 20
-15978.30546269223
 30
0.0
  0
LINE
  5
D5
330
1F
100
AcDbEntity
  8
0
  6
Continuous
 62
     7
370
    25
100
AcDbLine
 10
4670.160890228
 20
-15990.0028636369
 30
0.0
 11
4669.946577728
 21
-15989.8421292619
 31
0.0
  0
SPLINE
  5
D6
330
1F
100
AcDbEntity
  8
0
  6
Continuous
 62
     7
370
    25
100
AcDbSpline
210
0.0
220
0.0
230
1.0
 70
     8
 71
     3
 72
     8
 73
     4
 74
     0
 42
0.000000001
 43
0.00000001
 40
20.0
 40
20.0
 40
20.0
 40
20.0
 40
21.0
 40
21.0
 40
21.0
 40
21.0
 10
4670.219119231899
 20
-15990.08732359779
 30
0.0
 10
4670.209445403774
 20
-15990.05346519936
 30
0.0
 10
4670.188981536587
 20
-15990.02388560951
 30
0.0
 10
4670.160890227993
 20
-15990.00286363685
 30
0.0
  0
LINE
  5
D7
330
1F
100
AcDbEntity
  8
0
  6
Continuous
 62
     7
370
    25
100
AcDbLine
 10
4670.3262754819
 20
-15990.4623704728
 30
0.0
 11
4670.2191192319
 21
-15990.0873235978
 31
0.0
  0
SPLINE
  5
D8
330
1F
100
AcDbEntity
  8
0
  6
Continuous
 62
     7
370
    25
100
AcDbSpline
210
0.0
220
0.0
230
1.0
 70
     8
 71
     3
 72
     8
 73
     4
 74
     0
 42
0.000000001
 43
0.00000001
 40
18.0
 40
18.0
 40
18.0
 40
18.0
 40
19.0
 40
19.0
 40
19.0
 40
19.0
 10
4670.327577727992
 20
-15990.54552818763
 30
0.0
 10
4670.334461028774
 20
-15990.51818101967
 30
0.0
 10
4670.333902923306
 20
-15990.48934557045
 30
0.0
 10
4670.326275481899
 20
-15990.46237047279
 30
0.0
  0
LINE
  5
D9
330
1F
100
AcDbEntity
  8
0
  6
Continuous
 62
     7
370
    25
100
AcDbLine
 10
4670.2170728452
 20
-15990.9322952775
 30
0.0
 11
4670.327577728
 21
-15990.5455281876
 31
0.0
  0
SPLINE
  5
DA
330
1F
100
AcDbEntity
  8
0
  6
Continuous
 62
     7
370
    25
100
AcDbSpline
210
0.0
220
0.0
230
1.0
 70
     8
 71
     3
 72
     8
 73
     4
 74
     0
 42
0.000000001
 43
0.00000001
 40
16.0
 40
16.0
 40
16.0
 40
16.0
 40
17.0
 40
17.0
 40
17.0
 40
17.0
 10
4670.136333587368
 20
-15991.0253128556
 30
0.0
 10
4670.174470794398
 20
-15991.00615123451
 30
0.0
 10
4670.203492278774
 20
-15990.97285094154
 30
0.0
 10
4670.21707284518
 20
-15990.93229527748
 30
0.0
  0
LINE
  5
DB
330
1F
100
AcDbEntity
  8
0
  6
Continuous
 62
     7
370
    25
100
AcDbLine
 10
4669.8892788999
 20
-15991.1445613908
 30
0.0
 11
4670.1363335874
 21
-15991.0253128556
 31
0.0
  0
LINE
  5
DC
330
1F
100
AcDbEntity
  8
0
  6
Continuous
 62
     7
370
    25
100
AcDbLine
 10
4669.6749663999
 20
-15991.1981395158
 30
0.0
 11
4669.8892788999
 21
-15991.1445613908
 31
0.0
  0
SPLINE
  5
DD
330
1F
100
AcDbEntity
  8
0
  6
Continuous
 62
     7
370
    25
100
AcDbSpline
210
0.0
220
0.0
230
1.0
 70
     8
 71
     3
 72
     8
 73
     4
 74
     0
 42
0.000000001
 43
0.00000001
 40
13.0
 40
13.0
 40
13.0
 40
13.0
 40
14.0
 40
14.0
 40
14.0
 40
14.0
 10
4669.596831634242
 20
-15991.19813951576
 30
0.0
 10
4669.622504485806
 20
-15991.20446471107
 30
0.0
 10
4669.649293548306
 20
-15991.20446471107
 30
0.0
 10
4669.674966399867
 20
-15991.19813951576
 30
0.0
  0
LINE
  5
DE
330
1F
100
AcDbEntity
  8
0
  6
Continuous
 62
     7
370
    25
100
AcDbLine
 10
4669.3825191342
 20
-15991.1445613908
 30
0.0
 11
4669.5968316342
 21
-15991.1981395158
 31
0.0
  0
SPLINE
  5
DF
330
1F
100
AcDbEntity
  8
0
  6
Continuous
 62
     7
370
    25
100
AcDbSpline
210
0.0
220
0.0
230
1.0
 70
     8
 71
     3
 72
     8
 73
     4
 74
     0
 42
0.000000001
 43
0.00000001
 40
11.0
 40
11.0
 40
11.0
 40
11.0
 40
12.0
 40
12.0
 40
12.0
 40
12.0
 10
4669.332475677211
 20
-15991.12242320717
 30
0.0
 10
4669.347730560024
 20
-15991.13265514076
 30
0.0
 10
4669.364659759242
 20
-15991.14009654701
 30
0.0
 10
4669.382519134242
 20
-15991.14456139076
 30
0.0
  0
LINE
  5
E0
330
1F
100
AcDbEntity
  8
0
  6
Continuous
 62
     7
370
    25
100
AcDbLine
 10
4669.1717413022
 20
-15991.0152669572
 30
0.0
 11
4669.3324756772
 21
-15991.1224232072
 31
0.0
  0
SPLINE
  5
E1
330
1F
100
AcDbEntity
  8
0
  6
Continuous
 62
     7
370
    25
100
AcDbSpline
210
0.0
220
0.0
230
1.0
 70
     8
 71
     3
 72
     8
 73
     4
 74
     0
 42
0.000000001
 43
0.00000001
 40
9.0
 40
9.0
 40
9.0
 40
9.0
 40
10.0
 40
10.0
 40
10.0
 40
10.0
 10
4669.127092864711
 20
-15990.97061851967
 30
0.0
 10
4669.138813079555
 20
-15990.98829185951
 30
0.0
 10
4669.154067962367
 20
-15991.00354674232
 30
0.0
 10
4669.171741302212
 20
-15991.01526695717
 30
0.0
  0
LINE
  5
E2
330
1F
100
AcDbEntity
  8
0
  6
Continuous
 62
     7
370
    25
100
AcDbLine
 10
4669.0199366147
 20
-15990.8098841447
 30
0.0
 11
4669.1270928647
 21
-15990.9706185197
 31
0.0
  0
SPLINE
  5
E3
330
1F
100
AcDbEntity
  8
0
  6
Continuous
 62
     7
370
    25
100
AcDbSpline
210
0.0
220
0.0
230
1.0
 70
     8
 71
     3
 72
     8
 73
     4
 74
     0
 42
0.000000001
 43
0.00000001
 40
7.0
 40
7.0
 40
7.0
 40
7.0
 40
8.0
 40
8.0
 40
8.0
 40
8.0
 10
4668.997798431117
 20
-15990.75984068764
 30
0.0
 10
4669.002263274868
 20
-15990.77770006264
 30
0.0
 10
4669.009704681117
 20
-15990.79462926185
 30
0.0
 10
4669.019936614711
 20
-15990.80988414467
 30
0.0
  0
LINE
  5
E4
330
1F
100
AcDbEntity
  8
0
  6
Continuous
 62
     7
370
    25
100
AcDbLine
 10
4668.9442203061
 20
-15990.5455281876
 30
0.0
 11
4668.9977984311
 21
-15990.7598406876
 31
0.0
  0
SPLINE
  5
E5
330
1F
100
AcDbEntity
  8
0
  6
Continuous
 62
     7
370
    25
100
AcDbSpline
210
0.0
220
0.0
230
1.0
 70
     8
 71
     3
 72
     8
 73
     4
 74
     0
 42
0.000000001
 43
0.00000001
 40
5.0
 40
5.0
 40
5.0
 40
5.0
 40
6.0
 40
6.0
 40
6.0
 40
6.0
 10
4668.952405852992
 20
-15990.4432088517
 30
0.0
 10
4668.938453216273
 20
-15990.47539293373
 30
0.0
 10
4668.935662688929
 20
-15990.51129771889
 30
0.0
 10
4668.944220306117
 20
-15990.54552818763
 30
0.0
  0
LINE
  5
E6
330
1F
100
AcDbEntity
  8
0
  6
Continuous
 62
     7
370
    25
100
AcDbLine
 10
4669.113140228
 20
-15990.0681619767
 30
0.0
 11
4668.952405853
 21
-15990.4432088517
 31
0.0
  0
SPLINE
  5
E7
330
1F
100
AcDbEntity
  8
0
  6
Continuous
 62
     7
370
    25
100
AcDbSpline
210
0.0
220
0.0
230
1.0
 70
     8
 71
     3
 72
     8
 73
     4
 74
     0
 42
0.000000001
 43
0.00000001
 40
3.0
 40
3.0
 40
3.0
 40
3.0
 40
4.0
 40
4.0
 40
4.0
 40
4.0
 10
4669.147184661586
 20
-15990.01774644935
 30
0.0
 10
4669.132673919399
 20
-15990.03225719154
 30
0.0
 10
4669.121139739712
 20
-15990.04937242592
 30
0.0
 10
4669.113140227993
 20
-15990.0681619767
 30
0.0
  0
LINE
  5
E8
330
1F
100
AcDbEntity
  8
0
  6
Continuous
 62
     7
370
    25
100
AcDbLine
 10
4669.3079190366
 20
-15989.8570120744
 30
0.0
 11
4669.1471846616
 21
-15990.0177464494
 31
0.0
  0
SPLINE
  5
E9
330
1F
100
AcDbEntity
  8
0
  6
Continuous
 62
     7
370
    25
100
AcDbSpline
210
0.0
220
0.0
230
1.0
 70
     8
 71
     3
 72
     8
 73
     4
 74
     0
 42
0.000000001
 43
0.00000001
 40
1.0
 40
1.0
 40
1.0
 40
1.0
 40
2.0
 40
2.0
 40
2.0
 40
2.0
 10
4669.421586517055
 20
-15989.80994517982
 30
0.0
 10
4669.378984466274
 20
-15989.80994517982
 30
0.0
 10
4669.338056731899
 20
-15989.82687437904
 30
0.0
 10
4669.307919036586
 20
-15989.85701207435
 30
0.0
  0
LINE
  5
EA
330
1F
100
AcDbEntity
  8
0
  6
Continuous
 62
     7
370
    25
100
AcDbLine
 10
4669.8502115171
 20
-15989.8099451798
 30
0.0
 11
4669.4215865171
 21
-15989.8099451798
 31
0.0
  0
SPLINE
  5
EB
330
1F
100
AcDbEntity
  8
0
  6
Continuous
 62
     7
370
    25
100
AcDbSpline
210
0.0
220
0.0
230
1.0
 70
     8
 71
     3
 72
     8
 73
     4
 74
     0
 42
0.000000001
 43
0.00000001
 40
22.0
 40
22.0
 40
22.0
 40
22.0
 40
23.0
 40
23.0
 40
23.0
 40
23.0
 10
4669.946577727992
 20
-15989.84212926186
 30
0.0
 10
4669.918858489711
 20
-15989.82129332435
 30
0.0
 10
4669.885000091273
 20
-15989.80994517982
 30
0.0
 10
4669.850211517055
 20
-15989.80994517982
 30
0.0
  0
LINE
  5
EC
330
1F
100
AcDbEntity
  8
0
  6
Continuous
 62
     7
370
    25
100
AcDbLine
 10
4667.2784615171
 20
-15992.64977184
 30
0.0
 11
4667.2784615171
 21
-15986.8613447725
 31
0.0
  0
SPLINE
  5
ED
330
1F
100
AcDbEntity
  8
0
  6
Continuous
 62
     7
370
    25
100
AcDbSpline
210
0.0
220
0.0
230
1.0
 70
     8
 71
     3
 72
     8
 73
     4
 74
     0
 42
0.000000001
 43
0.00000001
 40
3.949170805917295
 40
3.949170805917295
 40
3.949170805917295
 40
3.949170805917295
 40
4.0
 40
4.0
 40
4.0
 40
4.0
 10
4667.277910747908
 20
-15992.66316637123
 30
0.0
 10
4667.278275508707
 20
-15992.6587496225
 30
0.0
 10
4667.278461517055
 20
-15992.65428236012
 30
0.0
 10
4667.278461517055
 20
-15992.64977183998
 30
0.0
  0
SPLINE
  5
EE
330
1F
100
AcDbEntity
  8
0
  6
Continuous
 62
     7
370
    25
100
AcDbSpline
210
0.0
220
0.0
230
1.0
 70
     8
 71
     3
 72
     8
 73
     4
 74
     0
 42
0.000000001
 43
0.00000001
 40
7.0
 40
7.0
 40
7.0
 40
7.0
 40
7.050829194070556
 40
7.050829194070556
 40
7.050829194070556
 40
7.050829194070556
 10
4667.278461517055
 20
-15992.67656090248
 30
0.0
 10
4667.278461517055
 20
-15992.67205038234
 30
0.0
 10
4667.278275508707
 20
-15992.66758311996
 30
0.0
 10
4667.277910747908
 20
-15992.66316637123
 30
0.0
  0
SPLINE
  5
EF
330
1F
100
AcDbEntity
  8
0
  6
Continuous
 62
     7
370
    25
100
AcDbSpline
210
0.0
220
0.0
230
1.0
 70
     8
 71
     3
 72
     8
 73
     4
 74
     0
 42
0.000000001
 43
0.00000001
 40
6.0
 40
6.0
 40
6.0
 40
6.0
 40
7.0
 40
7.0
 40
7.0
 40
7.0
 10
4668.499410247524
 20
-15994.78880406654
 30
0.0
 10
4667.746339935024
 20
-15994.35497008217
 30
0.0
 10
4667.278461517055
 20
-15993.54571715248
 30
0.0
 10
4667.278461517055
 20
-15992.67656090248
 30
0.0
  0
SPLINE
  5
F0
330
1F
100
AcDbEntity
  8
0
  6
Continuous
 62
     7
370
    25
100
AcDbSpline
210
0.0
220
0.0
230
1.0
 70
     8
 71
     3
 72
     8
 73
     4
 74
     0
 42
0.000000001
 43
0.00000001
 40
5.019401205054181
 40
5.019401205054181
 40
5.019401205054181
 40
5.019401205054181
 40
6.0
 40
6.0
 40
6.0
 40
6.0
 10
4670.895456038096
 20
-15994.8103345086
 30
0.0
 10
4670.150923220482
 20
-15995.22122254689
 30
0.0
 10
4669.23787008847
 20
-15995.21422114883
 30
0.0
 10
4668.499410247524
 20
-15994.78880406654
 30
0.0
  0
SPLINE
  5
F1
330
1F
100
AcDbEntity
  8
0
  6
Continuous
 62
     7
370
    25
100
AcDbSpline
210
0.0
220
0.0
230
1.0
 70
     8
 71
     3
 72
     8
 73
     4
 74
     0
 42
0.000000001
 43
0.00000001
 40
2.0
 40
2.0
 40
2.0
 40
2.0
 40
2.283642359371739
 40
2.283642359371739
 40
2.283642359371739
 40
2.283642359371739
 10
4670.948004974086
 20
-15994.76108482826
 30
0.0
 10
4670.926264784421
 20
-15994.77374901642
 30
0.0
 10
4670.908595641657
 20
-15994.79073869191
 30
0.0
 10
4670.895456038096
 20
-15994.8103345086
 30
0.0
  0
LINE
  5
F2
330
1F
100
AcDbEntity
  8
0
  6
Continuous
 62
     7
370
    25
100
AcDbLine
 10
4688.5223741147
 20
-15984.5272908829
 30
0.0
 11
4670.9480049741
 21
-15994.7610848283
 31
0.0
  0
SPLINE
  5
F3
330
1F
100
AcDbEntity
  8
0
  6
Continuous
 62
     7
370
    25
100
AcDbSpline
210
0.0
220
0.0
230
1.0
 70
     8
 71
     3
 72
     8
 73
     4
 74
     0
 42
0.000000001
 43
0.00000001
 40
0.0
 40
0.0
 40
0.0
 40
0.0
 40
1.0
 40
1.0
 40
1.0
 40
1.0
 10
4688.603113372525
 20
-15984.50552476967
 30
0.0
 10
4688.575766204555
 20
-15984.50552476967
 30
0.0
 10
4688.547860931118
 20
-15984.5125941056
 30
0.0
 10
4688.522374114711
 20
-15984.52729088295
 30
0.0
  0
SPLINE
  5
F4
330
1F
100
AcDbEntity
  8
0
  6
Continuous
 62
     7
370
    25
100
AcDbSpline
210
0.0
220
0.0
230
1.0
 70
     8
 71
     3
 72
     8
 73
     4
 74
     0
 42
0.000000001
 43
0.00000001
 40
6.723950504337036
 40
6.723950504337036
 40
6.723950504337036
 40
6.723950504337036
 40
7.0
 40
7.0
 40
7.0
 40
7.0
 10
4688.648176201207
 20
-15984.51194516873
 30
0.0
 10
4688.633593311039
 20
-15984.50770795025
 30
0.0
 10
4688.61841713602
 20
-15984.50552476967
 30
0.0
 10
4688.603113372525
 20
-15984.50552476967
 30
0.0
  0
SPLINE
  5
F5
330
1F
100
AcDbEntity
  8
0
  6
Continuous
 62
     7
370
    25
100
AcDbSpline
210
0.0
220
0.0
230
1.0
 70
     8
 71
     3
 72
     8
 73
     4
 74
     0
 42
0.000000001
 43
0.00000001
 40
1.115079037248625
 40
1.115079037248625
 40
1.115079037248625
 40
1.115079037248625
 40
1.867579069764431
 40
1.867579069764431
 40
1.867579069764431
 40
1.867579069764431
 10
4688.919365903308
 20
-15984.0308851386
 30
0.0
 10
4688.89599432735
 20
-15984.22042433432
 30
0.0
 10
4688.79796131582
 20
-15984.39406878986
 30
0.0
 10
4688.648176201205
 20
-15984.51194516872
 30
0.0
  0
SPLINE
  5
F6
330
1F
100
AcDbEntity
  8
0
  6
Continuous
 62
     7
370
    25
100
AcDbSpline
210
0.0
220
0.0
230
1.0
 70
     8
 71
     3
 72
     8
 73
     4
 74
     0
 42
0.000000001
 43
0.00000001
 40
9.0
 40
9.0
 40
9.0
 40
9.0
 40
9.506191053905958
 40
9.506191053905958
 40
9.506191053905958
 40
9.506191053905958
 10
4688.87119003268
 20
-15983.91616539467
 30
0.0
 10
4688.87119003268
 20
-15983.96108416594
 30
0.0
 10
4688.889637422251
 20
-15984.00171284661
 30
0.0
 10
4688.919365903308
 20
-15984.0308851386
 30
0.0
  0
LINE
  5
F7
330
1F
100
AcDbEntity
  8
0
  6
Continuous
 62
     7
370
    25
100
AcDbLine
 10
4688.8711900327
 20
-15982.0945091447
 30
0.0
 11
4688.8711900327
 21
-15983.9161653947
 31
0.0
  0
LINE
  5
F8
330
1F
100
AcDbEntity
  8
0
  6
Continuous
 62
     7
370
    25
100
AcDbLine
 10
4686.0851275327
 20
-15982.0945091447
 30
0.0
 11
4688.8711900327
 21
-15982.0945091447
 31
0.0
  0
SPLINE
  5
F9
330
1F
100
AcDbEntity
  8
0
  6
Continuous
 62
     7
370
    25
100
AcDbSpline
210
0.0
220
0.0
230
1.0
 70
     8
 71
     3
 72
     8
 73
     4
 74
     0
 42
0.000000001
 43
0.00000001
 40
6.0
 40
6.0
 40
6.0
 40
6.0
 40
7.0
 40
7.0
 40
7.0
 40
7.0
 10
4685.924393157679
 20
-15981.93377476967
 30
0.0
 10
4685.924393157679
 20
-15982.0225135392
 30
0.0
 10
4685.996388763149
 20
-15982.09450914467
 30
0.0
 10
4686.08512753268
 20
-15982.09450914467
 30
0.0
  0
LINE
  5
FA
330
1F
100
AcDbEntity
  8
0
  6
Continuous
 62
     7
370
    25
100
AcDbLine
 10
4685.9243931577
 20
-15979.9631043595
 30
0.0
 11
4685.9243931577
 21
-15981.9337747697
 31
0.0
  0
LINE
  5
FB
330
1F
100
AcDbEntity
  8
0
  6
Continuous
 62
     7
370
    25
100
AcDbLine
 10
4683.7135513608
 20
-15977.7009168595
 30
0.0
 11
4685.9243931577
 21
-15979.9631043595
 31
0.0
  0
LINE
  5
FC
330
1F
100
AcDbEntity
  8
0
  6
Continuous
 62
     7
370
    25
100
AcDbLine
 10
4677.4727902459
 20
-15977.7009168595
 30
0.0
 11
4683.7135513608
 21
-15977.7009168595
 31
0.0
  0
LINE
  5
FD
330
1F
100
AcDbEntity
  8
0
  6
Continuous
 62
     7
370
    25
100
AcDbLine
 10
4675.2616021421
 20
-15979.9631043595
 30
0.0
 11
4677.4727902459
 21
-15977.7009168595
 31
0.0
  0
LINE
  5
FE
330
1F
100
AcDbEntity
  8
0
  6
Continuous
 62
     7
370
    25
100
AcDbLine
 10
4675.2616021421
 20
-15981.9337747697
 30
0.0
 11
4675.2616021421
 21
-15979.9631043595
 31
0.0
  0
SPLINE
  5
FF
330
1F
100
AcDbEntity
  8
0
  6
Continuous
 62
     7
370
    25
100
AcDbSpline
210
0.0
220
0.0
230
1.0
 70
     8
 71
     3
 72
     8
 73
     4
 74
     0
 42
0.000000001
 43
0.00000001
 40
8.0
 40
8.0
 40
8.0
 40
8.0
 40
9.0
 40
9.0
 40
9.0
 40
9.0
 10
4675.100867767055
 20
-15982.09450914467
 30
0.0
 10
4675.189606536586
 20
-15982.09450914467
 30
0.0
 10
4675.261602142055
 20
-15982.0225135392
 30
0.0
 10
4675.261602142055
 20
-15981.93377476967
 30
0.0
  0
LINE
  5
100
330
1F
100
AcDbEntity
  8
0
  6
Continuous
 62
     7
370
    25
100
AcDbLine
 10
4672.0451112653
 20
-15982.0945091447
 30
0.0
 11
4675.1008677671
 21
-15982.0945091447
 31
0.0
  0
SPLINE
  5
101
330
1F
100
AcDbEntity
  8
0
  6
Continuous
 62
     7
370
    25
100
AcDbSpline
210
0.0
220
0.0
230
1.0
 70
     8
 71
     3
 72
     8
 73
     4
 74
     0
 42
0.000000001
 43
0.00000001
 40
4.016568560661698
 40
4.016568560661698
 40
4.016568560661698
 40
4.016568560661698
 40
4.983431458141087
 40
4.983431458141087
 40
4.983431458141087
 40
4.983431458141087
 10
4667.278461517057
 20
-15986.8613447725
 30
0.0
 10
4669.875557073828
 20
-15986.79133101645
 30
0.0
 10
4671.975103449852
 20
-15984.69161058242
 30
0.0
 10
4672.045111265335
 20
-15982.09450914467
 30
0.0
  0
ENDSEC
  0
SECTION
  2
OBJECTS
  0
DICTIONARY
  5
C
330
0
100
AcDbDictionary
281
     1
  3
ACAD_GROUP
350
D
  3
ACAD_LAYOUT
350
1A
  3
ACAD_MLINESTYLE
350
17
  3
ACAD_PLOTSETTINGS
350
19
  3
ACAD_PLOTSTYLENAME
350
E
  3
ACAD_SCALELIST
350
47
  0
DICTIONARY
  5
D
102
{ACAD_REACTORS
330
C
102
}
330
C
100
AcDbDictionary
281
     1
  0
DICTIONARY
  5
1A
102
{ACAD_REACTORS
330
C
102
}
330
C
100
AcDbDictionary
281
     1
  3
Layout1
350
1E
  3
Layout2
350
26
  3
Model
350
22
  0
DICTIONARY
  5
17
102
{ACAD_REACTORS
330
C
102
}
330
C
100
AcDbDictionary
281
     1
  3
Standard
350
18
  0
DICTIONARY
  5
19
102
{ACAD_REACTORS
330
C
102
}
330
C
100
AcDbDictionary
281
     1
  0
ACDBDICTIONARYWDFLT
  5
E
102
{ACAD_REACTORS
330
C
102
}
330
C
100
AcDbDictionary
281
     1
  3
Normal
350
F
100
AcDbDictionaryWithDefault
340
F
  0
DICTIONARY
  5
47
102
{ACAD_REACTORS
330
C
102
}
330
C
100
AcDbDictionary
281
     1
  3
A0
350
48
  3
A1
350
49
  3
A2
350
4A
  3
A3
350
4B
  3
A4
350
4C
  3
A5
350
4D
  3
A6
350
4E
  3
A7
350
4F
  3
A8
350
50
  3
A9
350
51
  3
B0
350
52
  3
B1
350
53
  3
B2
350
54
  3
B3
350
55
  3
B4
350
56
  3
B5
350
57
  3
B6
350
58
  3
B7
350
59
  3
B8
350
5A
  3
B9
350
5B
  3
C0
350
5C
  3
C1
350
5D
  3
C2
350
5E
  3
C3
350
5F
  3
C4
350
60
  3
C5
350
61
  3
C6
350
62
  3
C7
350
63
  3
C8
350
64
  3
C9
350
65
  3
D0
350
66
  3
D1
350
67
  3
D2
350
68
  0
LAYOUT
  5
1E
102
{ACAD_REACTORS
330
1A
102
}
330
1A
100
AcDbPlotSettings
  1

  2
none_device
  4

  6

 40
0.0
 41
0.0
 42
0.0
 43
0.0
 44
0.0
 45
0.0
 46
0.0
 47
0.0
 48
0.0
 49
0.0
140
0.0
141
0.0
142
1.0
143
1.0
 70
   688
 72
     1
 73
     0
 74
     5
  7

 75
    16
147
1.0
148
0.0
149
0.0
100
AcDbLayout
  1
Layout1
 70
     1
 71
     1
 10
0.0
 20
0.0
 11
420.0
 21
297.0
 12
0.0
 22
0.0
 32
0.0
 14
1.0000000000E+20
 24
1.0000000000E+20
 34
1.0000000000E+20
 15
-1.0000000000E+20
 25
-1.0000000000E+20
 35
-1.0000000000E+20
146
0.0
 13
0.0
 23
0.0
 33
0.0
 16
1.0
 26
0.0
 36
0.0
 17
0.0
 27
1.0
 37
0.0
 76
     0
330
1B
  0
LAYOUT
  5
26
102
{ACAD_REACTORS
330
1A
102
}
330
1A
100
AcDbPlotSettings
  1

  2
none_device
  4

  6

 40
0.0
 41
0.0
 42
0.0
 43
0.0
 44
0.0
 45
0.0
 46
0.0
 47
0.0
 48
0.0
 49
0.0
140
0.0
141
0.0
142
1.0
143
1.0
 70
   688
 72
     1
 73
     0
 74
     5
  7

 75
    16
147
1.0
148
0.0
149
0.0
100
AcDbLayout
  1
Layout2
 70
     1
 71
     2
 10
0.0
 20
0.0
 11
0.0
 21
0.0
 12
0.0
 22
0.0
 32
0.0
 14
0.0
 24
0.0
 34
0.0
 15
0.0
 25
0.0
 35
0.0
146
0.0
 13
0.0
 23
0.0
 33
0.0
 16
1.0
 26
0.0
 36
0.0
 17
0.0
 27
1.0
 37
0.0
 76
     0
330
23
  0
LAYOUT
  5
22
102
{ACAD_REACTORS
330
1A
102
}
330
1A
100
AcDbPlotSettings
  1

  2
none_device
  4
ANSI_A_(11.00_x_8.50_Inches)
  6

 40
6.35
 41
19.05
 42
6.35000508
 43
19.05000254
 44
279.4
 45
215.9
 46
-15846.2790922232
 47
54757.3811413889
 48
0.0
 49
0.0
140
0.0
141
0.0
142
0.1348230477
143
1.0
 70
  1696
 72
     0
 73
     0
 74
     0
  7

 75
     0
147
0.0179189148
148
-1300.4909072572
149
0.0
100
AcDbLayout
  1
Model
 70
     1
 71
     0
 10
0.0
 20
0.0
 11
420.0
 21
297.0
 12
0.0
 22
0.0
 32
0.0
 14
4643.5985735742
 24
-15995.1131837078
 34
0.0
 15
4688.9193659033
 25
-15932.6980392227
 35
0.0
146
0.0
 13
0.0
 23
0.0
 33
0.0
 16
1.0
 26
0.0
 36
0.0
 17
0.0
 27
1.0
 37
0.0
 76
     0
330
1F
331
29
  0
MLINESTYLE
  5
18
102
{ACAD_REACTORS
330
17
102
}
330
17
100
AcDbMlineStyle
  2
Standard
 70
     0
  3

 62
   256
 51
90.0
 52
90.0
 71
     2
 49
0.5
 62
   256
  6
BYLAYER
 49
-0.5
 62
   256
  6
BYLAYER
  0
ACDBPLACEHOLDER
  5
F
102
{ACAD_REACTORS
330
E
102
}
330
E
  0
SCALE
  5
48
102
{ACAD_REACTORS
330
47
102
}
330
47
100
AcDbScale
 70
     0
300
1:1
140
1.0
141
1.0
290
     1
  0
SCALE
  5
49
102
{ACAD_REACTORS
330
47
102
}
330
47
100
AcDbScale
 70
     0
300
1:2
140
1.0
141
2.0
290
     0
  0
SCALE
  5
4A
102
{ACAD_REACTORS
330
47
102
}
330
47
100
AcDbScale
 70
     0
300
1:4
140
1.0
141
4.0
290
     0
  0
SCALE
  5
4B
102
{ACAD_REACTORS
330
47
102
}
330
47
100
AcDbScale
 70
     0
300
1:5
140
1.0
141
5.0
290
     0
  0
SCALE
  5
4C
102
{ACAD_REACTORS
330
47
102
}
330
47
100
AcDbScale
 70
     0
300
1:8
140
1.0
141
8.0
290
     0
  0
SCALE
  5
4D
102
{ACAD_REACTORS
330
47
102
}
330
47
100
AcDbScale
 70
     0
300
1:10
140
1.0
141
10.0
290
     0
  0
SCALE
  5
4E
102
{ACAD_REACTORS
330
47
102
}
330
47
100
AcDbScale
 70
     0
300
1:16
140
1.0
141
16.0
290
     0
  0
SCALE
  5
4F
102
{ACAD_REACTORS
330
47
102
}
330
47
100
AcDbScale
 70
     0
300
1:20
140
1.0
141
20.0
290
     0
  0
SCALE
  5
50
102
{ACAD_REACTORS
330
47
102
}
330
47
100
AcDbScale
 70
     0
300
1:30
140
1.0
141
30.0
290
     0
  0
SCALE
  5
51
102
{ACAD_REACTORS
330
47
102
}
330
47
100
AcDbScale
 70
     0
300
1:40
140
1.0
141
40.0
290
     0
  0
SCALE
  5
52
102
{ACAD_REACTORS
330
47
102
}
330
47
100
AcDbScale
 70
     0
300
1:50
140
1.0
141
50.0
290
     0
  0
SCALE
  5
53
102
{ACAD_REACTORS
330
47
102
}
330
47
100
AcDbScale
 70
     0
300
1:100
140
1.0
141
100.0
290
     0
  0
SCALE
  5
54
102
{ACAD_REACTORS
330
47
102
}
330
47
100
AcDbScale
 70
     0
300
2:1
140
2.0
141
1.0
290
     0
  0
SCALE
  5
55
102
{ACAD_REACTORS
330
47
102
}
330
47
100
AcDbScale
 70
     0
300
4:1
140
4.0
141
1.0
290
     0
  0
SCALE
  5
56
102
{ACAD_REACTORS
330
47
102
}
330
47
100
AcDbScale
 70
     0
300
8:1
140
8.0
141
1.0
290
     0
  0
SCALE
  5
57
102
{ACAD_REACTORS
330
47
102
}
330
47
100
AcDbScale
 70
     0
300
10:1
140
10.0
141
1.0
290
     0
  0
SCALE
  5
58
102
{ACAD_REACTORS
330
47
102
}
330
47
100
AcDbScale
 70
     0
300
100:1
140
100.0
141
1.0
290
     0
  0
SCALE
  5
59
102
{ACAD_REACTORS
330
47
102
}
330
47
100
AcDbScale
 70
     0
300
1/128" = 1'-0"
140
0.0078125
141
12.0
290
     0
  0
SCALE
  5
5A
102
{ACAD_REACTORS
330
47
102
}
330
47
100
AcDbScale
 70
     0
300
1/64" = 1'-0"
140
0.015625
141
12.0
290
     0
  0
SCALE
  5
5B
102
{ACAD_REACTORS
330
47
102
}
330
47
100
AcDbScale
 70
     0
300
1/32" = 1'-0"
140
0.03125
141
12.0
290
     0
  0
SCALE
  5
5C
102
{ACAD_REACTORS
330
47
102
}
330
47
100
AcDbScale
 70
     0
300
1/16" = 1'-0"
140
0.0625
141
12.0
290
     0
  0
SCALE
  5
5D
102
{ACAD_REACTORS
330
47
102
}
330
47
100
AcDbScale
 70
     0
300
3/32" = 1'-0"
140
0.09375
141
12.0
290
     0
  0
SCALE
  5
5E
102
{ACAD_REACTORS
330
47
102
}
330
47
100
AcDbScale
 70
     0
300
1/8" = 1'-0"
140
0.125
141
12.0
290
     0
  0
SCALE
  5
5F
102
{ACAD_REACTORS
330
47
102
}
330
47
100
AcDbScale
 70
     0
300
3/16" = 1'-0"
140
0.1875
141
12.0
290
     0
  0
SCALE
  5
60
102
{ACAD_REACTORS
330
47
102
}
330
47
100
AcDbScale
 70
     0
300
1/4" = 1'-0"
140
0.25
141
12.0
290
     0
  0
SCALE
  5
61
102
{ACAD_REACTORS
330
47
102
}
330
47
100
AcDbScale
 70
     0
300
3/8" = 1'-0"
140
0.375
141
12.0
290
     0
  0
SCALE
  5
62
102
{ACAD_REACTORS
330
47
102
}
330
47
100
AcDbScale
 70
     0
300
1/2" = 1'-0"
140
0.5
141
12.0
290
     0
  0
SCALE
  5
63
102
{ACAD_REACTORS
330
47
102
}
330
47
100
AcDbScale
 70
     0
300
3/4" = 1'-0"
140
0.75
141
12.0
290
     0
  0
SCALE
  5
64
102
{ACAD_REACTORS
330
47
102
}
330
47
100
AcDbScale
 70
     0
300
1" = 1'-0"
140
1.0
141
12.0
290
     0
  0
SCALE
  5
65
102
{ACAD_REACTORS
330
47
102
}
330
47
100
AcDbScale
 70
     0
300
1-1/2" = 1'-0"
140
1.5
141
12.0
290
     0
  0
SCALE
  5
66
102
{ACAD_REACTORS
330
47
102
}
330
47
100
AcDbScale
 70
     0
300
3" = 1'-0"
140
3.0
141
12.0
290
     0
  0
SCALE
  5
67
102
{ACAD_REACTORS
330
47
102
}
330
47
100
AcDbScale
 70
     0
300
6" = 1'-0"
140
6.0
141
12.0
290
     0
  0
SCALE
  5
68
102
{ACAD_REACTORS
330
47
102
}
330
47
100
AcDbScale
 70
     0
300
1'-0" = 1'-0"
140
12.0
141
12.0
290
     0
  0
ENDSEC
  0
EOF
