  0
SECTION
  2
HEADER
  9
$ACADVER
  1
AC1014
  9
$ACADMAINTVER
 70
     0
  9
$DWGCODEPAGE
  3
ANSI_1253
  9
$INSBASE
 10
0.0
 20
0.0
 30
0.0
  9
$EXTMIN
 10
-2.458576
 20
0.568727
 30
0.0
  9
$EXTMAX
 10
31.166187
 20
31.16926
 30
0.0
  9
$LIMMIN
 10
0.0
 20
0.0
  9
$LIMMAX
 10
0.0
 20
0.0
  9
$ORTHOMODE
 70
     0
  9
$REGENMODE
 70
     1
  9
$FILLMODE
 70
     1
  9
$QTEXTMODE
 70
     0
  9
$MIRRTEXT
 70
     1
  9
$DRAGMODE
 70
     2
  9
$LTSCALE
 40
1.0
  9
$OSMODE
 70
     0
  9
$ATTMODE
 70
     1
  9
$TEXTSIZE
 40
0.2
  9
$TRACEWID
 40
0.05
  9
$TEXTSTYLE
  7
STANDARD
  9
$CLAYER
  8
0
  9
$CELTYPE
  6
CONTINUOUS
  9
$CECOLOR
 62
   256
  9
$CELTSCALE
 40
1.0
  9
$DELOBJ
 70
     1
  9
$DISPSILH
 70
     0
  9
$DIMSCALE
 40
1.0
  9
$DIMASZ
 40
0.18
  9
$DIMEXO
 40
0.0625
  9
$DIMDLI
 40
0.38
  9
$DIMRND
 40
0.0
  9
$DIMDLE
 40
0.0
  9
$DIMEXE
 40
0.18
  9
$DIMTP
 40
0.0
  9
$DIMTM
 40
0.0
  9
$DIMTXT
 40
0.18
  9
$DIMCEN
 40
0.09
  9
$DIMTSZ
 40
0.0
  9
$DIMTOL
 70
     0
  9
$DIMLIM
 70
     0
  9
$DIMTIH
 70
     1
  9
$DIMTOH
 70
     1
  9
$DIMSE1
 70
     0
  9
$DIMSE2
 70
     0
  9
$DIMTAD
 70
     0
  9
$DIMZIN
 70
     0
  9
$DIMBLK
  1

  9
$DIMASO
 70
     1
  9
$DIMSHO
 70
     1
  9
$DIMPOST
  1

  9
$DIMAPOST
  1

  9
$DIMALT
 70
     0
  9
$DIMALTD
 70
     2
  9
$DIMALTF
 40
25.4
  9
$DIMLFAC
 40
1.0
  9
$DIMTOFL
 70
     0
  9
$DIMTVP
 40
0.0
  9
$DIMTIX
 70
     0
  9
$DIMSOXD
 70
     0
  9
$DIMSAH
 70
     0
  9
$DIMBLK1
  1

  9
$DIMBLK2
  1

  9
$DIMSTYLE
  2
STANDARD
  9
$DIMCLRD
 70
     0
  9
$DIMCLRE
 70
     0
  9
$DIMCLRT
 70
     0
  9
$DIMTFAC
 40
1.0
  9
$DIMGAP
 40
0.09
  9
$DIMJUST
 70
     0
  9
$DIMSD1
 70
     0
  9
$DIMSD2
 70
     0
  9
$DIMTOLJ
 70
     1
  9
$DIMTZIN
 70
     0
  9
$DIMALTZ
 70
     0
  9
$DIMALTTZ
 70
     0
  9
$DIMFIT
 70
     3
  9
$DIMUPT
 70
     0
  9
$DIMUNIT
 70
     2
  9
$DIMDEC
 70
     4
  9
$DIMTDEC
 70
     4
  9
$DIMALTU
 70
     2
  9
$DIMALTTD
 70
     2
  9
$DIMTXSTY
  7
STANDARD
  9
$DIMAUNIT
 70
     0
  9
$LUNITS
 70
     2
  9
$LUPREC
 70
     4
  9
$SKETCHINC
 40
0.1
  9
$FILLETRAD
 40
0.0
  9
$AUNITS
 70
     0
  9
$AUPREC
 70
     0
  9
$MENU
  1
acad
  9
$ELEVATION
 40
0.0
  9
$PELEVATION
 40
0.0
  9
$THICKNESS
 40
0.0
  9
$LIMCHECK
 70
     0
  9
$BLIPMODE
 70
     1
  9
$CHAMFERA
 40
0.0
  9
$CHAMFERB
 40
0.0
  9
$CHAMFERC
 40
0.0
  9
$CHAMFERD
 40
0.0
  9
$SKPOLY
 70
     0
  9
$TDCREATE
 40
0.000000000
  9
$TDUPDATE
 40
0.000000000
  9
$TDINDWG
 40
0.0000000000
  9
$TDUSRTIMER
 40
0.0000000000
  9
$USRTIMER
 70
     1
  9
$ANGBASE
 50
0.0
  9
$ANGDIR
 70
     0
  9
$PDMODE
 70
     2
  9
$PDSIZE
 40
-5.0
  9
$PLINEWID
 40
0.0
  9
$COORDS
 70
     0
  9
$SPLFRAME
 70
     0
  9
$SPLINETYPE
 70
     6
  9
$SPLINESEGS
 70
     8
  9
$ATTDIA
 70
     0
  9
$ATTREQ
 70
     1
  9
$HANDLING
 70
     1
  9
$HANDSEED
  5
406
  9
$SURFTAB1
 70
     6
  9
$SURFTAB2
 70
     6
  9
$SURFTYPE
 70
     6
  9
$SURFU
 70
     6
  9
$SURFV
 70
     6
  9
$UCSNAME
  2

  9
$UCSORG
 10
0.0
 20
0.0
 30
0.0
  9
$UCSXDIR
 10
1.0
 20
0.0
 30
0.0
  9
$UCSYDIR
 10
0.0
 20
1.0
 30
0.0
  9
$PUCSNAME
  2

  9
$PUCSORG
 10
0.0
 20
0.0
 30
0.0
  9
$PUCSXDIR
 10
1.0
 20
0.0
 30
0.0
  9
$PUCSYDIR
 10
0.0
 20
1.0
 30
0.0
  9
$USERI1
 70
     0
  9
$USERI2
 70
     0
  9
$USERI3
 70
     0
  9
$USERI4
 70
     0
  9
$USERI5
 70
     0
  9
$USERR1
 40
0.0
  9
$USERR2
 40
0.0
  9
$USERR3
 40
0.0
  9
$USERR4
 40
0.0
  9
$USERR5
 40
0.0
  9
$WORLDVIEW
 70
     1
  9
$SHADEDGE
 70
     3
  9
$SHADEDIF
 70
    70
  9
$TILEMODE
 70
     1
  9
$MAXACTVP
 70
    16
  9
$PINSBASE
 10
0.0
 20
0.0
 30
0.0
  9
$PLIMCHECK
 70
     0
  9
$PEXTMIN
 10
1.000000E+20
 20
1.000000E+20
 30
1.000000E+20
  9
$PEXTMAX
 10
-1.000000E+20
 20
-1.000000E+20
 30
-1.000000E+20
  9
$PLIMMIN
 10
0.0
 20
0.0
  9
$PLIMMAX
 10
12.0
 20
9.0
  9
$UNITMODE
 70
     0
  9
$VISRETAIN
 70
     0
  9
$PLINEGEN
 70
     1
  9
$PSLTSCALE
 70
     0
  9
$TREEDEPTH
 70
  3020
  9
$PICKSTYLE
 70
     1
  9
$CMLSTYLE
  2
STANDARD
  9
$CMLJUST
 70
     0
  9
$CMLSCALE
 40
1.0
  9
$PROXYGRAPHICS
 70
     0
  9
$MEASUREMENT
 70
     0
  0
ENDSEC
  0
SECTION
  2
CLASSES
  0
CLASS
  1
LWPOLYLINE
  2
AcDbPolyline
  3
"AutoCAD"
 90
        0
280
     0
281
     1
  0
CLASS
  1
IMAGE
  2
AcDbRasterImage
  3
ISM
 90
      127
280
     0
281
     1
  0
CLASS
  1
OLE2FRAME
  2
AcDbOle2Frame
  3
""
 90
        0
280
     0
281
     1
  0
CLASS
  1
HATCH
  2
AcDbHatch
  3
"ACAD_SEDONA"
 90
        0
280
     0
281
     1
  0
CLASS
  1
DICTIONARYVAR
  2
AcDbDictionaryVar
  3
"AutoCAD"
 90
        0
280
     0
281
     0
  0
CLASS
  1
RASTERVARIABLES
  2
AcDbRasterVariables
  3
ISM
 90
        0
280
     0
281
     0
  0
CLASS
  1
IMAGEDEF
  2
AcDbRasterImageDef
  3
ISM
 90
        0
280
     0
281
     0
  0
CLASS
  1
IMAGEDEF_REACTOR
  2
AcDbRasterImageDefReactor
  3
ISM
 90
        1
280
     0
281
     0
  0
CLASS
  1
IDBUFFER
  2
AcDbIdBuffer
  3
"Acad"
 90
        0
280
     0
281
     0
  0
CLASS
  1
SPATIAL_FILTER
  2
AcDbSpatialFilter
  3
"Acad"
 90
        0
280
     0
281
     0
  0
CLASS
  1
XRECORD
  2
AcDbXrecord
  3
"<Built In>"
 90
        0
280
     0
281
     0
  0
CLASS
  1
SORTENTSTABLE
  2
AcDbSortentsTable
  3
"AutoCAD"
 90
        0
280
     0
281
     0
  0
CLASS
  1
LAYER_INDEX
  2
AcDbLayerIndex
  3
"Acad"
 90
        0
280
     0
281
     0
  0
CLASS
  1
SPATIAL_INDEX
  2
AcDbSpatialIndex
  3
"Acad"
 90
        0
280
     0
281
     0
  0
CLASS
  1
OBJECT_PTR
  2
CAseDLPNTableRecord
  3
"ASE-LPNTableRecord"
 90
        1
280
     0
281
     0
  0
CLASS
  1
LAYOUT
  2
AcDbLayout
  3
"AutoCAD 2000"
 90
        1
280
     0
281
     0
  0
CLASS
  1
PLOTSETTINGS
  2
AcDbPlotSettings
  3
"AutoCAD 2000"
 90
        1
280
     0
281
     0
  0
CLASS
  1
ACDBDICTIONARYWDFLT
  2
AcDbDictionaryWithDefault
  3
"AutoCAD 2000"
 90
        1
280
     0
281
     0
  0
CLASS
  1
ACDBPLACEHOLDER
  2
AcDbPlaceHolder
  3
"AutoCAD 2000"
 90
        1
280
     0
281
     0
  0
CLASS
  1
VBA_PROJECT
  2
AcDbVbaProject
  3
"acadvba"
 90
        1
280
     0
281
     0
  0
CLASS
  1
WIPEOUT
  2
AcDbWipeout
  3
WipeOut|AutoCAD Express Tool|expresstools@autodesk.com
 90
      127
280
     0
281
     1
  0
CLASS
  1
WIPEOUTVARIABLES
  2
AcDbWipeoutVariables
  3
WipeOut|AutoCAD Express Tool|expresstools@autodesk.com
 90
        0
280
     0
281
     0
  0
CLASS
  1
RTEXT
  2
RText
  3
RText|AutoCAD Express Tool|expresstools@autodesk.com
 90
        0
280
     0
281
     1
  0
CLASS
  1
ARCALIGNEDTEXT
  2
AcDbArcAlignedText
  3
ATEXT|AutoCAD Express Tool|expresstools@autodesk.com
 90
        0
280
     0
281
     1
  0
ENDSEC
  0
SECTION
  2
TABLES
  0
TABLE
  2
VPORT
  5
7
100
AcDbSymbolTable
 70
     2
  0
VPORT
  5
15
100
AcDbSymbolTableRecord
100
AcDbViewportTableRecord
  2
*ACTIVE
 70
     0
 10
0.0
 20
0.0
 11
1.0
 21
1.0
 12
6.591288
 22
4.579184
 13
0.0
 23
0.0
 14
1.0
 24
1.0
 15
0.0
 25
0.0
 16
0.0
 26
0.0
 36
1.0
 17
0.0
 27
0.0
 37
0.0
 40
9.158369
 41
0.688564
 42
50.0
 43
0.0
 44
0.0
 50
0.0
 51
0.0
 71
     0
 72
   100
 73
     1
 74
     1
 75
     0
 76
     0
 77
     0
 78
     0
  0
VPORT
  5
405
100
AcDbSymbolTableRecord
100
AcDbViewportTableRecord
  2
MYVPORT
 70
     0
 10
0.0
 20
0.0
 11
1.0
 21
1.0
 12
6.21
 22
9.02
 13
0.0
 23
0.0
 14
1.0
 24
1.0
 15
0.0
 25
0.0
 16
0.0
 26
0.0
 36
1.0
 17
0.0
 27
0.0
 37
0.0
 40
18.04
 41
0.688564
 42
50.0
 43
0.0
 44
0.0
 50
0.0
 51
0.0
 71
     0
 72
   100
 73
     1
 74
     1
 75
     0
 76
     0
 77
     0
 78
     0
  0
ENDTAB
  0
TABLE
  2
LTYPE
  5
4
100
AcDbSymbolTable
 70
     3
  0
LTYPE
  5
11
100
AcDbSymbolTableRecord
100
AcDbLinetypeTableRecord
  2
BYBLOCK
 70
    64
  3

 72
    65
 73
     0
 40
0.0
  0
LTYPE
  5
12
100
AcDbSymbolTableRecord
100
AcDbLinetypeTableRecord
  2
BYLAYER
 70
    64
  3

 72
    65
 73
     0
 40
0.0
  0
LTYPE
  5
13
100
AcDbSymbolTableRecord
100
AcDbLinetypeTableRecord
  2
CONTINUOUS
 70
    64
  3
Solid line
 72
    65
 73
     0
 40
0.0
  0
ENDTAB
  0
TABLE
  2
LAYER
  5
2
100
AcDbSymbolTable
 70
     1
  0
LAYER
  5
14
100
AcDbSymbolTableRecord
100
AcDbLayerTableRecord
  2
0
 70
     0
 62
     7
  6
CONTINUOUS
  0
ENDTAB
  0
TABLE
  2
STYLE
  5
3
100
AcDbSymbolTable
 70
     2
  0
STYLE
  5
17
100
AcDbSymbolTableRecord
100
AcDbTextStyleTableRecord
  2
STANDARD
 70
     0
 40
0.0
 41
1.0
 50
0.0
 71
     0
 42
0.0
  3
txt
  4

  0
STYLE
  5
24
100
AcDbSymbolTableRecord
100
AcDbTextStyleTableRecord
  2
VCADD_ARIAL
 70
     0
 40
0.0
 41
1.0
 50
0.0
 71
     0
 42
0.0
  3
Arial
  4

  0
ENDTAB
  0
TABLE
  2
VIEW
  5
5
100
AcDbSymbolTable
 70
     0
  0
ENDTAB
  0
TABLE
  2
UCS
  5
6
100
AcDbSymbolTable
 70
     1
  0
UCS
  5
404
100
AcDbSymbolTableRecord
100
AcDbUCSTableRecord
  2
MYUCS
 70
     0
 10
0.0
 20
0.0
 30
0.0
 11
0.0
 21
1.0
 31
0.0
 12
0.0
 22
0.0
 32
1.0
  0
ENDTAB
  0
TABLE
  2
APPID
  5
8
100
AcDbSymbolTable
 70
     1
  0
APPID
  5
16
100
AcDbSymbolTableRecord
100
AcDbRegAppTableRecord
  2
ACAD
 70
     0
  0
ENDTAB
  0
TABLE
  2
DIMSTYLE
  5
9
100
AcDbSymbolTable
 70
     2
  0
DIMSTYLE
105
18
100
AcDbSymbolTableRecord
100
AcDbDimStyleTableRecord
  2
STANDARD
 70
     0
  3

  4

  5

  6

  7

 40
1.0
 41
0.18
 42
0.0625
 43
0.38
 44
0.18
 45
0.0
 46
0.0
 47
0.0
 48
0.0
 71
     0
 72
     0
 73
     1
 74
     1
 75
     0
 76
     0
 77
     0
 78
     0
140
0.18
141
0.09
142
0.0
143
25.4
144
1.0
145
0.0
146
1.0
147
0.09
170
     0
171
     2
172
     0
173
     0
174
     0
175
     0
176
     0
177
     0
178
     0
270
     2
271
     4
272
     4
273
     2
274
     2
275
     0
280
     0
281
     0
282
     0
283
     1
284
     0
285
     0
286
     0
287
     0
288
     0
340
17
  0
DIMSTYLE
105
25
100
AcDbSymbolTableRecord
100
AcDbDimStyleTableRecord
  2
VCADD_DIMSTYLE
 70
     0
  3

  4

  5

  6

  7

 40
1.0
 41
116.1288
 42
1.5875
 43
0.0
 44
4.572
 45
0.0
 46
0.0
 47
0.0
 48
0.0
 71
     0
 72
     0
 73
     1
 74
     1
 75
     0
 76
     0
 77
     0
 78
     3
140
116.1288
141
0.0
142
0.0
143
25.4
144
1.0
145
0.0
146
1.0
147
2.54
170
     0
171
     4
172
     0
173
     0
174
     1
175
     0
176
    12
177
    12
178
    12
270
     2
271
     4
272
     4
273
     2
274
     2
275
     0
280
     0
281
     0
282
     0
283
     1
284
     0
285
     0
286
     0
287
     0
288
     0
340
24
  0
ENDTAB
  0
TABLE
  2
BLOCK_RECORD
  5
1
100
AcDbSymbolTable
 70
     1
  0
BLOCK_RECORD
  5
A
100
AcDbSymbolTableRecord
100
AcDbBlockTableRecord
  2
*MODEL_SPACE
  0
BLOCK_RECORD
  5
B
100
AcDbSymbolTableRecord
100
AcDbBlockTableRecord
  2
*PAPER_SPACE
  0
BLOCK_RECORD
  5
1D
100
AcDbSymbolTableRecord
100
AcDbBlockTableRecord
  2
_CLOSED
  0
ENDTAB
  0
ENDSEC
  0
SECTION
  2
BLOCKS
  0
BLOCK
  5
D
100
AcDbEntity
  8
0
100
AcDbBlockBegin
  2
*MODEL_SPACE
 70
     0
 10
0.0
 20
0.0
 30
0.0
  3
*MODEL_SPACE
  1

  0
ENDBLK
  5
E
100
AcDbEntity
  8
0
100
AcDbBlockEnd
  0
BLOCK
  5
F
100
AcDbEntity
 67
     1
  8
0
100
AcDbBlockBegin
  2
*PAPER_SPACE
 70
     0
 10
0.0
 20
0.0
 30
0.0
  3
*PAPER_SPACE
  1

  0
ENDBLK
  5
10
100
AcDbEntity
 67
     1
  8
0
100
AcDbBlockEnd
  0
BLOCK
  5
1E
100
AcDbEntity
  8
0
100
AcDbBlockBegin
  2
_CLOSED
 70
     0
 10
0.0
 20
0.0
 30
0.0
  3
_CLOSED
  1

  0
LINE
  5
1F
100
AcDbEntity
  8
0
  6
BYBLOCK
 62
     0
100
AcDbLine
 10
-1.0
 20
0.166667
 30
0.0
 11
0.0
 21
0.0
 31
0.0
  0
LINE
  5
20
100
AcDbEntity
  8
0
  6
BYBLOCK
 62
     0
100
AcDbLine
 10
0.0
 20
0.0
 30
0.0
 11
-1.0
 21
-0.166667
 31
0.0
  0
LINE
  5
21
100
AcDbEntity
  8
0
  6
BYBLOCK
 62
     0
100
AcDbLine
 10
-1.0
 20
0.166667
 30
0.0
 11
-1.0
 21
-0.166667
 31
0.0
  0
LINE
  5
22
100
AcDbEntity
  8
0
  6
BYBLOCK
 62
     0
100
AcDbLine
 10
0.0
 20
0.0
 30
0.0
 11
-1.0
 21
0.0
 31
0.0
  0
ENDBLK
  5
23
100
AcDbEntity
  8
0
100
AcDbBlockEnd
  0
ENDSEC
  0
SECTION
  2
ENTITIES
  0
VIEWPORT
  5
26
100
AcDbEntity
 67
     1
  8
0
  6
CONTINUOUS
 62
     0
100
AcDbViewport
 10
114.3
 20
82.782715
 30
0.0
 40
326.571432
 41
236.522057
 68
     1
 69
     1
1001
ACAD
1000
MVIEW
1002
{
1070
    16
1010
0.0
1020
0.0
1030
0.0
1010
0.0
1020
0.0
1030
1.0
1040
0.0
1040
1084.5
1040
762.9316
1040
546.5183
1040
50.0
1040
-55.0
1040
-55.0
1070
     0
1070
   500
1070
     0
1070
     0
1070
     0
1070
     0
1070
     0
1070
     0
1040
0.0
1040
1169.457242
1040
377.488
1040
0.5
1040
0.5
1040
12.0
1040
12.0
1070
     0
1002
{
1002
}
1002
}
  0
POLYLINE
  5
27
100
AcDbEntity
  8
0
  6
CONTINUOUS
 62
     0
100
AcDb2dPolyline
 66
     1
 10
0.0
 20
0.0
 30
0.0
 70
   129
  0
VERTEX
  5
28
100
AcDbEntity
  8
0
  6
CONTINUOUS
 62
     0
100
AcDbVertex
100
AcDb2dVertex
 10
215.425349
 20
400.903207
 30
0.0
  0
VERTEX
  5
29
100
AcDbEntity
  8
0
  6
CONTINUOUS
 62
     0
100
AcDbVertex
100
AcDb2dVertex
 10
225.425349
 20
400.903207
 30
0.0
  0
VERTEX
  5
2A
100
AcDbEntity
  8
0
  6
CONTINUOUS
 62
     0
100
AcDbVertex
100
AcDb2dVertex
 10
225.425349
 20
400.903207
 30
0.0
  0
VERTEX
  5
2B
100
AcDbEntity
  8
0
  6
CONTINUOUS
 62
     0
100
AcDbVertex
100
AcDb2dVertex
 10
225.425349
 20
404.903207
 30
0.0
  0
VERTEX
  5
2C
100
AcDbEntity
  8
0
  6
CONTINUOUS
 62
     0
100
AcDbVertex
100
AcDb2dVertex
 10
225.425349
 20
404.903207
 30
0.0
  0
VERTEX
  5
2D
100
AcDbEntity
  8
0
  6
CONTINUOUS
 62
     0
100
AcDbVertex
100
AcDb2dVertex
 10
215.425349
 20
404.903207
 30
0.0
  0
VERTEX
  5
2E
100
AcDbEntity
  8
0
  6
CONTINUOUS
 62
     0
100
AcDbVertex
100
AcDb2dVertex
 10
215.425349
 20
404.903207
 30
0.0
  0
VERTEX
  5
2F
100
AcDbEntity
  8
0
  6
CONTINUOUS
 62
     0
100
AcDbVertex
100
AcDb2dVertex
 10
215.425349
 20
400.903207
 30
0.0
  0
SEQEND
  5
30
100
AcDbEntity
  8
0
  6
CONTINUOUS
 62
     0
  0
POLYLINE
  5
31
100
AcDbEntity
  8
0
  6
CONTINUOUS
 62
     0
100
AcDb2dPolyline
 66
     1
 10
0.0
 20
0.0
 30
0.0
 70
   129
  0
VERTEX
  5
32
100
AcDbEntity
  8
0
  6
CONTINUOUS
 62
     0
100
AcDbVertex
100
AcDb2dVertex
 10
105.552161
 20
291.030019
 30
0.0
  0
VERTEX
  5
33
100
AcDbEntity
  8
0
  6
CONTINUOUS
 62
     0
100
AcDbVertex
100
AcDb2dVertex
 10
105.552161
 20
281.030019
 30
0.0
  0
VERTEX
  5
34
100
AcDbEntity
  8
0
  6
CONTINUOUS
 62
     0
100
AcDbVertex
100
AcDb2dVertex
 10
105.552161
 20
281.030019
 30
0.0
  0
VERTEX
  5
35
100
AcDbEntity
  8
0
  6
CONTINUOUS
 62
     0
100
AcDbVertex
100
AcDb2dVertex
 10
101.552161
 20
281.030019
 30
0.0
  0
VERTEX
  5
36
100
AcDbEntity
  8
0
  6
CONTINUOUS
 62
     0
100
AcDbVertex
100
AcDb2dVertex
 10
101.552161
 20
281.030019
 30
0.0
  0
VERTEX
  5
37
100
AcDbEntity
  8
0
  6
CONTINUOUS
 62
     0
100
AcDbVertex
100
AcDb2dVertex
 10
101.552161
 20
291.030019
 30
0.0
  0
VERTEX
  5
38
100
AcDbEntity
  8
0
  6
CONTINUOUS
 62
     0
100
AcDbVertex
100
AcDb2dVertex
 10
101.552161
 20
291.030019
 30
0.0
  0
VERTEX
  5
39
100
AcDbEntity
  8
0
  6
CONTINUOUS
 62
     0
100
AcDbVertex
100
AcDb2dVertex
 10
105.552161
 20
291.030019
 30
0.0
  0
SEQEND
  5
3A
100
AcDbEntity
  8
0
  6
CONTINUOUS
 62
     0
  0
POLYLINE
  5
3B
100
AcDbEntity
  8
0
  6
CONTINUOUS
 62
     0
100
AcDb2dPolyline
 66
     1
 10
0.0
 20
0.0
 30
0.0
 70
   129
  0
VERTEX
  5
3C
100
AcDbEntity
  8
0
  6
CONTINUOUS
 62
     0
100
AcDbVertex
100
AcDb2dVertex
 10
-8.321027
 20
400.903207
 30
0.0
  0
VERTEX
  5
3D
100
AcDbEntity
  8
0
  6
CONTINUOUS
 62
     0
100
AcDbVertex
100
AcDb2dVertex
 10
-18.321027
 20
400.903207
 30
0.0
  0
VERTEX
  5
3E
100
AcDbEntity
  8
0
  6
CONTINUOUS
 62
     0
100
AcDbVertex
100
AcDb2dVertex
 10
-18.321027
 20
400.903207
 30
0.0
  0
VERTEX
  5
3F
100
AcDbEntity
  8
0
  6
CONTINUOUS
 62
     0
100
AcDbVertex
100
AcDb2dVertex
 10
-18.321027
 20
404.903207
 30
0.0
  0
VERTEX
  5
40
100
AcDbEntity
  8
0
  6
CONTINUOUS
 62
     0
100
AcDbVertex
100
AcDb2dVertex
 10
-18.321027
 20
404.903207
 30
0.0
  0
VERTEX
  5
41
100
AcDbEntity
  8
0
  6
CONTINUOUS
 62
     0
100
AcDbVertex
100
AcDb2dVertex
 10
-8.321027
 20
404.903207
 30
0.0
  0
VERTEX
  5
42
100
AcDbEntity
  8
0
  6
CONTINUOUS
 62
     0
100
AcDbVertex
100
AcDb2dVertex
 10
-8.321027
 20
404.903207
 30
0.0
  0
VERTEX
  5
43
100
AcDbEntity
  8
0
  6
CONTINUOUS
 62
     0
100
AcDbVertex
100
AcDb2dVertex
 10
-8.321027
 20
400.903207
 30
0.0
  0
SEQEND
  5
44
100
AcDbEntity
  8
0
  6
CONTINUOUS
 62
     0
  0
POLYLINE
  5
45
100
AcDbEntity
  8
0
  6
CONTINUOUS
 62
     0
100
AcDb2dPolyline
 66
     1
 10
0.0
 20
0.0
 30
0.0
 70
   129
  0
VERTEX
  5
46
100
AcDbEntity
  8
0
  6
CONTINUOUS
 62
     0
100
AcDbVertex
100
AcDb2dVertex
 10
105.552161
 20
514.776396
 30
0.0
  0
VERTEX
  5
47
100
AcDbEntity
  8
0
  6
CONTINUOUS
 62
     0
100
AcDbVertex
100
AcDb2dVertex
 10
105.552161
 20
524.776396
 30
0.0
  0
VERTEX
  5
48
100
AcDbEntity
  8
0
  6
CONTINUOUS
 62
     0
100
AcDbVertex
100
AcDb2dVertex
 10
105.552161
 20
524.776396
 30
0.0
  0
VERTEX
  5
49
100
AcDbEntity
  8
0
  6
CONTINUOUS
 62
     0
100
AcDbVertex
100
AcDb2dVertex
 10
101.552161
 20
524.776396
 30
0.0
  0
VERTEX
  5
4A
100
AcDbEntity
  8
0
  6
CONTINUOUS
 62
     0
100
AcDbVertex
100
AcDb2dVertex
 10
101.552161
 20
524.776396
 30
0.0
  0
VERTEX
  5
4B
100
AcDbEntity
  8
0
  6
CONTINUOUS
 62
     0
100
AcDbVertex
100
AcDb2dVertex
 10
101.552161
 20
514.776396
 30
0.0
  0
VERTEX
  5
4C
100
AcDbEntity
  8
0
  6
CONTINUOUS
 62
     0
100
AcDbVertex
100
AcDb2dVertex
 10
101.552161
 20
514.776396
 30
0.0
  0
VERTEX
  5
4D
100
AcDbEntity
  8
0
  6
CONTINUOUS
 62
     0
100
AcDbVertex
100
AcDb2dVertex
 10
105.552161
 20
514.776396
 30
0.0
  0
SEQEND
  5
4E
100
AcDbEntity
  8
0
  6
CONTINUOUS
 62
     0
  0
POLYLINE
  5
4F
100
AcDbEntity
  8
0
  6
CONTINUOUS
 62
     0
100
AcDb2dPolyline
 66
     1
 10
0.0
 20
0.0
 30
0.0
 70
   129
  0
VERTEX
  5
50
100
AcDbEntity
  8
0
  6
CONTINUOUS
 62
     0
100
AcDbVertex
100
AcDb2dVertex
 10
184.072664
 20
480.595284
 30
0.0
  0
VERTEX
  5
51
100
AcDbEntity
  8
0
  6
CONTINUOUS
 62
     0
100
AcDbVertex
100
AcDb2dVertex
 10
191.143732
 20
487.666352
 30
0.0
  0
VERTEX
  5
52
100
AcDbEntity
  8
0
  6
CONTINUOUS
 62
     0
100
AcDbVertex
100
AcDb2dVertex
 10
191.143732
 20
487.666352
 30
0.0
  0
VERTEX
  5
53
100
AcDbEntity
  8
0
  6
CONTINUOUS
 62
     0
100
AcDbVertex
100
AcDb2dVertex
 10
188.315305
 20
490.494779
 30
0.0
  0
VERTEX
  5
54
100
AcDbEntity
  8
0
  6
CONTINUOUS
 62
     0
100
AcDbVertex
100
AcDb2dVertex
 10
188.315305
 20
490.494779
 30
0.0
  0
VERTEX
  5
55
100
AcDbEntity
  8
0
  6
CONTINUOUS
 62
     0
100
AcDbVertex
100
AcDb2dVertex
 10
181.244237
 20
483.423711
 30
0.0
  0
VERTEX
  5
56
100
AcDbEntity
  8
0
  6
CONTINUOUS
 62
     0
100
AcDbVertex
100
AcDb2dVertex
 10
181.244237
 20
483.423711
 30
0.0
  0
VERTEX
  5
57
100
AcDbEntity
  8
0
  6
CONTINUOUS
 62
     0
100
AcDbVertex
100
AcDb2dVertex
 10
184.072664
 20
480.595284
 30
0.0
  0
SEQEND
  5
58
100
AcDbEntity
  8
0
  6
CONTINUOUS
 62
     0
  0
POLYLINE
  5
59
100
AcDbEntity
  8
0
  6
CONTINUOUS
 62
     0
100
AcDb2dPolyline
 66
     1
 10
0.0
 20
0.0
 30
0.0
 70
   129
  0
VERTEX
  5
5A
100
AcDbEntity
  8
0
  6
CONTINUOUS
 62
     0
100
AcDbVertex
100
AcDb2dVertex
 10
25.860084
 20
483.423711
 30
0.0
  0
VERTEX
  5
5B
100
AcDbEntity
  8
0
  6
CONTINUOUS
 62
     0
100
AcDbVertex
100
AcDb2dVertex
 10
18.789017
 20
490.494779
 30
0.0
  0
VERTEX
  5
5C
100
AcDbEntity
  8
0
  6
CONTINUOUS
 62
     0
100
AcDbVertex
100
AcDb2dVertex
 10
18.789017
 20
490.494779
 30
0.0
  0
VERTEX
  5
5D
100
AcDbEntity
  8
0
  6
CONTINUOUS
 62
     0
100
AcDbVertex
100
AcDb2dVertex
 10
15.96059
 20
487.666352
 30
0.0
  0
VERTEX
  5
5E
100
AcDbEntity
  8
0
  6
CONTINUOUS
 62
     0
100
AcDbVertex
100
AcDb2dVertex
 10
15.96059
 20
487.666352
 30
0.0
  0
VERTEX
  5
5F
100
AcDbEntity
  8
0
  6
CONTINUOUS
 62
     0
100
AcDbVertex
100
AcDb2dVertex
 10
23.031657
 20
480.595284
 30
0.0
  0
VERTEX
  5
60
100
AcDbEntity
  8
0
  6
CONTINUOUS
 62
     0
100
AcDbVertex
100
AcDb2dVertex
 10
23.031657
 20
480.595284
 30
0.0
  0
VERTEX
  5
61
100
AcDbEntity
  8
0
  6
CONTINUOUS
 62
     0
100
AcDbVertex
100
AcDb2dVertex
 10
25.860084
 20
483.423711
 30
0.0
  0
SEQEND
  5
62
100
AcDbEntity
  8
0
  6
CONTINUOUS
 62
     0
  0
POLYLINE
  5
63
100
AcDbEntity
  8
0
  6
CONTINUOUS
 62
     0
100
AcDb2dPolyline
 66
     1
 10
0.0
 20
0.0
 30
0.0
 70
   129
  0
VERTEX
  5
64
100
AcDbEntity
  8
0
  6
CONTINUOUS
 62
     0
100
AcDbVertex
100
AcDb2dVertex
 10
23.031657
 20
325.211131
 30
0.0
  0
VERTEX
  5
65
100
AcDbEntity
  8
0
  6
CONTINUOUS
 62
     0
100
AcDbVertex
100
AcDb2dVertex
 10
15.96059
 20
318.140063
 30
0.0
  0
VERTEX
  5
66
100
AcDbEntity
  8
0
  6
CONTINUOUS
 62
     0
100
AcDbVertex
100
AcDb2dVertex
 10
15.96059
 20
318.140063
 30
0.0
  0
VERTEX
  5
67
100
AcDbEntity
  8
0
  6
CONTINUOUS
 62
     0
100
AcDbVertex
100
AcDb2dVertex
 10
18.789017
 20
315.311636
 30
0.0
  0
VERTEX
  5
68
100
AcDbEntity
  8
0
  6
CONTINUOUS
 62
     0
100
AcDbVertex
100
AcDb2dVertex
 10
18.789017
 20
315.311636
 30
0.0
  0
VERTEX
  5
69
100
AcDbEntity
  8
0
  6
CONTINUOUS
 62
     0
100
AcDbVertex
100
AcDb2dVertex
 10
25.860084
 20
322.382704
 30
0.0
  0
VERTEX
  5
6A
100
AcDbEntity
  8
0
  6
CONTINUOUS
 62
     0
100
AcDbVertex
100
AcDb2dVertex
 10
25.860084
 20
322.382704
 30
0.0
  0
VERTEX
  5
6B
100
AcDbEntity
  8
0
  6
CONTINUOUS
 62
     0
100
AcDbVertex
100
AcDb2dVertex
 10
23.031657
 20
325.211131
 30
0.0
  0
SEQEND
  5
6C
100
AcDbEntity
  8
0
  6
CONTINUOUS
 62
     0
  0
POLYLINE
  5
6D
100
AcDbEntity
  8
0
  6
CONTINUOUS
 62
     0
100
AcDb2dPolyline
 66
     1
 10
0.0
 20
0.0
 30
0.0
 70
   129
  0
VERTEX
  5
6E
100
AcDbEntity
  8
0
  6
CONTINUOUS
 62
     0
100
AcDbVertex
100
AcDb2dVertex
 10
181.244237
 20
322.382704
 30
0.0
  0
VERTEX
  5
6F
100
AcDbEntity
  8
0
  6
CONTINUOUS
 62
     0
100
AcDbVertex
100
AcDb2dVertex
 10
188.315305
 20
315.311636
 30
0.0
  0
VERTEX
  5
70
100
AcDbEntity
  8
0
  6
CONTINUOUS
 62
     0
100
AcDbVertex
100
AcDb2dVertex
 10
188.315305
 20
315.311636
 30
0.0
  0
VERTEX
  5
71
100
AcDbEntity
  8
0
  6
CONTINUOUS
 62
     0
100
AcDbVertex
100
AcDb2dVertex
 10
191.143732
 20
318.140063
 30
0.0
  0
VERTEX
  5
72
100
AcDbEntity
  8
0
  6
CONTINUOUS
 62
     0
100
AcDbVertex
100
AcDb2dVertex
 10
191.143732
 20
318.140063
 30
0.0
  0
VERTEX
  5
73
100
AcDbEntity
  8
0
  6
CONTINUOUS
 62
     0
100
AcDbVertex
100
AcDb2dVertex
 10
184.072664
 20
325.211131
 30
0.0
  0
VERTEX
  5
74
100
AcDbEntity
  8
0
  6
CONTINUOUS
 62
     0
100
AcDbVertex
100
AcDb2dVertex
 10
184.072664
 20
325.211131
 30
0.0
  0
VERTEX
  5
75
100
AcDbEntity
  8
0
  6
CONTINUOUS
 62
     0
100
AcDbVertex
100
AcDb2dVertex
 10
181.244237
 20
322.382704
 30
0.0
  0
SEQEND
  5
76
100
AcDbEntity
  8
0
  6
CONTINUOUS
 62
     0
  0
CIRCLE
  5
77
100
AcDbEntity
  8
0
  6
CONTINUOUS
 62
     0
100
AcDbCircle
 10
251.441537
 20
421.06174
 30
0.0
 40
13.0
  0
CIRCLE
  5
78
100
AcDbEntity
  8
0
  6
CONTINUOUS
 62
     0
100
AcDbCircle
 10
245.077028
 20
449.532569
 30
0.0
 40
13.0
  0
CIRCLE
  5
79
100
AcDbEntity
  8
0
  6
CONTINUOUS
 62
     0
100
AcDbCircle
 10
233.280428
 20
476.214685
 30
0.0
 40
13.0
  0
CIRCLE
  5
7A
100
AcDbEntity
  8
0
  6
CONTINUOUS
 62
     0
100
AcDbCircle
 10
216.505074
 20
500.082709
 30
0.0
 40
13.0
  0
CIRCLE
  5
7B
100
AcDbEntity
  8
0
  6
CONTINUOUS
 62
     0
100
AcDbCircle
 10
195.395633
 20
520.219406
 30
0.0
 40
13.0
  0
CIRCLE
  5
7C
100
AcDbEntity
  8
0
  6
CONTINUOUS
 62
     0
100
AcDbCircle
 10
170.763329
 20
535.850935
 30
0.0
 40
13.0
  0
CIRCLE
  5
7D
100
AcDbEntity
  8
0
  6
CONTINUOUS
 62
     0
100
AcDbCircle
 10
143.554767
 20
546.376585
 30
0.0
 40
13.0
  0
CIRCLE
  5
7E
100
AcDbEntity
  8
0
  6
CONTINUOUS
 62
     0
100
AcDbCircle
 10
114.815559
 20
551.391859
 30
0.0
 40
13.0
  0
CIRCLE
  5
7F
100
AcDbEntity
  8
0
  6
CONTINUOUS
 62
     0
100
AcDbCircle
 10
85.650135
 20
550.704026
 30
0.0
 40
13.0
  0
CIRCLE
  5
80
100
AcDbEntity
  8
0
  6
CONTINUOUS
 62
     0
100
AcDbCircle
 10
57.179305
 20
544.339517
 30
0.0
 40
13.0
  0
CIRCLE
  5
81
100
AcDbEntity
  8
0
  6
CONTINUOUS
 62
     0
100
AcDbCircle
 10
30.497189
 20
532.542916
 30
0.0
 40
13.0
  0
CIRCLE
  5
82
100
AcDbEntity
  8
0
  6
CONTINUOUS
 62
     0
100
AcDbCircle
 10
6.629165
 20
515.767562
 30
0.0
 40
13.0
  0
CIRCLE
  5
83
100
AcDbEntity
  8
0
  6
CONTINUOUS
 62
     0
100
AcDbCircle
 10
-13.507532
 20
494.658121
 30
0.0
 40
13.0
  0
CIRCLE
  5
84
100
AcDbEntity
  8
0
  6
CONTINUOUS
 62
     0
100
AcDbCircle
 10
-29.139061
 20
470.025817
 30
0.0
 40
13.0
  0
CIRCLE
  5
85
100
AcDbEntity
  8
0
  6
CONTINUOUS
 62
     0
100
AcDbCircle
 10
-39.66471
 20
442.817256
 30
0.0
 40
13.0
  0
CIRCLE
  5
86
100
AcDbEntity
  8
0
  6
CONTINUOUS
 62
     0
100
AcDbCircle
 10
-44.679985
 20
414.078047
 30
0.0
 40
13.0
  0
CIRCLE
  5
87
100
AcDbEntity
  8
0
  6
CONTINUOUS
 62
     0
100
AcDbCircle
 10
-43.992152
 20
384.912623
 30
0.0
 40
13.0
  0
CIRCLE
  5
88
100
AcDbEntity
  8
0
  6
CONTINUOUS
 62
     0
100
AcDbCircle
 10
-37.627642
 20
356.441794
 30
0.0
 40
13.0
  0
CIRCLE
  5
89
100
AcDbEntity
  8
0
  6
CONTINUOUS
 62
     0
100
AcDbCircle
 10
-25.831042
 20
329.759678
 30
0.0
 40
13.0
  0
CIRCLE
  5
8A
100
AcDbEntity
  8
0
  6
CONTINUOUS
 62
     0
100
AcDbCircle
 10
-9.055688
 20
305.891653
 30
0.0
 40
13.0
  0
CIRCLE
  5
8B
100
AcDbEntity
  8
0
  6
CONTINUOUS
 62
     0
100
AcDbCircle
 10
12.053753
 20
285.754956
 30
0.0
 40
13.0
  0
CIRCLE
  5
8C
100
AcDbEntity
  8
0
  6
CONTINUOUS
 62
     0
100
AcDbCircle
 10
36.686057
 20
270.123427
 30
0.0
 40
13.0
  0
CIRCLE
  5
8D
100
AcDbEntity
  8
0
  6
CONTINUOUS
 62
     0
100
AcDbCircle
 10
63.894618
 20
259.597778
 30
0.0
 40
13.0
  0
CIRCLE
  5
8E
100
AcDbEntity
  8
0
  6
CONTINUOUS
 62
     0
100
AcDbCircle
 10
92.633827
 20
254.582503
 30
0.0
 40
13.0
  0
CIRCLE
  5
8F
100
AcDbEntity
  8
0
  6
CONTINUOUS
 62
     0
100
AcDbCircle
 10
121.799251
 20
255.270337
 30
0.0
 40
13.0
  0
CIRCLE
  5
90
100
AcDbEntity
  8
0
  6
CONTINUOUS
 62
     0
100
AcDbCircle
 10
150.270081
 20
261.634846
 30
0.0
 40
13.0
  0
CIRCLE
  5
91
100
AcDbEntity
  8
0
  6
CONTINUOUS
 62
     0
100
AcDbCircle
 10
176.952197
 20
273.431446
 30
0.0
 40
13.0
  0
CIRCLE
  5
92
100
AcDbEntity
  8
0
  6
CONTINUOUS
 62
     0
100
AcDbCircle
 10
200.820221
 20
290.2068
 30
0.0
 40
13.0
  0
CIRCLE
  5
93
100
AcDbEntity
  8
0
  6
CONTINUOUS
 62
     0
100
AcDbCircle
 10
220.956918
 20
311.316242
 30
0.0
 40
13.0
  0
CIRCLE
  5
94
100
AcDbEntity
  8
0
  6
CONTINUOUS
 62
     0
100
AcDbCircle
 10
236.588447
 20
335.948546
 30
0.0
 40
13.0
  0
CIRCLE
  5
95
100
AcDbEntity
  8
0
  6
CONTINUOUS
 62
     0
100
AcDbCircle
 10
247.114096
 20
363.157107
 30
0.0
 40
13.0
  0
CIRCLE
  5
96
100
AcDbEntity
  8
0
  6
CONTINUOUS
 62
     0
100
AcDbCircle
 10
252.129371
 20
391.896315
 30
0.0
 40
13.0
  0
POLYLINE
  5
97
100
AcDbEntity
  8
0
  6
CONTINUOUS
 62
     0
100
AcDb2dPolyline
 66
     1
 10
0.0
 20
0.0
 30
0.0
 70
   129
  0
VERTEX
  5
98
100
AcDbEntity
  8
0
  6
CONTINUOUS
 62
     0
100
AcDbVertex
100
AcDb2dVertex
 10
95.587516
 20
118.445672
 30
0.0
  0
VERTEX
  5
99
100
AcDbEntity
  8
0
  6
CONTINUOUS
 62
     0
100
AcDbVertex
100
AcDb2dVertex
 10
105.587516
 20
118.445672
 30
0.0
  0
VERTEX
  5
9A
100
AcDbEntity
  8
0
  6
CONTINUOUS
 62
     0
100
AcDbVertex
100
AcDb2dVertex
 10
105.587516
 20
118.445672
 30
0.0
  0
VERTEX
  5
9B
100
AcDbEntity
  8
0
  6
CONTINUOUS
 62
     0
100
AcDbVertex
100
AcDb2dVertex
 10
105.587516
 20
122.445672
 30
0.0
  0
VERTEX
  5
9C
100
AcDbEntity
  8
0
  6
CONTINUOUS
 62
     0
100
AcDbVertex
100
AcDb2dVertex
 10
105.587516
 20
122.445672
 30
0.0
  0
VERTEX
  5
9D
100
AcDbEntity
  8
0
  6
CONTINUOUS
 62
     0
100
AcDbVertex
100
AcDb2dVertex
 10
95.587516
 20
122.445672
 30
0.0
  0
VERTEX
  5
9E
100
AcDbEntity
  8
0
  6
CONTINUOUS
 62
     0
100
AcDbVertex
100
AcDb2dVertex
 10
95.587516
 20
122.445672
 30
0.0
  0
VERTEX
  5
9F
100
AcDbEntity
  8
0
  6
CONTINUOUS
 62
     0
100
AcDbVertex
100
AcDb2dVertex
 10
95.587516
 20
118.445672
 30
0.0
  0
SEQEND
  5
A0
100
AcDbEntity
  8
0
  6
CONTINUOUS
 62
     0
  0
POLYLINE
  5
A1
100
AcDbEntity
  8
0
  6
CONTINUOUS
 62
     0
100
AcDb2dPolyline
 66
     1
 10
0.0
 20
0.0
 30
0.0
 70
   129
  0
VERTEX
  5
A2
100
AcDbEntity
  8
0
  6
CONTINUOUS
 62
     0
100
AcDbVertex
100
AcDb2dVertex
 10
45.587516
 20
68.445672
 30
0.0
  0
VERTEX
  5
A3
100
AcDbEntity
  8
0
  6
CONTINUOUS
 62
     0
100
AcDbVertex
100
AcDb2dVertex
 10
45.587516
 20
58.445672
 30
0.0
  0
VERTEX
  5
A4
100
AcDbEntity
  8
0
  6
CONTINUOUS
 62
     0
100
AcDbVertex
100
AcDb2dVertex
 10
45.587516
 20
58.445672
 30
0.0
  0
VERTEX
  5
A5
100
AcDbEntity
  8
0
  6
CONTINUOUS
 62
     0
100
AcDbVertex
100
AcDb2dVertex
 10
41.587516
 20
58.445672
 30
0.0
  0
VERTEX
  5
A6
100
AcDbEntity
  8
0
  6
CONTINUOUS
 62
     0
100
AcDbVertex
100
AcDb2dVertex
 10
41.587516
 20
58.445672
 30
0.0
  0
VERTEX
  5
A7
100
AcDbEntity
  8
0
  6
CONTINUOUS
 62
     0
100
AcDbVertex
100
AcDb2dVertex
 10
41.587516
 20
68.445672
 30
0.0
  0
VERTEX
  5
A8
100
AcDbEntity
  8
0
  6
CONTINUOUS
 62
     0
100
AcDbVertex
100
AcDb2dVertex
 10
41.587516
 20
68.445672
 30
0.0
  0
VERTEX
  5
A9
100
AcDbEntity
  8
0
  6
CONTINUOUS
 62
     0
100
AcDbVertex
100
AcDb2dVertex
 10
45.587516
 20
68.445672
 30
0.0
  0
SEQEND
  5
AA
100
AcDbEntity
  8
0
  6
CONTINUOUS
 62
     0
  0
POLYLINE
  5
AB
100
AcDbEntity
  8
0
  6
CONTINUOUS
 62
     0
100
AcDb2dPolyline
 66
     1
 10
0.0
 20
0.0
 30
0.0
 70
   129
  0
VERTEX
  5
AC
100
AcDbEntity
  8
0
  6
CONTINUOUS
 62
     0
100
AcDbVertex
100
AcDb2dVertex
 10
-8.412484
 20
118.445672
 30
0.0
  0
VERTEX
  5
AD
100
AcDbEntity
  8
0
  6
CONTINUOUS
 62
     0
100
AcDbVertex
100
AcDb2dVertex
 10
-18.412484
 20
118.445672
 30
0.0
  0
VERTEX
  5
AE
100
AcDbEntity
  8
0
  6
CONTINUOUS
 62
     0
100
AcDbVertex
100
AcDb2dVertex
 10
-18.412484
 20
118.445672
 30
0.0
  0
VERTEX
  5
AF
100
AcDbEntity
  8
0
  6
CONTINUOUS
 62
     0
100
AcDbVertex
100
AcDb2dVertex
 10
-18.412484
 20
122.445672
 30
0.0
  0
VERTEX
  5
B0
100
AcDbEntity
  8
0
  6
CONTINUOUS
 62
     0
100
AcDbVertex
100
AcDb2dVertex
 10
-18.412484
 20
122.445672
 30
0.0
  0
VERTEX
  5
B1
100
AcDbEntity
  8
0
  6
CONTINUOUS
 62
     0
100
AcDbVertex
100
AcDb2dVertex
 10
-8.412484
 20
122.445672
 30
0.0
  0
VERTEX
  5
B2
100
AcDbEntity
  8
0
  6
CONTINUOUS
 62
     0
100
AcDbVertex
100
AcDb2dVertex
 10
-8.412484
 20
122.445672
 30
0.0
  0
VERTEX
  5
B3
100
AcDbEntity
  8
0
  6
CONTINUOUS
 62
     0
100
AcDbVertex
100
AcDb2dVertex
 10
-8.412484
 20
118.445672
 30
0.0
  0
SEQEND
  5
B4
100
AcDbEntity
  8
0
  6
CONTINUOUS
 62
     0
  0
POLYLINE
  5
B5
100
AcDbEntity
  8
0
  6
CONTINUOUS
 62
     0
100
AcDb2dPolyline
 66
     1
 10
0.0
 20
0.0
 30
0.0
 70
   129
  0
VERTEX
  5
B6
100
AcDbEntity
  8
0
  6
CONTINUOUS
 62
     0
100
AcDbVertex
100
AcDb2dVertex
 10
45.587516
 20
172.445672
 30
0.0
  0
VERTEX
  5
B7
100
AcDbEntity
  8
0
  6
CONTINUOUS
 62
     0
100
AcDbVertex
100
AcDb2dVertex
 10
45.587516
 20
182.445672
 30
0.0
  0
VERTEX
  5
B8
100
AcDbEntity
  8
0
  6
CONTINUOUS
 62
     0
100
AcDbVertex
100
AcDb2dVertex
 10
45.587516
 20
182.445672
 30
0.0
  0
VERTEX
  5
B9
100
AcDbEntity
  8
0
  6
CONTINUOUS
 62
     0
100
AcDbVertex
100
AcDb2dVertex
 10
41.587516
 20
182.445672
 30
0.0
  0
VERTEX
  5
BA
100
AcDbEntity
  8
0
  6
CONTINUOUS
 62
     0
100
AcDbVertex
100
AcDb2dVertex
 10
41.587516
 20
182.445672
 30
0.0
  0
VERTEX
  5
BB
100
AcDbEntity
  8
0
  6
CONTINUOUS
 62
     0
100
AcDbVertex
100
AcDb2dVertex
 10
41.587516
 20
172.445672
 30
0.0
  0
VERTEX
  5
BC
100
AcDbEntity
  8
0
  6
CONTINUOUS
 62
     0
100
AcDbVertex
100
AcDb2dVertex
 10
41.587516
 20
172.445672
 30
0.0
  0
VERTEX
  5
BD
100
AcDbEntity
  8
0
  6
CONTINUOUS
 62
     0
100
AcDbVertex
100
AcDb2dVertex
 10
45.587516
 20
172.445672
 30
0.0
  0
SEQEND
  5
BE
100
AcDbEntity
  8
0
  6
CONTINUOUS
 62
     0
  0
POLYLINE
  5
BF
100
AcDbEntity
  8
0
  6
CONTINUOUS
 62
     0
100
AcDb2dPolyline
 66
     1
 10
0.0
 20
0.0
 30
0.0
 70
   129
  0
VERTEX
  5
C0
100
AcDbEntity
  8
0
  6
CONTINUOUS
 62
     0
100
AcDbVertex
100
AcDb2dVertex
 10
8.232177
 20
158.629438
 30
0.0
  0
VERTEX
  5
C1
100
AcDbEntity
  8
0
  6
CONTINUOUS
 62
     0
100
AcDbVertex
100
AcDb2dVertex
 10
1.161109
 20
165.700506
 30
0.0
  0
VERTEX
  5
C2
100
AcDbEntity
  8
0
  6
CONTINUOUS
 62
     0
100
AcDbVertex
100
AcDb2dVertex
 10
1.161109
 20
165.700506
 30
0.0
  0
VERTEX
  5
C3
100
AcDbEntity
  8
0
  6
CONTINUOUS
 62
     0
100
AcDbVertex
100
AcDb2dVertex
 10
-1.667318
 20
162.872079
 30
0.0
  0
VERTEX
  5
C4
100
AcDbEntity
  8
0
  6
CONTINUOUS
 62
     0
100
AcDbVertex
100
AcDb2dVertex
 10
-1.667318
 20
162.872079
 30
0.0
  0
VERTEX
  5
C5
100
AcDbEntity
  8
0
  6
CONTINUOUS
 62
     0
100
AcDbVertex
100
AcDb2dVertex
 10
5.40375
 20
155.801011
 30
0.0
  0
VERTEX
  5
C6
100
AcDbEntity
  8
0
  6
CONTINUOUS
 62
     0
100
AcDbVertex
100
AcDb2dVertex
 10
5.40375
 20
155.801011
 30
0.0
  0
VERTEX
  5
C7
100
AcDbEntity
  8
0
  6
CONTINUOUS
 62
     0
100
AcDbVertex
100
AcDb2dVertex
 10
8.232177
 20
158.629438
 30
0.0
  0
SEQEND
  5
C8
100
AcDbEntity
  8
0
  6
CONTINUOUS
 62
     0
  0
POLYLINE
  5
C9
100
AcDbEntity
  8
0
  6
CONTINUOUS
 62
     0
100
AcDb2dPolyline
 66
     1
 10
0.0
 20
0.0
 30
0.0
 70
   129
  0
VERTEX
  5
CA
100
AcDbEntity
  8
0
  6
CONTINUOUS
 62
     0
100
AcDbVertex
100
AcDb2dVertex
 10
5.40375
 20
85.090333
 30
0.0
  0
VERTEX
  5
CB
100
AcDbEntity
  8
0
  6
CONTINUOUS
 62
     0
100
AcDbVertex
100
AcDb2dVertex
 10
-1.667318
 20
78.019265
 30
0.0
  0
VERTEX
  5
CC
100
AcDbEntity
  8
0
  6
CONTINUOUS
 62
     0
100
AcDbVertex
100
AcDb2dVertex
 10
-1.667318
 20
78.019265
 30
0.0
  0
VERTEX
  5
CD
100
AcDbEntity
  8
0
  6
CONTINUOUS
 62
     0
100
AcDbVertex
100
AcDb2dVertex
 10
1.161109
 20
75.190838
 30
0.0
  0
VERTEX
  5
CE
100
AcDbEntity
  8
0
  6
CONTINUOUS
 62
     0
100
AcDbVertex
100
AcDb2dVertex
 10
1.161109
 20
75.190838
 30
0.0
  0
VERTEX
  5
CF
100
AcDbEntity
  8
0
  6
CONTINUOUS
 62
     0
100
AcDbVertex
100
AcDb2dVertex
 10
8.232177
 20
82.261906
 30
0.0
  0
VERTEX
  5
D0
100
AcDbEntity
  8
0
  6
CONTINUOUS
 62
     0
100
AcDbVertex
100
AcDb2dVertex
 10
8.232177
 20
82.261906
 30
0.0
  0
VERTEX
  5
D1
100
AcDbEntity
  8
0
  6
CONTINUOUS
 62
     0
100
AcDbVertex
100
AcDb2dVertex
 10
5.40375
 20
85.090333
 30
0.0
  0
SEQEND
  5
D2
100
AcDbEntity
  8
0
  6
CONTINUOUS
 62
     0
  0
POLYLINE
  5
D3
100
AcDbEntity
  8
0
  6
CONTINUOUS
 62
     0
100
AcDb2dPolyline
 66
     1
 10
0.0
 20
0.0
 30
0.0
 70
   129
  0
VERTEX
  5
D4
100
AcDbEntity
  8
0
  6
CONTINUOUS
 62
     0
100
AcDbVertex
100
AcDb2dVertex
 10
78.942855
 20
82.261906
 30
0.0
  0
VERTEX
  5
D5
100
AcDbEntity
  8
0
  6
CONTINUOUS
 62
     0
100
AcDbVertex
100
AcDb2dVertex
 10
86.013923
 20
75.190838
 30
0.0
  0
VERTEX
  5
D6
100
AcDbEntity
  8
0
  6
CONTINUOUS
 62
     0
100
AcDbVertex
100
AcDb2dVertex
 10
86.013923
 20
75.190838
 30
0.0
  0
VERTEX
  5
D7
100
AcDbEntity
  8
0
  6
CONTINUOUS
 62
     0
100
AcDbVertex
100
AcDb2dVertex
 10
88.84235
 20
78.019265
 30
0.0
  0
VERTEX
  5
D8
100
AcDbEntity
  8
0
  6
CONTINUOUS
 62
     0
100
AcDbVertex
100
AcDb2dVertex
 10
88.84235
 20
78.019265
 30
0.0
  0
VERTEX
  5
D9
100
AcDbEntity
  8
0
  6
CONTINUOUS
 62
     0
100
AcDbVertex
100
AcDb2dVertex
 10
81.771282
 20
85.090333
 30
0.0
  0
VERTEX
  5
DA
100
AcDbEntity
  8
0
  6
CONTINUOUS
 62
     0
100
AcDbVertex
100
AcDb2dVertex
 10
81.771282
 20
85.090333
 30
0.0
  0
VERTEX
  5
DB
100
AcDbEntity
  8
0
  6
CONTINUOUS
 62
     0
100
AcDbVertex
100
AcDb2dVertex
 10
78.942855
 20
82.261906
 30
0.0
  0
SEQEND
  5
DC
100
AcDbEntity
  8
0
  6
CONTINUOUS
 62
     0
  0
POLYLINE
  5
DD
100
AcDbEntity
  8
0
  6
CONTINUOUS
 62
     0
100
AcDb2dPolyline
 66
     1
 10
0.0
 20
0.0
 30
0.0
 70
   129
  0
VERTEX
  5
DE
100
AcDbEntity
  8
0
  6
CONTINUOUS
 62
     0
100
AcDbVertex
100
AcDb2dVertex
 10
81.771282
 20
155.801011
 30
0.0
  0
VERTEX
  5
DF
100
AcDbEntity
  8
0
  6
CONTINUOUS
 62
     0
100
AcDbVertex
100
AcDb2dVertex
 10
88.84235
 20
162.872079
 30
0.0
  0
VERTEX
  5
E0
100
AcDbEntity
  8
0
  6
CONTINUOUS
 62
     0
100
AcDbVertex
100
AcDb2dVertex
 10
88.84235
 20
162.872079
 30
0.0
  0
VERTEX
  5
E1
100
AcDbEntity
  8
0
  6
CONTINUOUS
 62
     0
100
AcDbVertex
100
AcDb2dVertex
 10
86.013923
 20
165.700506
 30
0.0
  0
VERTEX
  5
E2
100
AcDbEntity
  8
0
  6
CONTINUOUS
 62
     0
100
AcDbVertex
100
AcDb2dVertex
 10
86.013923
 20
165.700506
 30
0.0
  0
VERTEX
  5
E3
100
AcDbEntity
  8
0
  6
CONTINUOUS
 62
     0
100
AcDbVertex
100
AcDb2dVertex
 10
78.942855
 20
158.629438
 30
0.0
  0
VERTEX
  5
E4
100
AcDbEntity
  8
0
  6
CONTINUOUS
 62
     0
100
AcDbVertex
100
AcDb2dVertex
 10
78.942855
 20
158.629438
 30
0.0
  0
VERTEX
  5
E5
100
AcDbEntity
  8
0
  6
CONTINUOUS
 62
     0
100
AcDbVertex
100
AcDb2dVertex
 10
81.771282
 20
155.801011
 30
0.0
  0
SEQEND
  5
E6
100
AcDbEntity
  8
0
  6
CONTINUOUS
 62
     0
  0
CIRCLE
  5
E7
100
AcDbEntity
  8
0
  6
CONTINUOUS
 62
     0
100
AcDbCircle
 10
131.924124
 20
131.292044
 30
0.0
 40
13.0
  0
CIRCLE
  5
E8
100
AcDbEntity
  8
0
  6
CONTINUOUS
 62
     0
100
AcDbCircle
 10
122.887097
 20
160.850827
 30
0.0
 40
13.0
  0
CIRCLE
  5
E9
100
AcDbEntity
  8
0
  6
CONTINUOUS
 62
     0
100
AcDbCircle
 10
104.28537
 20
185.536152
 30
0.0
 40
13.0
  0
CIRCLE
  5
EA
100
AcDbEntity
  8
0
  6
CONTINUOUS
 62
     0
100
AcDbCircle
 10
78.362587
 20
202.370604
 30
0.0
 40
13.0
  0
CIRCLE
  5
EB
100
AcDbEntity
  8
0
  6
CONTINUOUS
 62
     0
100
AcDbCircle
 10
48.245416
 20
209.323701
 30
0.0
 40
13.0
  0
CIRCLE
  5
EC
100
AcDbEntity
  8
0
  6
CONTINUOUS
 62
     0
100
AcDbCircle
 10
17.566435
 20
205.556796
 30
0.0
 40
13.0
  0
CIRCLE
  5
ED
100
AcDbEntity
  8
0
  6
CONTINUOUS
 62
     0
100
AcDbCircle
 10
-9.974021
 20
191.524233
 30
0.0
 40
13.0
  0
CIRCLE
  5
EE
100
AcDbEntity
  8
0
  6
CONTINUOUS
 62
     0
100
AcDbCircle
 10
-31.054164
 20
168.918546
 30
0.0
 40
13.0
  0
CIRCLE
  5
EF
100
AcDbEntity
  8
0
  6
CONTINUOUS
 62
     0
100
AcDbCircle
 10
-43.131419
 20
140.466316
 30
0.0
 40
13.0
  0
CIRCLE
  5
F0
100
AcDbEntity
  8
0
  6
CONTINUOUS
 62
     0
100
AcDbCircle
 10
-44.749091
 20
109.599301
 30
0.0
 40
13.0
  0
CIRCLE
  5
F1
100
AcDbEntity
  8
0
  6
CONTINUOUS
 62
     0
100
AcDbCircle
 10
-35.712064
 20
80.040518
 30
0.0
 40
13.0
  0
CIRCLE
  5
F2
100
AcDbEntity
  8
0
  6
CONTINUOUS
 62
     0
100
AcDbCircle
 10
-17.110338
 20
55.355193
 30
0.0
 40
13.0
  0
CIRCLE
  5
F3
100
AcDbEntity
  8
0
  6
CONTINUOUS
 62
     0
100
AcDbCircle
 10
8.812446
 20
38.52074
 30
0.0
 40
13.0
  0
CIRCLE
  5
F4
100
AcDbEntity
  8
0
  6
CONTINUOUS
 62
     0
100
AcDbCircle
 10
38.929616
 20
31.567644
 30
0.0
 40
13.0
  0
CIRCLE
  5
F5
100
AcDbEntity
  8
0
  6
CONTINUOUS
 62
     0
100
AcDbCircle
 10
69.608598
 20
35.334549
 30
0.0
 40
13.0
  0
CIRCLE
  5
F6
100
AcDbEntity
  8
0
  6
CONTINUOUS
 62
     0
100
AcDbCircle
 10
97.149053
 20
49.367112
 30
0.0
 40
13.0
  0
CIRCLE
  5
F7
100
AcDbEntity
  8
0
  6
CONTINUOUS
 62
     0
100
AcDbCircle
 10
118.229197
 20
71.972798
 30
0.0
 40
13.0
  0
CIRCLE
  5
F8
100
AcDbEntity
  8
0
  6
CONTINUOUS
 62
     0
100
AcDbCircle
 10
130.306452
 20
100.425028
 30
0.0
 40
13.0
  0
CIRCLE
  5
F9
100
AcDbEntity
  8
0
  6
CONTINUOUS
 62
     0
100
AcDbCircle
 10
43.587516
 20
120.445672
 30
0.0
 40
42.0
  0
CIRCLE
  5
FA
100
AcDbEntity
  8
0
  6
CONTINUOUS
 62
     0
100
AcDbCircle
 10
43.587516
 20
120.445672
 30
0.0
 40
106.0
  0
POLYLINE
  5
FB
100
AcDbEntity
  8
0
  6
CONTINUOUS
 62
     0
100
AcDb2dPolyline
 66
     1
 10
0.0
 20
0.0
 30
0.0
 70
   129
  0
VERTEX
  5
FC
100
AcDbEntity
  8
0
  6
CONTINUOUS
 62
     0
100
AcDbVertex
100
AcDb2dVertex
 10
388.114958
 20
148.445672
 30
0.0
  0
VERTEX
  5
FD
100
AcDbEntity
  8
0
  6
CONTINUOUS
 62
     0
100
AcDbVertex
100
AcDb2dVertex
 10
398.114958
 20
148.445672
 30
0.0
  0
VERTEX
  5
FE
100
AcDbEntity
  8
0
  6
CONTINUOUS
 62
     0
100
AcDbVertex
100
AcDb2dVertex
 10
398.114958
 20
148.445672
 30
0.0
  0
VERTEX
  5
FF
100
AcDbEntity
  8
0
  6
CONTINUOUS
 62
     0
100
AcDbVertex
100
AcDb2dVertex
 10
398.114958
 20
152.445672
 30
0.0
  0
VERTEX
  5
100
100
AcDbEntity
  8
0
  6
CONTINUOUS
 62
     0
100
AcDbVertex
100
AcDb2dVertex
 10
398.114958
 20
152.445672
 30
0.0
  0
VERTEX
  5
101
100
AcDbEntity
  8
0
  6
CONTINUOUS
 62
     0
100
AcDbVertex
100
AcDb2dVertex
 10
388.114958
 20
152.445672
 30
0.0
  0
VERTEX
  5
102
100
AcDbEntity
  8
0
  6
CONTINUOUS
 62
     0
100
AcDbVertex
100
AcDb2dVertex
 10
388.114958
 20
152.445672
 30
0.0
  0
VERTEX
  5
103
100
AcDbEntity
  8
0
  6
CONTINUOUS
 62
     0
100
AcDbVertex
100
AcDb2dVertex
 10
388.114958
 20
148.445672
 30
0.0
  0
SEQEND
  5
104
100
AcDbEntity
  8
0
  6
CONTINUOUS
 62
     0
  0
POLYLINE
  5
105
100
AcDbEntity
  8
0
  6
CONTINUOUS
 62
     0
100
AcDb2dPolyline
 66
     1
 10
0.0
 20
0.0
 30
0.0
 70
   129
  0
VERTEX
  5
106
100
AcDbEntity
  8
0
  6
CONTINUOUS
 62
     0
100
AcDbVertex
100
AcDb2dVertex
 10
308.114958
 20
68.445672
 30
0.0
  0
VERTEX
  5
107
100
AcDbEntity
  8
0
  6
CONTINUOUS
 62
     0
100
AcDbVertex
100
AcDb2dVertex
 10
308.114958
 20
58.445672
 30
0.0
  0
VERTEX
  5
108
100
AcDbEntity
  8
0
  6
CONTINUOUS
 62
     0
100
AcDbVertex
100
AcDb2dVertex
 10
308.114958
 20
58.445672
 30
0.0
  0
VERTEX
  5
109
100
AcDbEntity
  8
0
  6
CONTINUOUS
 62
     0
100
AcDbVertex
100
AcDb2dVertex
 10
304.114958
 20
58.445672
 30
0.0
  0
VERTEX
  5
10A
100
AcDbEntity
  8
0
  6
CONTINUOUS
 62
     0
100
AcDbVertex
100
AcDb2dVertex
 10
304.114958
 20
58.445672
 30
0.0
  0
VERTEX
  5
10B
100
AcDbEntity
  8
0
  6
CONTINUOUS
 62
     0
100
AcDbVertex
100
AcDb2dVertex
 10
304.114958
 20
68.445672
 30
0.0
  0
VERTEX
  5
10C
100
AcDbEntity
  8
0
  6
CONTINUOUS
 62
     0
100
AcDbVertex
100
AcDb2dVertex
 10
304.114958
 20
68.445672
 30
0.0
  0
VERTEX
  5
10D
100
AcDbEntity
  8
0
  6
CONTINUOUS
 62
     0
100
AcDbVertex
100
AcDb2dVertex
 10
308.114958
 20
68.445672
 30
0.0
  0
SEQEND
  5
10E
100
AcDbEntity
  8
0
  6
CONTINUOUS
 62
     0
  0
POLYLINE
  5
10F
100
AcDbEntity
  8
0
  6
CONTINUOUS
 62
     0
100
AcDb2dPolyline
 66
     1
 10
0.0
 20
0.0
 30
0.0
 70
   129
  0
VERTEX
  5
110
100
AcDbEntity
  8
0
  6
CONTINUOUS
 62
     0
100
AcDbVertex
100
AcDb2dVertex
 10
224.114958
 20
148.445672
 30
0.0
  0
VERTEX
  5
111
100
AcDbEntity
  8
0
  6
CONTINUOUS
 62
     0
100
AcDbVertex
100
AcDb2dVertex
 10
214.114958
 20
148.445672
 30
0.0
  0
VERTEX
  5
112
100
AcDbEntity
  8
0
  6
CONTINUOUS
 62
     0
100
AcDbVertex
100
AcDb2dVertex
 10
214.114958
 20
148.445672
 30
0.0
  0
VERTEX
  5
113
100
AcDbEntity
  8
0
  6
CONTINUOUS
 62
     0
100
AcDbVertex
100
AcDb2dVertex
 10
214.114958
 20
152.445672
 30
0.0
  0
VERTEX
  5
114
100
AcDbEntity
  8
0
  6
CONTINUOUS
 62
     0
100
AcDbVertex
100
AcDb2dVertex
 10
214.114958
 20
152.445672
 30
0.0
  0
VERTEX
  5
115
100
AcDbEntity
  8
0
  6
CONTINUOUS
 62
     0
100
AcDbVertex
100
AcDb2dVertex
 10
224.114958
 20
152.445672
 30
0.0
  0
VERTEX
  5
116
100
AcDbEntity
  8
0
  6
CONTINUOUS
 62
     0
100
AcDbVertex
100
AcDb2dVertex
 10
224.114958
 20
152.445672
 30
0.0
  0
VERTEX
  5
117
100
AcDbEntity
  8
0
  6
CONTINUOUS
 62
     0
100
AcDbVertex
100
AcDb2dVertex
 10
224.114958
 20
148.445672
 30
0.0
  0
SEQEND
  5
118
100
AcDbEntity
  8
0
  6
CONTINUOUS
 62
     0
  0
POLYLINE
  5
119
100
AcDbEntity
  8
0
  6
CONTINUOUS
 62
     0
100
AcDb2dPolyline
 66
     1
 10
0.0
 20
0.0
 30
0.0
 70
   129
  0
VERTEX
  5
11A
100
AcDbEntity
  8
0
  6
CONTINUOUS
 62
     0
100
AcDbVertex
100
AcDb2dVertex
 10
308.114958
 20
232.445672
 30
0.0
  0
VERTEX
  5
11B
100
AcDbEntity
  8
0
  6
CONTINUOUS
 62
     0
100
AcDbVertex
100
AcDb2dVertex
 10
308.114958
 20
242.445672
 30
0.0
  0
VERTEX
  5
11C
100
AcDbEntity
  8
0
  6
CONTINUOUS
 62
     0
100
AcDbVertex
100
AcDb2dVertex
 10
308.114958
 20
242.445672
 30
0.0
  0
VERTEX
  5
11D
100
AcDbEntity
  8
0
  6
CONTINUOUS
 62
     0
100
AcDbVertex
100
AcDb2dVertex
 10
304.114958
 20
242.445672
 30
0.0
  0
VERTEX
  5
11E
100
AcDbEntity
  8
0
  6
CONTINUOUS
 62
     0
100
AcDbVertex
100
AcDb2dVertex
 10
304.114958
 20
242.445672
 30
0.0
  0
VERTEX
  5
11F
100
AcDbEntity
  8
0
  6
CONTINUOUS
 62
     0
100
AcDbVertex
100
AcDb2dVertex
 10
304.114958
 20
232.445672
 30
0.0
  0
VERTEX
  5
120
100
AcDbEntity
  8
0
  6
CONTINUOUS
 62
     0
100
AcDbVertex
100
AcDb2dVertex
 10
304.114958
 20
232.445672
 30
0.0
  0
VERTEX
  5
121
100
AcDbEntity
  8
0
  6
CONTINUOUS
 62
     0
100
AcDbVertex
100
AcDb2dVertex
 10
308.114958
 20
232.445672
 30
0.0
  0
SEQEND
  5
122
100
AcDbEntity
  8
0
  6
CONTINUOUS
 62
     0
  0
POLYLINE
  5
123
100
AcDbEntity
  8
0
  6
CONTINUOUS
 62
     0
100
AcDb2dPolyline
 66
     1
 10
0.0
 20
0.0
 30
0.0
 70
   129
  0
VERTEX
  5
124
100
AcDbEntity
  8
0
  6
CONTINUOUS
 62
     0
100
AcDbVertex
100
AcDb2dVertex
 10
365.511927
 20
207.014215
 30
0.0
  0
VERTEX
  5
125
100
AcDbEntity
  8
0
  6
CONTINUOUS
 62
     0
100
AcDbVertex
100
AcDb2dVertex
 10
372.582995
 20
214.085283
 30
0.0
  0
VERTEX
  5
126
100
AcDbEntity
  8
0
  6
CONTINUOUS
 62
     0
100
AcDbVertex
100
AcDb2dVertex
 10
372.582995
 20
214.085283
 30
0.0
  0
VERTEX
  5
127
100
AcDbEntity
  8
0
  6
CONTINUOUS
 62
     0
100
AcDbVertex
100
AcDb2dVertex
 10
369.754568
 20
216.91371
 30
0.0
  0
VERTEX
  5
128
100
AcDbEntity
  8
0
  6
CONTINUOUS
 62
     0
100
AcDbVertex
100
AcDb2dVertex
 10
369.754568
 20
216.91371
 30
0.0
  0
VERTEX
  5
129
100
AcDbEntity
  8
0
  6
CONTINUOUS
 62
     0
100
AcDbVertex
100
AcDb2dVertex
 10
362.6835
 20
209.842642
 30
0.0
  0
VERTEX
  5
12A
100
AcDbEntity
  8
0
  6
CONTINUOUS
 62
     0
100
AcDbVertex
100
AcDb2dVertex
 10
362.6835
 20
209.842642
 30
0.0
  0
VERTEX
  5
12B
100
AcDbEntity
  8
0
  6
CONTINUOUS
 62
     0
100
AcDbVertex
100
AcDb2dVertex
 10
365.511927
 20
207.014215
 30
0.0
  0
SEQEND
  5
12C
100
AcDbEntity
  8
0
  6
CONTINUOUS
 62
     0
  0
POLYLINE
  5
12D
100
AcDbEntity
  8
0
  6
CONTINUOUS
 62
     0
100
AcDb2dPolyline
 66
     1
 10
0.0
 20
0.0
 30
0.0
 70
   129
  0
VERTEX
  5
12E
100
AcDbEntity
  8
0
  6
CONTINUOUS
 62
     0
100
AcDbVertex
100
AcDb2dVertex
 10
249.546415
 20
209.842642
 30
0.0
  0
VERTEX
  5
12F
100
AcDbEntity
  8
0
  6
CONTINUOUS
 62
     0
100
AcDbVertex
100
AcDb2dVertex
 10
242.475347
 20
216.91371
 30
0.0
  0
VERTEX
  5
130
100
AcDbEntity
  8
0
  6
CONTINUOUS
 62
     0
100
AcDbVertex
100
AcDb2dVertex
 10
242.475347
 20
216.91371
 30
0.0
  0
VERTEX
  5
131
100
AcDbEntity
  8
0
  6
CONTINUOUS
 62
     0
100
AcDbVertex
100
AcDb2dVertex
 10
239.64692
 20
214.085283
 30
0.0
  0
VERTEX
  5
132
100
AcDbEntity
  8
0
  6
CONTINUOUS
 62
     0
100
AcDbVertex
100
AcDb2dVertex
 10
239.64692
 20
214.085283
 30
0.0
  0
VERTEX
  5
133
100
AcDbEntity
  8
0
  6
CONTINUOUS
 62
     0
100
AcDbVertex
100
AcDb2dVertex
 10
246.717988
 20
207.014215
 30
0.0
  0
VERTEX
  5
134
100
AcDbEntity
  8
0
  6
CONTINUOUS
 62
     0
100
AcDbVertex
100
AcDb2dVertex
 10
246.717988
 20
207.014215
 30
0.0
  0
VERTEX
  5
135
100
AcDbEntity
  8
0
  6
CONTINUOUS
 62
     0
100
AcDbVertex
100
AcDb2dVertex
 10
249.546415
 20
209.842642
 30
0.0
  0
SEQEND
  5
136
100
AcDbEntity
  8
0
  6
CONTINUOUS
 62
     0
  0
POLYLINE
  5
137
100
AcDbEntity
  8
0
  6
CONTINUOUS
 62
     0
100
AcDb2dPolyline
 66
     1
 10
0.0
 20
0.0
 30
0.0
 70
   129
  0
VERTEX
  5
138
100
AcDbEntity
  8
0
  6
CONTINUOUS
 62
     0
100
AcDbVertex
100
AcDb2dVertex
 10
246.717988
 20
93.87713
 30
0.0
  0
VERTEX
  5
139
100
AcDbEntity
  8
0
  6
CONTINUOUS
 62
     0
100
AcDbVertex
100
AcDb2dVertex
 10
239.64692
 20
86.806062
 30
0.0
  0
VERTEX
  5
13A
100
AcDbEntity
  8
0
  6
CONTINUOUS
 62
     0
100
AcDbVertex
100
AcDb2dVertex
 10
239.64692
 20
86.806062
 30
0.0
  0
VERTEX
  5
13B
100
AcDbEntity
  8
0
  6
CONTINUOUS
 62
     0
100
AcDbVertex
100
AcDb2dVertex
 10
242.475347
 20
83.977635
 30
0.0
  0
VERTEX
  5
13C
100
AcDbEntity
  8
0
  6
CONTINUOUS
 62
     0
100
AcDbVertex
100
AcDb2dVertex
 10
242.475347
 20
83.977635
 30
0.0
  0
VERTEX
  5
13D
100
AcDbEntity
  8
0
  6
CONTINUOUS
 62
     0
100
AcDbVertex
100
AcDb2dVertex
 10
249.546415
 20
91.048703
 30
0.0
  0
VERTEX
  5
13E
100
AcDbEntity
  8
0
  6
CONTINUOUS
 62
     0
100
AcDbVertex
100
AcDb2dVertex
 10
249.546415
 20
91.048703
 30
0.0
  0
VERTEX
  5
13F
100
AcDbEntity
  8
0
  6
CONTINUOUS
 62
     0
100
AcDbVertex
100
AcDb2dVertex
 10
246.717988
 20
93.87713
 30
0.0
  0
SEQEND
  5
140
100
AcDbEntity
  8
0
  6
CONTINUOUS
 62
     0
  0
POLYLINE
  5
141
100
AcDbEntity
  8
0
  6
CONTINUOUS
 62
     0
100
AcDb2dPolyline
 66
     1
 10
0.0
 20
0.0
 30
0.0
 70
   129
  0
VERTEX
  5
142
100
AcDbEntity
  8
0
  6
CONTINUOUS
 62
     0
100
AcDbVertex
100
AcDb2dVertex
 10
362.6835
 20
91.048703
 30
0.0
  0
VERTEX
  5
143
100
AcDbEntity
  8
0
  6
CONTINUOUS
 62
     0
100
AcDbVertex
100
AcDb2dVertex
 10
369.754568
 20
83.977635
 30
0.0
  0
VERTEX
  5
144
100
AcDbEntity
  8
0
  6
CONTINUOUS
 62
     0
100
AcDbVertex
100
AcDb2dVertex
 10
369.754568
 20
83.977635
 30
0.0
  0
VERTEX
  5
145
100
AcDbEntity
  8
0
  6
CONTINUOUS
 62
     0
100
AcDbVertex
100
AcDb2dVertex
 10
372.582995
 20
86.806062
 30
0.0
  0
VERTEX
  5
146
100
AcDbEntity
  8
0
  6
CONTINUOUS
 62
     0
100
AcDbVertex
100
AcDb2dVertex
 10
372.582995
 20
86.806062
 30
0.0
  0
VERTEX
  5
147
100
AcDbEntity
  8
0
  6
CONTINUOUS
 62
     0
100
AcDbVertex
100
AcDb2dVertex
 10
365.511927
 20
93.87713
 30
0.0
  0
VERTEX
  5
148
100
AcDbEntity
  8
0
  6
CONTINUOUS
 62
     0
100
AcDbVertex
100
AcDb2dVertex
 10
365.511927
 20
93.87713
 30
0.0
  0
VERTEX
  5
149
100
AcDbEntity
  8
0
  6
CONTINUOUS
 62
     0
100
AcDbVertex
100
AcDb2dVertex
 10
362.6835
 20
91.048703
 30
0.0
  0
SEQEND
  5
14A
100
AcDbEntity
  8
0
  6
CONTINUOUS
 62
     0
  0
CIRCLE
  5
14B
100
AcDbEntity
  8
0
  6
CONTINUOUS
 62
     0
100
AcDbCircle
 10
422.326202
 20
176.05713
 30
0.0
 40
13.0
  0
CIRCLE
  5
14C
100
AcDbEntity
  8
0
  6
CONTINUOUS
 62
     0
100
AcDbCircle
 10
412.305901
 20
204.15306
 30
0.0
 40
13.0
  0
CIRCLE
  5
14D
100
AcDbEntity
  8
0
  6
CONTINUOUS
 62
     0
100
AcDbCircle
 10
395.613233
 20
228.874357
 30
0.0
 40
13.0
  0
CIRCLE
  5
14E
100
AcDbEntity
  8
0
  6
CONTINUOUS
 62
     0
100
AcDbCircle
 10
373.297059
 20
248.667692
 30
0.0
 40
13.0
  0
CIRCLE
  5
14F
100
AcDbEntity
  8
0
  6
CONTINUOUS
 62
     0
100
AcDbCircle
 10
346.759587
 20
262.289376
 30
0.0
 40
13.0
  0
CIRCLE
  5
150
100
AcDbEntity
  8
0
  6
CONTINUOUS
 62
     0
100
AcDbCircle
 10
317.668263
 20
268.883509
 30
0.0
 40
13.0
  0
CIRCLE
  5
151
100
AcDbEntity
  8
0
  6
CONTINUOUS
 62
     0
100
AcDbCircle
 10
287.851003
 20
268.035757
 30
0.0
 40
13.0
  0
CIRCLE
  5
152
100
AcDbEntity
  8
0
  6
CONTINUOUS
 62
     0
100
AcDbCircle
 10
259.181334
 20
259.799387
 30
0.0
 40
13.0
  0
CIRCLE
  5
153
100
AcDbEntity
  8
0
  6
CONTINUOUS
 62
     0
100
AcDbCircle
 10
233.460677
 20
244.691921
 30
0.0
 40
13.0
  0
CIRCLE
  5
154
100
AcDbEntity
  8
0
  6
CONTINUOUS
 62
     0
100
AcDbCircle
 10
212.305156
 20
223.662617
 30
0.0
 40
13.0
  0
CIRCLE
  5
155
100
AcDbEntity
  8
0
  6
CONTINUOUS
 62
     0
100
AcDbCircle
 10
197.044049
 20
198.032823
 30
0.0
 40
13.0
  0
CIRCLE
  5
156
100
AcDbEntity
  8
0
  6
CONTINUOUS
 62
     0
100
AcDbCircle
 10
188.636269
 20
169.412953
 30
0.0
 40
13.0
  0
CIRCLE
  5
157
100
AcDbEntity
  8
0
  6
CONTINUOUS
 62
     0
100
AcDbCircle
 10
187.610107
 20
139.6013
 30
0.0
 40
13.0
  0
CIRCLE
  5
158
100
AcDbEntity
  8
0
  6
CONTINUOUS
 62
     0
100
AcDbCircle
 10
194.030041
 20
110.471038
 30
0.0
 40
13.0
  0
CIRCLE
  5
159
100
AcDbEntity
  8
0
  6
CONTINUOUS
 62
     0
100
AcDbCircle
 10
207.492682
 20
83.852529
 30
0.0
 40
13.0
  0
CIRCLE
  5
15A
100
AcDbEntity
  8
0
  6
CONTINUOUS
 62
     0
100
AcDbCircle
 10
227.152123
 20
61.418312
 30
0.0
 40
13.0
  0
CIRCLE
  5
15B
100
AcDbEntity
  8
0
  6
CONTINUOUS
 62
     0
100
AcDbCircle
 10
251.77309
 20
44.578012
 30
0.0
 40
13.0
  0
CIRCLE
  5
15C
100
AcDbEntity
  8
0
  6
CONTINUOUS
 62
     0
100
AcDbCircle
 10
279.808556
 20
34.389767
 30
0.0
 40
13.0
  0
CIRCLE
  5
15D
100
AcDbEntity
  8
0
  6
CONTINUOUS
 62
     0
100
AcDbCircle
 10
309.49695
 20
31.49374
 30
0.0
 40
13.0
  0
CIRCLE
  5
15E
100
AcDbEntity
  8
0
  6
CONTINUOUS
 62
     0
100
AcDbCircle
 10
338.972841
 20
36.071901
 30
0.0
 40
13.0
  0
CIRCLE
  5
15F
100
AcDbEntity
  8
0
  6
CONTINUOUS
 62
     0
100
AcDbCircle
 10
366.384151
 20
47.836587
 30
0.0
 40
13.0
  0
CIRCLE
  5
160
100
AcDbEntity
  8
0
  6
CONTINUOUS
 62
     0
100
AcDbCircle
 10
390.008525
 20
66.048579
 30
0.0
 40
13.0
  0
CIRCLE
  5
161
100
AcDbEntity
  8
0
  6
CONTINUOUS
 62
     0
100
AcDbCircle
 10
408.361558
 20
89.563551
 30
0.0
 40
13.0
  0
CIRCLE
  5
162
100
AcDbEntity
  8
0
  6
CONTINUOUS
 62
     0
100
AcDbCircle
 10
420.290061
 20
116.90397
 30
0.0
 40
13.0
  0
CIRCLE
  5
163
100
AcDbEntity
  8
0
  6
CONTINUOUS
 62
     0
100
AcDbCircle
 10
425.044522
 20
146.351938
 30
0.0
 40
13.0
  0
CIRCLE
  5
164
100
AcDbEntity
  8
0
  6
CONTINUOUS
 62
     0
100
AcDbCircle
 10
306.114958
 20
150.445672
 30
0.0
 40
72.0
  0
CIRCLE
  5
165
100
AcDbEntity
  8
0
  6
CONTINUOUS
 62
     0
100
AcDbCircle
 10
306.114958
 20
150.445672
 30
0.0
 40
136.0
  0
POLYLINE
  5
166
100
AcDbEntity
  8
0
  6
CONTINUOUS
 62
     0
100
AcDb2dPolyline
 66
     1
 10
0.0
 20
0.0
 30
0.0
 70
   129
  0
VERTEX
  5
167
100
AcDbEntity
  8
0
  6
CONTINUOUS
 62
     0
100
AcDbVertex
100
AcDb2dVertex
 10
635.621148
 20
182.445672
 30
0.0
  0
VERTEX
  5
168
100
AcDbEntity
  8
0
  6
CONTINUOUS
 62
     0
100
AcDbVertex
100
AcDb2dVertex
 10
649.250988
 20
182.445672
 30
0.0
  0
VERTEX
  5
169
100
AcDbEntity
  8
0
  6
CONTINUOUS
 62
     0
100
AcDbVertex
100
AcDb2dVertex
 10
649.250988
 20
182.445672
 30
0.0
  0
VERTEX
  5
16A
100
AcDbEntity
  8
0
  6
CONTINUOUS
 62
     0
100
AcDbVertex
100
AcDb2dVertex
 10
649.250988
 20
186.445672
 30
0.0
  0
VERTEX
  5
16B
100
AcDbEntity
  8
0
  6
CONTINUOUS
 62
     0
100
AcDbVertex
100
AcDb2dVertex
 10
649.250988
 20
186.445672
 30
0.0
  0
VERTEX
  5
16C
100
AcDbEntity
  8
0
  6
CONTINUOUS
 62
     0
100
AcDbVertex
100
AcDb2dVertex
 10
635.621148
 20
186.445672
 30
0.0
  0
VERTEX
  5
16D
100
AcDbEntity
  8
0
  6
CONTINUOUS
 62
     0
100
AcDbVertex
100
AcDb2dVertex
 10
635.621148
 20
186.445672
 30
0.0
  0
VERTEX
  5
16E
100
AcDbEntity
  8
0
  6
CONTINUOUS
 62
     0
100
AcDbVertex
100
AcDb2dVertex
 10
635.621148
 20
182.445672
 30
0.0
  0
SEQEND
  5
16F
100
AcDbEntity
  8
0
  6
CONTINUOUS
 62
     0
  0
POLYLINE
  5
170
100
AcDbEntity
  8
0
  6
CONTINUOUS
 62
     0
100
AcDb2dPolyline
 66
     1
 10
0.0
 20
0.0
 30
0.0
 70
   129
  0
VERTEX
  5
171
100
AcDbEntity
  8
0
  6
CONTINUOUS
 62
     0
100
AcDbVertex
100
AcDb2dVertex
 10
673.621148
 20
182.445672
 30
0.0
  0
VERTEX
  5
172
100
AcDbEntity
  8
0
  6
CONTINUOUS
 62
     0
100
AcDbVertex
100
AcDb2dVertex
 10
683.621148
 20
182.445672
 30
0.0
  0
VERTEX
  5
173
100
AcDbEntity
  8
0
  6
CONTINUOUS
 62
     0
100
AcDbVertex
100
AcDb2dVertex
 10
683.621148
 20
182.445672
 30
0.0
  0
VERTEX
  5
174
100
AcDbEntity
  8
0
  6
CONTINUOUS
 62
     0
100
AcDbVertex
100
AcDb2dVertex
 10
683.621148
 20
186.445672
 30
0.0
  0
VERTEX
  5
175
100
AcDbEntity
  8
0
  6
CONTINUOUS
 62
     0
100
AcDbVertex
100
AcDb2dVertex
 10
683.621148
 20
186.445672
 30
0.0
  0
VERTEX
  5
176
100
AcDbEntity
  8
0
  6
CONTINUOUS
 62
     0
100
AcDbVertex
100
AcDb2dVertex
 10
673.621148
 20
186.445672
 30
0.0
  0
VERTEX
  5
177
100
AcDbEntity
  8
0
  6
CONTINUOUS
 62
     0
100
AcDbVertex
100
AcDb2dVertex
 10
673.621148
 20
186.445672
 30
0.0
  0
VERTEX
  5
178
100
AcDbEntity
  8
0
  6
CONTINUOUS
 62
     0
100
AcDbVertex
100
AcDb2dVertex
 10
673.621148
 20
182.445672
 30
0.0
  0
SEQEND
  5
179
100
AcDbEntity
  8
0
  6
CONTINUOUS
 62
     0
  0
POLYLINE
  5
17A
100
AcDbEntity
  8
0
  6
CONTINUOUS
 62
     0
100
AcDb2dPolyline
 66
     1
 10
0.0
 20
0.0
 30
0.0
 70
   129
  0
VERTEX
  5
17B
100
AcDbEntity
  8
0
  6
CONTINUOUS
 62
     0
100
AcDbVertex
100
AcDb2dVertex
 10
703.621148
 20
182.445672
 30
0.0
  0
VERTEX
  5
17C
100
AcDbEntity
  8
0
  6
CONTINUOUS
 62
     0
100
AcDbVertex
100
AcDb2dVertex
 10
713.621148
 20
182.445672
 30
0.0
  0
VERTEX
  5
17D
100
AcDbEntity
  8
0
  6
CONTINUOUS
 62
     0
100
AcDbVertex
100
AcDb2dVertex
 10
713.621148
 20
182.445672
 30
0.0
  0
VERTEX
  5
17E
100
AcDbEntity
  8
0
  6
CONTINUOUS
 62
     0
100
AcDbVertex
100
AcDb2dVertex
 10
713.621148
 20
186.445672
 30
0.0
  0
VERTEX
  5
17F
100
AcDbEntity
  8
0
  6
CONTINUOUS
 62
     0
100
AcDbVertex
100
AcDb2dVertex
 10
713.621148
 20
186.445672
 30
0.0
  0
VERTEX
  5
180
100
AcDbEntity
  8
0
  6
CONTINUOUS
 62
     0
100
AcDbVertex
100
AcDb2dVertex
 10
703.621148
 20
186.445672
 30
0.0
  0
VERTEX
  5
181
100
AcDbEntity
  8
0
  6
CONTINUOUS
 62
     0
100
AcDbVertex
100
AcDb2dVertex
 10
703.621148
 20
186.445672
 30
0.0
  0
VERTEX
  5
182
100
AcDbEntity
  8
0
  6
CONTINUOUS
 62
     0
100
AcDbVertex
100
AcDb2dVertex
 10
703.621148
 20
182.445672
 30
0.0
  0
SEQEND
  5
183
100
AcDbEntity
  8
0
  6
CONTINUOUS
 62
     0
  0
POLYLINE
  5
184
100
AcDbEntity
  8
0
  6
CONTINUOUS
 62
     0
100
AcDb2dPolyline
 66
     1
 10
0.0
 20
0.0
 30
0.0
 70
   129
  0
VERTEX
  5
185
100
AcDbEntity
  8
0
  6
CONTINUOUS
 62
     0
100
AcDbVertex
100
AcDb2dVertex
 10
733.494336
 20
182.445672
 30
0.0
  0
VERTEX
  5
186
100
AcDbEntity
  8
0
  6
CONTINUOUS
 62
     0
100
AcDbVertex
100
AcDb2dVertex
 10
743.494336
 20
182.445672
 30
0.0
  0
VERTEX
  5
187
100
AcDbEntity
  8
0
  6
CONTINUOUS
 62
     0
100
AcDbVertex
100
AcDb2dVertex
 10
743.494336
 20
182.445672
 30
0.0
  0
VERTEX
  5
188
100
AcDbEntity
  8
0
  6
CONTINUOUS
 62
     0
100
AcDbVertex
100
AcDb2dVertex
 10
743.494336
 20
186.445672
 30
0.0
  0
VERTEX
  5
189
100
AcDbEntity
  8
0
  6
CONTINUOUS
 62
     0
100
AcDbVertex
100
AcDb2dVertex
 10
743.494336
 20
186.445672
 30
0.0
  0
VERTEX
  5
18A
100
AcDbEntity
  8
0
  6
CONTINUOUS
 62
     0
100
AcDbVertex
100
AcDb2dVertex
 10
733.494336
 20
186.445672
 30
0.0
  0
VERTEX
  5
18B
100
AcDbEntity
  8
0
  6
CONTINUOUS
 62
     0
100
AcDbVertex
100
AcDb2dVertex
 10
733.494336
 20
186.445672
 30
0.0
  0
VERTEX
  5
18C
100
AcDbEntity
  8
0
  6
CONTINUOUS
 62
     0
100
AcDbVertex
100
AcDb2dVertex
 10
733.494336
 20
182.445672
 30
0.0
  0
SEQEND
  5
18D
100
AcDbEntity
  8
0
  6
CONTINUOUS
 62
     0
  0
POLYLINE
  5
18E
100
AcDbEntity
  8
0
  6
CONTINUOUS
 62
     0
100
AcDb2dPolyline
 66
     1
 10
0.0
 20
0.0
 30
0.0
 70
   129
  0
VERTEX
  5
18F
100
AcDbEntity
  8
0
  6
CONTINUOUS
 62
     0
100
AcDbVertex
100
AcDb2dVertex
 10
623.621148
 20
170.445672
 30
0.0
  0
VERTEX
  5
190
100
AcDbEntity
  8
0
  6
CONTINUOUS
 62
     0
100
AcDbVertex
100
AcDb2dVertex
 10
623.621148
 20
156.815832
 30
0.0
  0
VERTEX
  5
191
100
AcDbEntity
  8
0
  6
CONTINUOUS
 62
     0
100
AcDbVertex
100
AcDb2dVertex
 10
623.621148
 20
156.815832
 30
0.0
  0
VERTEX
  5
192
100
AcDbEntity
  8
0
  6
CONTINUOUS
 62
     0
100
AcDbVertex
100
AcDb2dVertex
 10
619.621148
 20
156.815832
 30
0.0
  0
VERTEX
  5
193
100
AcDbEntity
  8
0
  6
CONTINUOUS
 62
     0
100
AcDbVertex
100
AcDb2dVertex
 10
619.621148
 20
156.815832
 30
0.0
  0
VERTEX
  5
194
100
AcDbEntity
  8
0
  6
CONTINUOUS
 62
     0
100
AcDbVertex
100
AcDb2dVertex
 10
619.621148
 20
170.445672
 30
0.0
  0
VERTEX
  5
195
100
AcDbEntity
  8
0
  6
CONTINUOUS
 62
     0
100
AcDbVertex
100
AcDb2dVertex
 10
619.621148
 20
170.445672
 30
0.0
  0
VERTEX
  5
196
100
AcDbEntity
  8
0
  6
CONTINUOUS
 62
     0
100
AcDbVertex
100
AcDb2dVertex
 10
623.621148
 20
170.445672
 30
0.0
  0
SEQEND
  5
197
100
AcDbEntity
  8
0
  6
CONTINUOUS
 62
     0
  0
POLYLINE
  5
198
100
AcDbEntity
  8
0
  6
CONTINUOUS
 62
     0
100
AcDb2dPolyline
 66
     1
 10
0.0
 20
0.0
 30
0.0
 70
   129
  0
VERTEX
  5
199
100
AcDbEntity
  8
0
  6
CONTINUOUS
 62
     0
100
AcDbVertex
100
AcDb2dVertex
 10
623.621148
 20
132.445672
 30
0.0
  0
VERTEX
  5
19A
100
AcDbEntity
  8
0
  6
CONTINUOUS
 62
     0
100
AcDbVertex
100
AcDb2dVertex
 10
623.621148
 20
122.445672
 30
0.0
  0
VERTEX
  5
19B
100
AcDbEntity
  8
0
  6
CONTINUOUS
 62
     0
100
AcDbVertex
100
AcDb2dVertex
 10
623.621148
 20
122.445672
 30
0.0
  0
VERTEX
  5
19C
100
AcDbEntity
  8
0
  6
CONTINUOUS
 62
     0
100
AcDbVertex
100
AcDb2dVertex
 10
619.621148
 20
122.445672
 30
0.0
  0
VERTEX
  5
19D
100
AcDbEntity
  8
0
  6
CONTINUOUS
 62
     0
100
AcDbVertex
100
AcDb2dVertex
 10
619.621148
 20
122.445672
 30
0.0
  0
VERTEX
  5
19E
100
AcDbEntity
  8
0
  6
CONTINUOUS
 62
     0
100
AcDbVertex
100
AcDb2dVertex
 10
619.621148
 20
132.445672
 30
0.0
  0
VERTEX
  5
19F
100
AcDbEntity
  8
0
  6
CONTINUOUS
 62
     0
100
AcDbVertex
100
AcDb2dVertex
 10
619.621148
 20
132.445672
 30
0.0
  0
VERTEX
  5
1A0
100
AcDbEntity
  8
0
  6
CONTINUOUS
 62
     0
100
AcDbVertex
100
AcDb2dVertex
 10
623.621148
 20
132.445672
 30
0.0
  0
SEQEND
  5
1A1
100
AcDbEntity
  8
0
  6
CONTINUOUS
 62
     0
  0
POLYLINE
  5
1A2
100
AcDbEntity
  8
0
  6
CONTINUOUS
 62
     0
100
AcDb2dPolyline
 66
     1
 10
0.0
 20
0.0
 30
0.0
 70
   129
  0
VERTEX
  5
1A3
100
AcDbEntity
  8
0
  6
CONTINUOUS
 62
     0
100
AcDbVertex
100
AcDb2dVertex
 10
623.621148
 20
102.445672
 30
0.0
  0
VERTEX
  5
1A4
100
AcDbEntity
  8
0
  6
CONTINUOUS
 62
     0
100
AcDbVertex
100
AcDb2dVertex
 10
623.621148
 20
92.445672
 30
0.0
  0
VERTEX
  5
1A5
100
AcDbEntity
  8
0
  6
CONTINUOUS
 62
     0
100
AcDbVertex
100
AcDb2dVertex
 10
623.621148
 20
92.445672
 30
0.0
  0
VERTEX
  5
1A6
100
AcDbEntity
  8
0
  6
CONTINUOUS
 62
     0
100
AcDbVertex
100
AcDb2dVertex
 10
619.621148
 20
92.445672
 30
0.0
  0
VERTEX
  5
1A7
100
AcDbEntity
  8
0
  6
CONTINUOUS
 62
     0
100
AcDbVertex
100
AcDb2dVertex
 10
619.621148
 20
92.445672
 30
0.0
  0
VERTEX
  5
1A8
100
AcDbEntity
  8
0
  6
CONTINUOUS
 62
     0
100
AcDbVertex
100
AcDb2dVertex
 10
619.621148
 20
102.445672
 30
0.0
  0
VERTEX
  5
1A9
100
AcDbEntity
  8
0
  6
CONTINUOUS
 62
     0
100
AcDbVertex
100
AcDb2dVertex
 10
619.621148
 20
102.445672
 30
0.0
  0
VERTEX
  5
1AA
100
AcDbEntity
  8
0
  6
CONTINUOUS
 62
     0
100
AcDbVertex
100
AcDb2dVertex
 10
623.621148
 20
102.445672
 30
0.0
  0
SEQEND
  5
1AB
100
AcDbEntity
  8
0
  6
CONTINUOUS
 62
     0
  0
POLYLINE
  5
1AC
100
AcDbEntity
  8
0
  6
CONTINUOUS
 62
     0
100
AcDb2dPolyline
 66
     1
 10
0.0
 20
0.0
 30
0.0
 70
   129
  0
VERTEX
  5
1AD
100
AcDbEntity
  8
0
  6
CONTINUOUS
 62
     0
100
AcDbVertex
100
AcDb2dVertex
 10
623.621148
 20
72.572484
 30
0.0
  0
VERTEX
  5
1AE
100
AcDbEntity
  8
0
  6
CONTINUOUS
 62
     0
100
AcDbVertex
100
AcDb2dVertex
 10
623.621148
 20
62.572484
 30
0.0
  0
VERTEX
  5
1AF
100
AcDbEntity
  8
0
  6
CONTINUOUS
 62
     0
100
AcDbVertex
100
AcDb2dVertex
 10
623.621148
 20
62.572484
 30
0.0
  0
VERTEX
  5
1B0
100
AcDbEntity
  8
0
  6
CONTINUOUS
 62
     0
100
AcDbVertex
100
AcDb2dVertex
 10
619.621148
 20
62.572484
 30
0.0
  0
VERTEX
  5
1B1
100
AcDbEntity
  8
0
  6
CONTINUOUS
 62
     0
100
AcDbVertex
100
AcDb2dVertex
 10
619.621148
 20
62.572484
 30
0.0
  0
VERTEX
  5
1B2
100
AcDbEntity
  8
0
  6
CONTINUOUS
 62
     0
100
AcDbVertex
100
AcDb2dVertex
 10
619.621148
 20
72.572484
 30
0.0
  0
VERTEX
  5
1B3
100
AcDbEntity
  8
0
  6
CONTINUOUS
 62
     0
100
AcDbVertex
100
AcDb2dVertex
 10
619.621148
 20
72.572484
 30
0.0
  0
VERTEX
  5
1B4
100
AcDbEntity
  8
0
  6
CONTINUOUS
 62
     0
100
AcDbVertex
100
AcDb2dVertex
 10
623.621148
 20
72.572484
 30
0.0
  0
SEQEND
  5
1B5
100
AcDbEntity
  8
0
  6
CONTINUOUS
 62
     0
  0
POLYLINE
  5
1B6
100
AcDbEntity
  8
0
  6
CONTINUOUS
 62
     0
100
AcDb2dPolyline
 66
     1
 10
0.0
 20
0.0
 30
0.0
 70
   129
  0
VERTEX
  5
1B7
100
AcDbEntity
  8
0
  6
CONTINUOUS
 62
     0
100
AcDbVertex
100
AcDb2dVertex
 10
607.621148
 20
182.445672
 30
0.0
  0
VERTEX
  5
1B8
100
AcDbEntity
  8
0
  6
CONTINUOUS
 62
     0
100
AcDbVertex
100
AcDb2dVertex
 10
593.991307
 20
182.445672
 30
0.0
  0
VERTEX
  5
1B9
100
AcDbEntity
  8
0
  6
CONTINUOUS
 62
     0
100
AcDbVertex
100
AcDb2dVertex
 10
593.991307
 20
182.445672
 30
0.0
  0
VERTEX
  5
1BA
100
AcDbEntity
  8
0
  6
CONTINUOUS
 62
     0
100
AcDbVertex
100
AcDb2dVertex
 10
593.991307
 20
186.445672
 30
0.0
  0
VERTEX
  5
1BB
100
AcDbEntity
  8
0
  6
CONTINUOUS
 62
     0
100
AcDbVertex
100
AcDb2dVertex
 10
593.991307
 20
186.445672
 30
0.0
  0
VERTEX
  5
1BC
100
AcDbEntity
  8
0
  6
CONTINUOUS
 62
     0
100
AcDbVertex
100
AcDb2dVertex
 10
607.621148
 20
186.445672
 30
0.0
  0
VERTEX
  5
1BD
100
AcDbEntity
  8
0
  6
CONTINUOUS
 62
     0
100
AcDbVertex
100
AcDb2dVertex
 10
607.621148
 20
186.445672
 30
0.0
  0
VERTEX
  5
1BE
100
AcDbEntity
  8
0
  6
CONTINUOUS
 62
     0
100
AcDbVertex
100
AcDb2dVertex
 10
607.621148
 20
182.445672
 30
0.0
  0
SEQEND
  5
1BF
100
AcDbEntity
  8
0
  6
CONTINUOUS
 62
     0
  0
POLYLINE
  5
1C0
100
AcDbEntity
  8
0
  6
CONTINUOUS
 62
     0
100
AcDb2dPolyline
 66
     1
 10
0.0
 20
0.0
 30
0.0
 70
   129
  0
VERTEX
  5
1C1
100
AcDbEntity
  8
0
  6
CONTINUOUS
 62
     0
100
AcDbVertex
100
AcDb2dVertex
 10
569.621148
 20
182.445672
 30
0.0
  0
VERTEX
  5
1C2
100
AcDbEntity
  8
0
  6
CONTINUOUS
 62
     0
100
AcDbVertex
100
AcDb2dVertex
 10
559.621148
 20
182.445672
 30
0.0
  0
VERTEX
  5
1C3
100
AcDbEntity
  8
0
  6
CONTINUOUS
 62
     0
100
AcDbVertex
100
AcDb2dVertex
 10
559.621148
 20
182.445672
 30
0.0
  0
VERTEX
  5
1C4
100
AcDbEntity
  8
0
  6
CONTINUOUS
 62
     0
100
AcDbVertex
100
AcDb2dVertex
 10
559.621148
 20
186.445672
 30
0.0
  0
VERTEX
  5
1C5
100
AcDbEntity
  8
0
  6
CONTINUOUS
 62
     0
100
AcDbVertex
100
AcDb2dVertex
 10
559.621148
 20
186.445672
 30
0.0
  0
VERTEX
  5
1C6
100
AcDbEntity
  8
0
  6
CONTINUOUS
 62
     0
100
AcDbVertex
100
AcDb2dVertex
 10
569.621148
 20
186.445672
 30
0.0
  0
VERTEX
  5
1C7
100
AcDbEntity
  8
0
  6
CONTINUOUS
 62
     0
100
AcDbVertex
100
AcDb2dVertex
 10
569.621148
 20
186.445672
 30
0.0
  0
VERTEX
  5
1C8
100
AcDbEntity
  8
0
  6
CONTINUOUS
 62
     0
100
AcDbVertex
100
AcDb2dVertex
 10
569.621148
 20
182.445672
 30
0.0
  0
SEQEND
  5
1C9
100
AcDbEntity
  8
0
  6
CONTINUOUS
 62
     0
  0
POLYLINE
  5
1CA
100
AcDbEntity
  8
0
  6
CONTINUOUS
 62
     0
100
AcDb2dPolyline
 66
     1
 10
0.0
 20
0.0
 30
0.0
 70
   129
  0
VERTEX
  5
1CB
100
AcDbEntity
  8
0
  6
CONTINUOUS
 62
     0
100
AcDbVertex
100
AcDb2dVertex
 10
539.621148
 20
182.445672
 30
0.0
  0
VERTEX
  5
1CC
100
AcDbEntity
  8
0
  6
CONTINUOUS
 62
     0
100
AcDbVertex
100
AcDb2dVertex
 10
529.621148
 20
182.445672
 30
0.0
  0
VERTEX
  5
1CD
100
AcDbEntity
  8
0
  6
CONTINUOUS
 62
     0
100
AcDbVertex
100
AcDb2dVertex
 10
529.621148
 20
182.445672
 30
0.0
  0
VERTEX
  5
1CE
100
AcDbEntity
  8
0
  6
CONTINUOUS
 62
     0
100
AcDbVertex
100
AcDb2dVertex
 10
529.621148
 20
186.445672
 30
0.0
  0
VERTEX
  5
1CF
100
AcDbEntity
  8
0
  6
CONTINUOUS
 62
     0
100
AcDbVertex
100
AcDb2dVertex
 10
529.621148
 20
186.445672
 30
0.0
  0
VERTEX
  5
1D0
100
AcDbEntity
  8
0
  6
CONTINUOUS
 62
     0
100
AcDbVertex
100
AcDb2dVertex
 10
539.621148
 20
186.445672
 30
0.0
  0
VERTEX
  5
1D1
100
AcDbEntity
  8
0
  6
CONTINUOUS
 62
     0
100
AcDbVertex
100
AcDb2dVertex
 10
539.621148
 20
186.445672
 30
0.0
  0
VERTEX
  5
1D2
100
AcDbEntity
  8
0
  6
CONTINUOUS
 62
     0
100
AcDbVertex
100
AcDb2dVertex
 10
539.621148
 20
182.445672
 30
0.0
  0
SEQEND
  5
1D3
100
AcDbEntity
  8
0
  6
CONTINUOUS
 62
     0
  0
POLYLINE
  5
1D4
100
AcDbEntity
  8
0
  6
CONTINUOUS
 62
     0
100
AcDb2dPolyline
 66
     1
 10
0.0
 20
0.0
 30
0.0
 70
   129
  0
VERTEX
  5
1D5
100
AcDbEntity
  8
0
  6
CONTINUOUS
 62
     0
100
AcDbVertex
100
AcDb2dVertex
 10
509.747959
 20
182.445672
 30
0.0
  0
VERTEX
  5
1D6
100
AcDbEntity
  8
0
  6
CONTINUOUS
 62
     0
100
AcDbVertex
100
AcDb2dVertex
 10
499.747959
 20
182.445672
 30
0.0
  0
VERTEX
  5
1D7
100
AcDbEntity
  8
0
  6
CONTINUOUS
 62
     0
100
AcDbVertex
100
AcDb2dVertex
 10
499.747959
 20
182.445672
 30
0.0
  0
VERTEX
  5
1D8
100
AcDbEntity
  8
0
  6
CONTINUOUS
 62
     0
100
AcDbVertex
100
AcDb2dVertex
 10
499.747959
 20
186.445672
 30
0.0
  0
VERTEX
  5
1D9
100
AcDbEntity
  8
0
  6
CONTINUOUS
 62
     0
100
AcDbVertex
100
AcDb2dVertex
 10
499.747959
 20
186.445672
 30
0.0
  0
VERTEX
  5
1DA
100
AcDbEntity
  8
0
  6
CONTINUOUS
 62
     0
100
AcDbVertex
100
AcDb2dVertex
 10
509.747959
 20
186.445672
 30
0.0
  0
VERTEX
  5
1DB
100
AcDbEntity
  8
0
  6
CONTINUOUS
 62
     0
100
AcDbVertex
100
AcDb2dVertex
 10
509.747959
 20
186.445672
 30
0.0
  0
VERTEX
  5
1DC
100
AcDbEntity
  8
0
  6
CONTINUOUS
 62
     0
100
AcDbVertex
100
AcDb2dVertex
 10
509.747959
 20
182.445672
 30
0.0
  0
SEQEND
  5
1DD
100
AcDbEntity
  8
0
  6
CONTINUOUS
 62
     0
  0
POLYLINE
  5
1DE
100
AcDbEntity
  8
0
  6
CONTINUOUS
 62
     0
100
AcDb2dPolyline
 66
     1
 10
0.0
 20
0.0
 30
0.0
 70
   129
  0
VERTEX
  5
1DF
100
AcDbEntity
  8
0
  6
CONTINUOUS
 62
     0
100
AcDbVertex
100
AcDb2dVertex
 10
623.621148
 20
198.445672
 30
0.0
  0
VERTEX
  5
1E0
100
AcDbEntity
  8
0
  6
CONTINUOUS
 62
     0
100
AcDbVertex
100
AcDb2dVertex
 10
623.621148
 20
212.075513
 30
0.0
  0
VERTEX
  5
1E1
100
AcDbEntity
  8
0
  6
CONTINUOUS
 62
     0
100
AcDbVertex
100
AcDb2dVertex
 10
623.621148
 20
212.075513
 30
0.0
  0
VERTEX
  5
1E2
100
AcDbEntity
  8
0
  6
CONTINUOUS
 62
     0
100
AcDbVertex
100
AcDb2dVertex
 10
619.621148
 20
212.075513
 30
0.0
  0
VERTEX
  5
1E3
100
AcDbEntity
  8
0
  6
CONTINUOUS
 62
     0
100
AcDbVertex
100
AcDb2dVertex
 10
619.621148
 20
212.075513
 30
0.0
  0
VERTEX
  5
1E4
100
AcDbEntity
  8
0
  6
CONTINUOUS
 62
     0
100
AcDbVertex
100
AcDb2dVertex
 10
619.621148
 20
198.445672
 30
0.0
  0
VERTEX
  5
1E5
100
AcDbEntity
  8
0
  6
CONTINUOUS
 62
     0
100
AcDbVertex
100
AcDb2dVertex
 10
619.621148
 20
198.445672
 30
0.0
  0
VERTEX
  5
1E6
100
AcDbEntity
  8
0
  6
CONTINUOUS
 62
     0
100
AcDbVertex
100
AcDb2dVertex
 10
623.621148
 20
198.445672
 30
0.0
  0
SEQEND
  5
1E7
100
AcDbEntity
  8
0
  6
CONTINUOUS
 62
     0
  0
POLYLINE
  5
1E8
100
AcDbEntity
  8
0
  6
CONTINUOUS
 62
     0
100
AcDb2dPolyline
 66
     1
 10
0.0
 20
0.0
 30
0.0
 70
   129
  0
VERTEX
  5
1E9
100
AcDbEntity
  8
0
  6
CONTINUOUS
 62
     0
100
AcDbVertex
100
AcDb2dVertex
 10
623.621148
 20
236.445672
 30
0.0
  0
VERTEX
  5
1EA
100
AcDbEntity
  8
0
  6
CONTINUOUS
 62
     0
100
AcDbVertex
100
AcDb2dVertex
 10
623.621148
 20
246.445672
 30
0.0
  0
VERTEX
  5
1EB
100
AcDbEntity
  8
0
  6
CONTINUOUS
 62
     0
100
AcDbVertex
100
AcDb2dVertex
 10
623.621148
 20
246.445672
 30
0.0
  0
VERTEX
  5
1EC
100
AcDbEntity
  8
0
  6
CONTINUOUS
 62
     0
100
AcDbVertex
100
AcDb2dVertex
 10
619.621148
 20
246.445672
 30
0.0
  0
VERTEX
  5
1ED
100
AcDbEntity
  8
0
  6
CONTINUOUS
 62
     0
100
AcDbVertex
100
AcDb2dVertex
 10
619.621148
 20
246.445672
 30
0.0
  0
VERTEX
  5
1EE
100
AcDbEntity
  8
0
  6
CONTINUOUS
 62
     0
100
AcDbVertex
100
AcDb2dVertex
 10
619.621148
 20
236.445672
 30
0.0
  0
VERTEX
  5
1EF
100
AcDbEntity
  8
0
  6
CONTINUOUS
 62
     0
100
AcDbVertex
100
AcDb2dVertex
 10
619.621148
 20
236.445672
 30
0.0
  0
VERTEX
  5
1F0
100
AcDbEntity
  8
0
  6
CONTINUOUS
 62
     0
100
AcDbVertex
100
AcDb2dVertex
 10
623.621148
 20
236.445672
 30
0.0
  0
SEQEND
  5
1F1
100
AcDbEntity
  8
0
  6
CONTINUOUS
 62
     0
  0
POLYLINE
  5
1F2
100
AcDbEntity
  8
0
  6
CONTINUOUS
 62
     0
100
AcDb2dPolyline
 66
     1
 10
0.0
 20
0.0
 30
0.0
 70
   129
  0
VERTEX
  5
1F3
100
AcDbEntity
  8
0
  6
CONTINUOUS
 62
     0
100
AcDbVertex
100
AcDb2dVertex
 10
623.621148
 20
266.445672
 30
0.0
  0
VERTEX
  5
1F4
100
AcDbEntity
  8
0
  6
CONTINUOUS
 62
     0
100
AcDbVertex
100
AcDb2dVertex
 10
623.621148
 20
276.445672
 30
0.0
  0
VERTEX
  5
1F5
100
AcDbEntity
  8
0
  6
CONTINUOUS
 62
     0
100
AcDbVertex
100
AcDb2dVertex
 10
623.621148
 20
276.445672
 30
0.0
  0
VERTEX
  5
1F6
100
AcDbEntity
  8
0
  6
CONTINUOUS
 62
     0
100
AcDbVertex
100
AcDb2dVertex
 10
619.621148
 20
276.445672
 30
0.0
  0
VERTEX
  5
1F7
100
AcDbEntity
  8
0
  6
CONTINUOUS
 62
     0
100
AcDbVertex
100
AcDb2dVertex
 10
619.621148
 20
276.445672
 30
0.0
  0
VERTEX
  5
1F8
100
AcDbEntity
  8
0
  6
CONTINUOUS
 62
     0
100
AcDbVertex
100
AcDb2dVertex
 10
619.621148
 20
266.445672
 30
0.0
  0
VERTEX
  5
1F9
100
AcDbEntity
  8
0
  6
CONTINUOUS
 62
     0
100
AcDbVertex
100
AcDb2dVertex
 10
619.621148
 20
266.445672
 30
0.0
  0
VERTEX
  5
1FA
100
AcDbEntity
  8
0
  6
CONTINUOUS
 62
     0
100
AcDbVertex
100
AcDb2dVertex
 10
623.621148
 20
266.445672
 30
0.0
  0
SEQEND
  5
1FB
100
AcDbEntity
  8
0
  6
CONTINUOUS
 62
     0
  0
POLYLINE
  5
1FC
100
AcDbEntity
  8
0
  6
CONTINUOUS
 62
     0
100
AcDb2dPolyline
 66
     1
 10
0.0
 20
0.0
 30
0.0
 70
   129
  0
VERTEX
  5
1FD
100
AcDbEntity
  8
0
  6
CONTINUOUS
 62
     0
100
AcDbVertex
100
AcDb2dVertex
 10
623.621148
 20
296.31886
 30
0.0
  0
VERTEX
  5
1FE
100
AcDbEntity
  8
0
  6
CONTINUOUS
 62
     0
100
AcDbVertex
100
AcDb2dVertex
 10
623.621148
 20
306.31886
 30
0.0
  0
VERTEX
  5
1FF
100
AcDbEntity
  8
0
  6
CONTINUOUS
 62
     0
100
AcDbVertex
100
AcDb2dVertex
 10
623.621148
 20
306.31886
 30
0.0
  0
VERTEX
  5
200
100
AcDbEntity
  8
0
  6
CONTINUOUS
 62
     0
100
AcDbVertex
100
AcDb2dVertex
 10
619.621148
 20
306.31886
 30
0.0
  0
VERTEX
  5
201
100
AcDbEntity
  8
0
  6
CONTINUOUS
 62
     0
100
AcDbVertex
100
AcDb2dVertex
 10
619.621148
 20
306.31886
 30
0.0
  0
VERTEX
  5
202
100
AcDbEntity
  8
0
  6
CONTINUOUS
 62
     0
100
AcDbVertex
100
AcDb2dVertex
 10
619.621148
 20
296.31886
 30
0.0
  0
VERTEX
  5
203
100
AcDbEntity
  8
0
  6
CONTINUOUS
 62
     0
100
AcDbVertex
100
AcDb2dVertex
 10
619.621148
 20
296.31886
 30
0.0
  0
VERTEX
  5
204
100
AcDbEntity
  8
0
  6
CONTINUOUS
 62
     0
100
AcDbVertex
100
AcDb2dVertex
 10
623.621148
 20
296.31886
 30
0.0
  0
SEQEND
  5
205
100
AcDbEntity
  8
0
  6
CONTINUOUS
 62
     0
  0
POLYLINE
  5
206
100
AcDbEntity
  8
0
  6
CONTINUOUS
 62
     0
100
AcDb2dPolyline
 66
     1
 10
0.0
 20
0.0
 30
0.0
 70
   129
  0
VERTEX
  5
207
100
AcDbEntity
  8
0
  6
CONTINUOUS
 62
     0
100
AcDbVertex
100
AcDb2dVertex
 10
632.934856
 20
192.930954
 30
0.0
  0
VERTEX
  5
208
100
AcDbEntity
  8
0
  6
CONTINUOUS
 62
     0
100
AcDbVertex
100
AcDb2dVertex
 10
642.572609
 20
202.568706
 30
0.0
  0
VERTEX
  5
209
100
AcDbEntity
  8
0
  6
CONTINUOUS
 62
     0
100
AcDbVertex
100
AcDb2dVertex
 10
642.572609
 20
202.568706
 30
0.0
  0
VERTEX
  5
20A
100
AcDbEntity
  8
0
  6
CONTINUOUS
 62
     0
100
AcDbVertex
100
AcDb2dVertex
 10
639.744182
 20
205.397133
 30
0.0
  0
VERTEX
  5
20B
100
AcDbEntity
  8
0
  6
CONTINUOUS
 62
     0
100
AcDbVertex
100
AcDb2dVertex
 10
639.744182
 20
205.397133
 30
0.0
  0
VERTEX
  5
20C
100
AcDbEntity
  8
0
  6
CONTINUOUS
 62
     0
100
AcDbVertex
100
AcDb2dVertex
 10
630.106429
 20
195.759381
 30
0.0
  0
VERTEX
  5
20D
100
AcDbEntity
  8
0
  6
CONTINUOUS
 62
     0
100
AcDbVertex
100
AcDb2dVertex
 10
630.106429
 20
195.759381
 30
0.0
  0
VERTEX
  5
20E
100
AcDbEntity
  8
0
  6
CONTINUOUS
 62
     0
100
AcDbVertex
100
AcDb2dVertex
 10
632.934856
 20
192.930954
 30
0.0
  0
SEQEND
  5
20F
100
AcDbEntity
  8
0
  6
CONTINUOUS
 62
     0
  0
POLYLINE
  5
210
100
AcDbEntity
  8
0
  6
CONTINUOUS
 62
     0
100
AcDb2dPolyline
 66
     1
 10
0.0
 20
0.0
 30
0.0
 70
   129
  0
VERTEX
  5
211
100
AcDbEntity
  8
0
  6
CONTINUOUS
 62
     0
100
AcDbVertex
100
AcDb2dVertex
 10
659.804914
 20
219.801011
 30
0.0
  0
VERTEX
  5
212
100
AcDbEntity
  8
0
  6
CONTINUOUS
 62
     0
100
AcDbVertex
100
AcDb2dVertex
 10
666.875982
 20
226.872079
 30
0.0
  0
VERTEX
  5
213
100
AcDbEntity
  8
0
  6
CONTINUOUS
 62
     0
100
AcDbVertex
100
AcDb2dVertex
 10
666.875982
 20
226.872079
 30
0.0
  0
VERTEX
  5
214
100
AcDbEntity
  8
0
  6
CONTINUOUS
 62
     0
100
AcDbVertex
100
AcDb2dVertex
 10
664.047554
 20
229.700506
 30
0.0
  0
VERTEX
  5
215
100
AcDbEntity
  8
0
  6
CONTINUOUS
 62
     0
100
AcDbVertex
100
AcDb2dVertex
 10
664.047554
 20
229.700506
 30
0.0
  0
VERTEX
  5
216
100
AcDbEntity
  8
0
  6
CONTINUOUS
 62
     0
100
AcDbVertex
100
AcDb2dVertex
 10
656.976487
 20
222.629438
 30
0.0
  0
VERTEX
  5
217
100
AcDbEntity
  8
0
  6
CONTINUOUS
 62
     0
100
AcDbVertex
100
AcDb2dVertex
 10
656.976487
 20
222.629438
 30
0.0
  0
VERTEX
  5
218
100
AcDbEntity
  8
0
  6
CONTINUOUS
 62
     0
100
AcDbVertex
100
AcDb2dVertex
 10
659.804914
 20
219.801011
 30
0.0
  0
SEQEND
  5
219
100
AcDbEntity
  8
0
  6
CONTINUOUS
 62
     0
  0
POLYLINE
  5
21A
100
AcDbEntity
  8
0
  6
CONTINUOUS
 62
     0
100
AcDb2dPolyline
 66
     1
 10
0.0
 20
0.0
 30
0.0
 70
   129
  0
VERTEX
  5
21B
100
AcDbEntity
  8
0
  6
CONTINUOUS
 62
     0
100
AcDbVertex
100
AcDb2dVertex
 10
681.018117
 20
241.014215
 30
0.0
  0
VERTEX
  5
21C
100
AcDbEntity
  8
0
  6
CONTINUOUS
 62
     0
100
AcDbVertex
100
AcDb2dVertex
 10
688.089185
 20
248.085283
 30
0.0
  0
VERTEX
  5
21D
100
AcDbEntity
  8
0
  6
CONTINUOUS
 62
     0
100
AcDbVertex
100
AcDb2dVertex
 10
688.089185
 20
248.085283
 30
0.0
  0
VERTEX
  5
21E
100
AcDbEntity
  8
0
  6
CONTINUOUS
 62
     0
100
AcDbVertex
100
AcDb2dVertex
 10
685.260758
 20
250.91371
 30
0.0
  0
VERTEX
  5
21F
100
AcDbEntity
  8
0
  6
CONTINUOUS
 62
     0
100
AcDbVertex
100
AcDb2dVertex
 10
685.260758
 20
250.91371
 30
0.0
  0
VERTEX
  5
220
100
AcDbEntity
  8
0
  6
CONTINUOUS
 62
     0
100
AcDbVertex
100
AcDb2dVertex
 10
678.18969
 20
243.842642
 30
0.0
  0
VERTEX
  5
221
100
AcDbEntity
  8
0
  6
CONTINUOUS
 62
     0
100
AcDbVertex
100
AcDb2dVertex
 10
678.18969
 20
243.842642
 30
0.0
  0
VERTEX
  5
222
100
AcDbEntity
  8
0
  6
CONTINUOUS
 62
     0
100
AcDbVertex
100
AcDb2dVertex
 10
681.018117
 20
241.014215
 30
0.0
  0
SEQEND
  5
223
100
AcDbEntity
  8
0
  6
CONTINUOUS
 62
     0
  0
POLYLINE
  5
224
100
AcDbEntity
  8
0
  6
CONTINUOUS
 62
     0
100
AcDb2dPolyline
 66
     1
 10
0.0
 20
0.0
 30
0.0
 70
   129
  0
VERTEX
  5
225
100
AcDbEntity
  8
0
  6
CONTINUOUS
 62
     0
100
AcDbVertex
100
AcDb2dVertex
 10
702.141651
 20
262.137749
 30
0.0
  0
VERTEX
  5
226
100
AcDbEntity
  8
0
  6
CONTINUOUS
 62
     0
100
AcDbVertex
100
AcDb2dVertex
 10
709.212719
 20
269.208816
 30
0.0
  0
VERTEX
  5
227
100
AcDbEntity
  8
0
  6
CONTINUOUS
 62
     0
100
AcDbVertex
100
AcDb2dVertex
 10
709.212719
 20
269.208816
 30
0.0
  0
VERTEX
  5
228
100
AcDbEntity
  8
0
  6
CONTINUOUS
 62
     0
100
AcDbVertex
100
AcDb2dVertex
 10
706.384292
 20
272.037244
 30
0.0
  0
VERTEX
  5
229
100
AcDbEntity
  8
0
  6
CONTINUOUS
 62
     0
100
AcDbVertex
100
AcDb2dVertex
 10
706.384292
 20
272.037244
 30
0.0
  0
VERTEX
  5
22A
100
AcDbEntity
  8
0
  6
CONTINUOUS
 62
     0
100
AcDbVertex
100
AcDb2dVertex
 10
699.313224
 20
264.966176
 30
0.0
  0
VERTEX
  5
22B
100
AcDbEntity
  8
0
  6
CONTINUOUS
 62
     0
100
AcDbVertex
100
AcDb2dVertex
 10
699.313224
 20
264.966176
 30
0.0
  0
VERTEX
  5
22C
100
AcDbEntity
  8
0
  6
CONTINUOUS
 62
     0
100
AcDbVertex
100
AcDb2dVertex
 10
702.141651
 20
262.137749
 30
0.0
  0
SEQEND
  5
22D
100
AcDbEntity
  8
0
  6
CONTINUOUS
 62
     0
  0
POLYLINE
  5
22E
100
AcDbEntity
  8
0
  6
CONTINUOUS
 62
     0
100
AcDb2dPolyline
 66
     1
 10
0.0
 20
0.0
 30
0.0
 70
   129
  0
VERTEX
  5
22F
100
AcDbEntity
  8
0
  6
CONTINUOUS
 62
     0
100
AcDbVertex
100
AcDb2dVertex
 10
613.135866
 20
195.759381
 30
0.0
  0
VERTEX
  5
230
100
AcDbEntity
  8
0
  6
CONTINUOUS
 62
     0
100
AcDbVertex
100
AcDb2dVertex
 10
603.498114
 20
205.397133
 30
0.0
  0
VERTEX
  5
231
100
AcDbEntity
  8
0
  6
CONTINUOUS
 62
     0
100
AcDbVertex
100
AcDb2dVertex
 10
603.498114
 20
205.397133
 30
0.0
  0
VERTEX
  5
232
100
AcDbEntity
  8
0
  6
CONTINUOUS
 62
     0
100
AcDbVertex
100
AcDb2dVertex
 10
600.669686
 20
202.568706
 30
0.0
  0
VERTEX
  5
233
100
AcDbEntity
  8
0
  6
CONTINUOUS
 62
     0
100
AcDbVertex
100
AcDb2dVertex
 10
600.669686
 20
202.568706
 30
0.0
  0
VERTEX
  5
234
100
AcDbEntity
  8
0
  6
CONTINUOUS
 62
     0
100
AcDbVertex
100
AcDb2dVertex
 10
610.307439
 20
192.930954
 30
0.0
  0
VERTEX
  5
235
100
AcDbEntity
  8
0
  6
CONTINUOUS
 62
     0
100
AcDbVertex
100
AcDb2dVertex
 10
610.307439
 20
192.930954
 30
0.0
  0
VERTEX
  5
236
100
AcDbEntity
  8
0
  6
CONTINUOUS
 62
     0
100
AcDbVertex
100
AcDb2dVertex
 10
613.135866
 20
195.759381
 30
0.0
  0
SEQEND
  5
237
100
AcDbEntity
  8
0
  6
CONTINUOUS
 62
     0
  0
POLYLINE
  5
238
100
AcDbEntity
  8
0
  6
CONTINUOUS
 62
     0
100
AcDb2dPolyline
 66
     1
 10
0.0
 20
0.0
 30
0.0
 70
   129
  0
VERTEX
  5
239
100
AcDbEntity
  8
0
  6
CONTINUOUS
 62
     0
100
AcDbVertex
100
AcDb2dVertex
 10
586.265809
 20
222.629438
 30
0.0
  0
VERTEX
  5
23A
100
AcDbEntity
  8
0
  6
CONTINUOUS
 62
     0
100
AcDbVertex
100
AcDb2dVertex
 10
579.194741
 20
229.700506
 30
0.0
  0
VERTEX
  5
23B
100
AcDbEntity
  8
0
  6
CONTINUOUS
 62
     0
100
AcDbVertex
100
AcDb2dVertex
 10
579.194741
 20
229.700506
 30
0.0
  0
VERTEX
  5
23C
100
AcDbEntity
  8
0
  6
CONTINUOUS
 62
     0
100
AcDbVertex
100
AcDb2dVertex
 10
576.366314
 20
226.872079
 30
0.0
  0
VERTEX
  5
23D
100
AcDbEntity
  8
0
  6
CONTINUOUS
 62
     0
100
AcDbVertex
100
AcDb2dVertex
 10
576.366314
 20
226.872079
 30
0.0
  0
VERTEX
  5
23E
100
AcDbEntity
  8
0
  6
CONTINUOUS
 62
     0
100
AcDbVertex
100
AcDb2dVertex
 10
583.437381
 20
219.801011
 30
0.0
  0
VERTEX
  5
23F
100
AcDbEntity
  8
0
  6
CONTINUOUS
 62
     0
100
AcDbVertex
100
AcDb2dVertex
 10
583.437381
 20
219.801011
 30
0.0
  0
VERTEX
  5
240
100
AcDbEntity
  8
0
  6
CONTINUOUS
 62
     0
100
AcDbVertex
100
AcDb2dVertex
 10
586.265809
 20
222.629438
 30
0.0
  0
SEQEND
  5
241
100
AcDbEntity
  8
0
  6
CONTINUOUS
 62
     0
  0
POLYLINE
  5
242
100
AcDbEntity
  8
0
  6
CONTINUOUS
 62
     0
100
AcDb2dPolyline
 66
     1
 10
0.0
 20
0.0
 30
0.0
 70
   129
  0
VERTEX
  5
243
100
AcDbEntity
  8
0
  6
CONTINUOUS
 62
     0
100
AcDbVertex
100
AcDb2dVertex
 10
565.052605
 20
243.842642
 30
0.0
  0
VERTEX
  5
244
100
AcDbEntity
  8
0
  6
CONTINUOUS
 62
     0
100
AcDbVertex
100
AcDb2dVertex
 10
557.981537
 20
250.91371
 30
0.0
  0
VERTEX
  5
245
100
AcDbEntity
  8
0
  6
CONTINUOUS
 62
     0
100
AcDbVertex
100
AcDb2dVertex
 10
557.981537
 20
250.91371
 30
0.0
  0
VERTEX
  5
246
100
AcDbEntity
  8
0
  6
CONTINUOUS
 62
     0
100
AcDbVertex
100
AcDb2dVertex
 10
555.15311
 20
248.085283
 30
0.0
  0
VERTEX
  5
247
100
AcDbEntity
  8
0
  6
CONTINUOUS
 62
     0
100
AcDbVertex
100
AcDb2dVertex
 10
555.15311
 20
248.085283
 30
0.0
  0
VERTEX
  5
248
100
AcDbEntity
  8
0
  6
CONTINUOUS
 62
     0
100
AcDbVertex
100
AcDb2dVertex
 10
562.224178
 20
241.014215
 30
0.0
  0
VERTEX
  5
249
100
AcDbEntity
  8
0
  6
CONTINUOUS
 62
     0
100
AcDbVertex
100
AcDb2dVertex
 10
562.224178
 20
241.014215
 30
0.0
  0
VERTEX
  5
24A
100
AcDbEntity
  8
0
  6
CONTINUOUS
 62
     0
100
AcDbVertex
100
AcDb2dVertex
 10
565.052605
 20
243.842642
 30
0.0
  0
SEQEND
  5
24B
100
AcDbEntity
  8
0
  6
CONTINUOUS
 62
     0
  0
POLYLINE
  5
24C
100
AcDbEntity
  8
0
  6
CONTINUOUS
 62
     0
100
AcDb2dPolyline
 66
     1
 10
0.0
 20
0.0
 30
0.0
 70
   129
  0
VERTEX
  5
24D
100
AcDbEntity
  8
0
  6
CONTINUOUS
 62
     0
100
AcDbVertex
100
AcDb2dVertex
 10
543.929071
 20
264.966176
 30
0.0
  0
VERTEX
  5
24E
100
AcDbEntity
  8
0
  6
CONTINUOUS
 62
     0
100
AcDbVertex
100
AcDb2dVertex
 10
536.858003
 20
272.037244
 30
0.0
  0
VERTEX
  5
24F
100
AcDbEntity
  8
0
  6
CONTINUOUS
 62
     0
100
AcDbVertex
100
AcDb2dVertex
 10
536.858003
 20
272.037244
 30
0.0
  0
VERTEX
  5
250
100
AcDbEntity
  8
0
  6
CONTINUOUS
 62
     0
100
AcDbVertex
100
AcDb2dVertex
 10
534.029576
 20
269.208816
 30
0.0
  0
VERTEX
  5
251
100
AcDbEntity
  8
0
  6
CONTINUOUS
 62
     0
100
AcDbVertex
100
AcDb2dVertex
 10
534.029576
 20
269.208816
 30
0.0
  0
VERTEX
  5
252
100
AcDbEntity
  8
0
  6
CONTINUOUS
 62
     0
100
AcDbVertex
100
AcDb2dVertex
 10
541.100644
 20
262.137749
 30
0.0
  0
VERTEX
  5
253
100
AcDbEntity
  8
0
  6
CONTINUOUS
 62
     0
100
AcDbVertex
100
AcDb2dVertex
 10
541.100644
 20
262.137749
 30
0.0
  0
VERTEX
  5
254
100
AcDbEntity
  8
0
  6
CONTINUOUS
 62
     0
100
AcDbVertex
100
AcDb2dVertex
 10
543.929071
 20
264.966176
 30
0.0
  0
SEQEND
  5
255
100
AcDbEntity
  8
0
  6
CONTINUOUS
 62
     0
  0
POLYLINE
  5
256
100
AcDbEntity
  8
0
  6
CONTINUOUS
 62
     0
100
AcDb2dPolyline
 66
     1
 10
0.0
 20
0.0
 30
0.0
 70
   129
  0
VERTEX
  5
257
100
AcDbEntity
  8
0
  6
CONTINUOUS
 62
     0
100
AcDbVertex
100
AcDb2dVertex
 10
610.307439
 20
175.960391
 30
0.0
  0
VERTEX
  5
258
100
AcDbEntity
  8
0
  6
CONTINUOUS
 62
     0
100
AcDbVertex
100
AcDb2dVertex
 10
600.669686
 20
166.322638
 30
0.0
  0
VERTEX
  5
259
100
AcDbEntity
  8
0
  6
CONTINUOUS
 62
     0
100
AcDbVertex
100
AcDb2dVertex
 10
600.669686
 20
166.322638
 30
0.0
  0
VERTEX
  5
25A
100
AcDbEntity
  8
0
  6
CONTINUOUS
 62
     0
100
AcDbVertex
100
AcDb2dVertex
 10
603.498114
 20
163.494211
 30
0.0
  0
VERTEX
  5
25B
100
AcDbEntity
  8
0
  6
CONTINUOUS
 62
     0
100
AcDbVertex
100
AcDb2dVertex
 10
603.498114
 20
163.494211
 30
0.0
  0
VERTEX
  5
25C
100
AcDbEntity
  8
0
  6
CONTINUOUS
 62
     0
100
AcDbVertex
100
AcDb2dVertex
 10
613.135866
 20
173.131964
 30
0.0
  0
VERTEX
  5
25D
100
AcDbEntity
  8
0
  6
CONTINUOUS
 62
     0
100
AcDbVertex
100
AcDb2dVertex
 10
613.135866
 20
173.131964
 30
0.0
  0
VERTEX
  5
25E
100
AcDbEntity
  8
0
  6
CONTINUOUS
 62
     0
100
AcDbVertex
100
AcDb2dVertex
 10
610.307439
 20
175.960391
 30
0.0
  0
SEQEND
  5
25F
100
AcDbEntity
  8
0
  6
CONTINUOUS
 62
     0
  0
POLYLINE
  5
260
100
AcDbEntity
  8
0
  6
CONTINUOUS
 62
     0
100
AcDb2dPolyline
 66
     1
 10
0.0
 20
0.0
 30
0.0
 70
   129
  0
VERTEX
  5
261
100
AcDbEntity
  8
0
  6
CONTINUOUS
 62
     0
100
AcDbVertex
100
AcDb2dVertex
 10
583.437381
 20
149.090333
 30
0.0
  0
VERTEX
  5
262
100
AcDbEntity
  8
0
  6
CONTINUOUS
 62
     0
100
AcDbVertex
100
AcDb2dVertex
 10
576.366314
 20
142.019265
 30
0.0
  0
VERTEX
  5
263
100
AcDbEntity
  8
0
  6
CONTINUOUS
 62
     0
100
AcDbVertex
100
AcDb2dVertex
 10
576.366314
 20
142.019265
 30
0.0
  0
VERTEX
  5
264
100
AcDbEntity
  8
0
  6
CONTINUOUS
 62
     0
100
AcDbVertex
100
AcDb2dVertex
 10
579.194741
 20
139.190838
 30
0.0
  0
VERTEX
  5
265
100
AcDbEntity
  8
0
  6
CONTINUOUS
 62
     0
100
AcDbVertex
100
AcDb2dVertex
 10
579.194741
 20
139.190838
 30
0.0
  0
VERTEX
  5
266
100
AcDbEntity
  8
0
  6
CONTINUOUS
 62
     0
100
AcDbVertex
100
AcDb2dVertex
 10
586.265809
 20
146.261906
 30
0.0
  0
VERTEX
  5
267
100
AcDbEntity
  8
0
  6
CONTINUOUS
 62
     0
100
AcDbVertex
100
AcDb2dVertex
 10
586.265809
 20
146.261906
 30
0.0
  0
VERTEX
  5
268
100
AcDbEntity
  8
0
  6
CONTINUOUS
 62
     0
100
AcDbVertex
100
AcDb2dVertex
 10
583.437381
 20
149.090333
 30
0.0
  0
SEQEND
  5
269
100
AcDbEntity
  8
0
  6
CONTINUOUS
 62
     0
  0
POLYLINE
  5
26A
100
AcDbEntity
  8
0
  6
CONTINUOUS
 62
     0
100
AcDb2dPolyline
 66
     1
 10
0.0
 20
0.0
 30
0.0
 70
   129
  0
VERTEX
  5
26B
100
AcDbEntity
  8
0
  6
CONTINUOUS
 62
     0
100
AcDbVertex
100
AcDb2dVertex
 10
562.224178
 20
127.87713
 30
0.0
  0
VERTEX
  5
26C
100
AcDbEntity
  8
0
  6
CONTINUOUS
 62
     0
100
AcDbVertex
100
AcDb2dVertex
 10
555.15311
 20
120.806062
 30
0.0
  0
VERTEX
  5
26D
100
AcDbEntity
  8
0
  6
CONTINUOUS
 62
     0
100
AcDbVertex
100
AcDb2dVertex
 10
555.15311
 20
120.806062
 30
0.0
  0
VERTEX
  5
26E
100
AcDbEntity
  8
0
  6
CONTINUOUS
 62
     0
100
AcDbVertex
100
AcDb2dVertex
 10
557.981537
 20
117.977635
 30
0.0
  0
VERTEX
  5
26F
100
AcDbEntity
  8
0
  6
CONTINUOUS
 62
     0
100
AcDbVertex
100
AcDb2dVertex
 10
557.981537
 20
117.977635
 30
0.0
  0
VERTEX
  5
270
100
AcDbEntity
  8
0
  6
CONTINUOUS
 62
     0
100
AcDbVertex
100
AcDb2dVertex
 10
565.052605
 20
125.048703
 30
0.0
  0
VERTEX
  5
271
100
AcDbEntity
  8
0
  6
CONTINUOUS
 62
     0
100
AcDbVertex
100
AcDb2dVertex
 10
565.052605
 20
125.048703
 30
0.0
  0
VERTEX
  5
272
100
AcDbEntity
  8
0
  6
CONTINUOUS
 62
     0
100
AcDbVertex
100
AcDb2dVertex
 10
562.224178
 20
127.87713
 30
0.0
  0
SEQEND
  5
273
100
AcDbEntity
  8
0
  6
CONTINUOUS
 62
     0
  0
POLYLINE
  5
274
100
AcDbEntity
  8
0
  6
CONTINUOUS
 62
     0
100
AcDb2dPolyline
 66
     1
 10
0.0
 20
0.0
 30
0.0
 70
   129
  0
VERTEX
  5
275
100
AcDbEntity
  8
0
  6
CONTINUOUS
 62
     0
100
AcDbVertex
100
AcDb2dVertex
 10
541.100644
 20
106.753596
 30
0.0
  0
VERTEX
  5
276
100
AcDbEntity
  8
0
  6
CONTINUOUS
 62
     0
100
AcDbVertex
100
AcDb2dVertex
 10
534.029576
 20
99.682528
 30
0.0
  0
VERTEX
  5
277
100
AcDbEntity
  8
0
  6
CONTINUOUS
 62
     0
100
AcDbVertex
100
AcDb2dVertex
 10
534.029576
 20
99.682528
 30
0.0
  0
VERTEX
  5
278
100
AcDbEntity
  8
0
  6
CONTINUOUS
 62
     0
100
AcDbVertex
100
AcDb2dVertex
 10
536.858003
 20
96.854101
 30
0.0
  0
VERTEX
  5
279
100
AcDbEntity
  8
0
  6
CONTINUOUS
 62
     0
100
AcDbVertex
100
AcDb2dVertex
 10
536.858003
 20
96.854101
 30
0.0
  0
VERTEX
  5
27A
100
AcDbEntity
  8
0
  6
CONTINUOUS
 62
     0
100
AcDbVertex
100
AcDb2dVertex
 10
543.929071
 20
103.925169
 30
0.0
  0
VERTEX
  5
27B
100
AcDbEntity
  8
0
  6
CONTINUOUS
 62
     0
100
AcDbVertex
100
AcDb2dVertex
 10
543.929071
 20
103.925169
 30
0.0
  0
VERTEX
  5
27C
100
AcDbEntity
  8
0
  6
CONTINUOUS
 62
     0
100
AcDbVertex
100
AcDb2dVertex
 10
541.100644
 20
106.753596
 30
0.0
  0
SEQEND
  5
27D
100
AcDbEntity
  8
0
  6
CONTINUOUS
 62
     0
  0
POLYLINE
  5
27E
100
AcDbEntity
  8
0
  6
CONTINUOUS
 62
     0
100
AcDb2dPolyline
 66
     1
 10
0.0
 20
0.0
 30
0.0
 70
   129
  0
VERTEX
  5
27F
100
AcDbEntity
  8
0
  6
CONTINUOUS
 62
     0
100
AcDbVertex
100
AcDb2dVertex
 10
630.106429
 20
173.131964
 30
0.0
  0
VERTEX
  5
280
100
AcDbEntity
  8
0
  6
CONTINUOUS
 62
     0
100
AcDbVertex
100
AcDb2dVertex
 10
639.744182
 20
163.494211
 30
0.0
  0
VERTEX
  5
281
100
AcDbEntity
  8
0
  6
CONTINUOUS
 62
     0
100
AcDbVertex
100
AcDb2dVertex
 10
639.744182
 20
163.494211
 30
0.0
  0
VERTEX
  5
282
100
AcDbEntity
  8
0
  6
CONTINUOUS
 62
     0
100
AcDbVertex
100
AcDb2dVertex
 10
642.572609
 20
166.322638
 30
0.0
  0
VERTEX
  5
283
100
AcDbEntity
  8
0
  6
CONTINUOUS
 62
     0
100
AcDbVertex
100
AcDb2dVertex
 10
642.572609
 20
166.322638
 30
0.0
  0
VERTEX
  5
284
100
AcDbEntity
  8
0
  6
CONTINUOUS
 62
     0
100
AcDbVertex
100
AcDb2dVertex
 10
632.934856
 20
175.960391
 30
0.0
  0
VERTEX
  5
285
100
AcDbEntity
  8
0
  6
CONTINUOUS
 62
     0
100
AcDbVertex
100
AcDb2dVertex
 10
632.934856
 20
175.960391
 30
0.0
  0
VERTEX
  5
286
100
AcDbEntity
  8
0
  6
CONTINUOUS
 62
     0
100
AcDbVertex
100
AcDb2dVertex
 10
630.106429
 20
173.131964
 30
0.0
  0
SEQEND
  5
287
100
AcDbEntity
  8
0
  6
CONTINUOUS
 62
     0
  0
POLYLINE
  5
288
100
AcDbEntity
  8
0
  6
CONTINUOUS
 62
     0
100
AcDb2dPolyline
 66
     1
 10
0.0
 20
0.0
 30
0.0
 70
   129
  0
VERTEX
  5
289
100
AcDbEntity
  8
0
  6
CONTINUOUS
 62
     0
100
AcDbVertex
100
AcDb2dVertex
 10
656.976487
 20
146.261906
 30
0.0
  0
VERTEX
  5
28A
100
AcDbEntity
  8
0
  6
CONTINUOUS
 62
     0
100
AcDbVertex
100
AcDb2dVertex
 10
664.047554
 20
139.190838
 30
0.0
  0
VERTEX
  5
28B
100
AcDbEntity
  8
0
  6
CONTINUOUS
 62
     0
100
AcDbVertex
100
AcDb2dVertex
 10
664.047554
 20
139.190838
 30
0.0
  0
VERTEX
  5
28C
100
AcDbEntity
  8
0
  6
CONTINUOUS
 62
     0
100
AcDbVertex
100
AcDb2dVertex
 10
666.875982
 20
142.019265
 30
0.0
  0
VERTEX
  5
28D
100
AcDbEntity
  8
0
  6
CONTINUOUS
 62
     0
100
AcDbVertex
100
AcDb2dVertex
 10
666.875982
 20
142.019265
 30
0.0
  0
VERTEX
  5
28E
100
AcDbEntity
  8
0
  6
CONTINUOUS
 62
     0
100
AcDbVertex
100
AcDb2dVertex
 10
659.804914
 20
149.090333
 30
0.0
  0
VERTEX
  5
28F
100
AcDbEntity
  8
0
  6
CONTINUOUS
 62
     0
100
AcDbVertex
100
AcDb2dVertex
 10
659.804914
 20
149.090333
 30
0.0
  0
VERTEX
  5
290
100
AcDbEntity
  8
0
  6
CONTINUOUS
 62
     0
100
AcDbVertex
100
AcDb2dVertex
 10
656.976487
 20
146.261906
 30
0.0
  0
SEQEND
  5
291
100
AcDbEntity
  8
0
  6
CONTINUOUS
 62
     0
  0
POLYLINE
  5
292
100
AcDbEntity
  8
0
  6
CONTINUOUS
 62
     0
100
AcDb2dPolyline
 66
     1
 10
0.0
 20
0.0
 30
0.0
 70
   129
  0
VERTEX
  5
293
100
AcDbEntity
  8
0
  6
CONTINUOUS
 62
     0
100
AcDbVertex
100
AcDb2dVertex
 10
678.18969
 20
125.048703
 30
0.0
  0
VERTEX
  5
294
100
AcDbEntity
  8
0
  6
CONTINUOUS
 62
     0
100
AcDbVertex
100
AcDb2dVertex
 10
685.260758
 20
117.977635
 30
0.0
  0
VERTEX
  5
295
100
AcDbEntity
  8
0
  6
CONTINUOUS
 62
     0
100
AcDbVertex
100
AcDb2dVertex
 10
685.260758
 20
117.977635
 30
0.0
  0
VERTEX
  5
296
100
AcDbEntity
  8
0
  6
CONTINUOUS
 62
     0
100
AcDbVertex
100
AcDb2dVertex
 10
688.089185
 20
120.806062
 30
0.0
  0
VERTEX
  5
297
100
AcDbEntity
  8
0
  6
CONTINUOUS
 62
     0
100
AcDbVertex
100
AcDb2dVertex
 10
688.089185
 20
120.806062
 30
0.0
  0
VERTEX
  5
298
100
AcDbEntity
  8
0
  6
CONTINUOUS
 62
     0
100
AcDbVertex
100
AcDb2dVertex
 10
681.018117
 20
127.87713
 30
0.0
  0
VERTEX
  5
299
100
AcDbEntity
  8
0
  6
CONTINUOUS
 62
     0
100
AcDbVertex
100
AcDb2dVertex
 10
681.018117
 20
127.87713
 30
0.0
  0
VERTEX
  5
29A
100
AcDbEntity
  8
0
  6
CONTINUOUS
 62
     0
100
AcDbVertex
100
AcDb2dVertex
 10
678.18969
 20
125.048703
 30
0.0
  0
SEQEND
  5
29B
100
AcDbEntity
  8
0
  6
CONTINUOUS
 62
     0
  0
POLYLINE
  5
29C
100
AcDbEntity
  8
0
  6
CONTINUOUS
 62
     0
100
AcDb2dPolyline
 66
     1
 10
0.0
 20
0.0
 30
0.0
 70
   129
  0
VERTEX
  5
29D
100
AcDbEntity
  8
0
  6
CONTINUOUS
 62
     0
100
AcDbVertex
100
AcDb2dVertex
 10
699.313224
 20
103.925169
 30
0.0
  0
VERTEX
  5
29E
100
AcDbEntity
  8
0
  6
CONTINUOUS
 62
     0
100
AcDbVertex
100
AcDb2dVertex
 10
706.384292
 20
96.854101
 30
0.0
  0
VERTEX
  5
29F
100
AcDbEntity
  8
0
  6
CONTINUOUS
 62
     0
100
AcDbVertex
100
AcDb2dVertex
 10
706.384292
 20
96.854101
 30
0.0
  0
VERTEX
  5
2A0
100
AcDbEntity
  8
0
  6
CONTINUOUS
 62
     0
100
AcDbVertex
100
AcDb2dVertex
 10
709.212719
 20
99.682528
 30
0.0
  0
VERTEX
  5
2A1
100
AcDbEntity
  8
0
  6
CONTINUOUS
 62
     0
100
AcDbVertex
100
AcDb2dVertex
 10
709.212719
 20
99.682528
 30
0.0
  0
VERTEX
  5
2A2
100
AcDbEntity
  8
0
  6
CONTINUOUS
 62
     0
100
AcDbVertex
100
AcDb2dVertex
 10
702.141651
 20
106.753596
 30
0.0
  0
VERTEX
  5
2A3
100
AcDbEntity
  8
0
  6
CONTINUOUS
 62
     0
100
AcDbVertex
100
AcDb2dVertex
 10
702.141651
 20
106.753596
 30
0.0
  0
VERTEX
  5
2A4
100
AcDbEntity
  8
0
  6
CONTINUOUS
 62
     0
100
AcDbVertex
100
AcDb2dVertex
 10
699.313224
 20
103.925169
 30
0.0
  0
SEQEND
  5
2A5
100
AcDbEntity
  8
0
  6
CONTINUOUS
 62
     0
  0
CIRCLE
  5
2A6
100
AcDbEntity
  8
0
  6
CONTINUOUS
 62
     0
100
AcDbCircle
 10
621.621148
 20
184.445672
 30
0.0
 40
170.0
  0
LINE
  5
2A7
100
AcDbEntity
  8
0
  6
CONTINUOUS
 62
     0
100
AcDbLine
 10
693.467928
 20
413.619128
 30
0.0
 11
693.467928
 21
369.369128
 31
0.0
  0
LINE
  5
2A8
100
AcDbEntity
  8
0
  6
CONTINUOUS
 62
     0
100
AcDbLine
 10
723.467928
 20
413.619128
 30
0.0
 11
723.467928
 21
457.869128
 31
0.0
  0
LINE
  5
2A9
100
AcDbEntity
  8
0
  6
CONTINUOUS
 62
     0
100
AcDbLine
 10
753.467928
 20
457.869128
 30
0.0
 11
753.467928
 21
502.119128
 31
0.0
  0
LINE
  5
2AA
100
AcDbEntity
  8
0
  6
CONTINUOUS
 62
     0
100
AcDbLine
 10
783.467928
 20
502.119128
 30
0.0
 11
783.467928
 21
542.119128
 31
0.0
  0
LINE
  5
2AB
100
AcDbEntity
  8
0
  6
CONTINUOUS
 62
     0
100
AcDbLine
 10
783.467928
 20
542.119128
 30
0.0
 11
773.341116
 21
542.119128
 31
0.0
  0
LINE
  5
2AC
100
AcDbEntity
  8
0
  6
CONTINUOUS
 62
     0
100
AcDbLine
 10
763.341116
 20
542.119128
 30
0.0
 11
743.467928
 21
542.119128
 31
0.0
  0
LINE
  5
2AD
100
AcDbEntity
  8
0
  6
CONTINUOUS
 62
     0
100
AcDbLine
 10
733.467928
 20
542.119128
 30
0.0
 11
713.467928
 21
542.119128
 31
0.0
  0
LINE
  5
2AE
100
AcDbEntity
  8
0
  6
CONTINUOUS
 62
     0
100
AcDbLine
 10
693.467928
 20
369.369128
 30
0.0
 11
679.467928
 21
369.369128
 31
0.0
  0
LINE
  5
2AF
100
AcDbEntity
  8
0
  6
CONTINUOUS
 62
     0
100
AcDbLine
 10
665.467928
 20
369.369128
 30
0.0
 11
651.467928
 21
369.369128
 31
0.0
  0
LINE
  5
2B0
100
AcDbEntity
  8
0
  6
CONTINUOUS
 62
     0
100
AcDbLine
 10
723.467928
 20
457.869128
 30
0.0
 11
733.467928
 21
457.869128
 31
0.0
  0
LINE
  5
2B1
100
AcDbEntity
  8
0
  6
CONTINUOUS
 62
     0
100
AcDbLine
 10
743.467928
 20
457.869128
 30
0.0
 11
753.467928
 21
457.869128
 31
0.0
  0
LINE
  5
2B2
100
AcDbEntity
  8
0
  6
CONTINUOUS
 62
     0
100
AcDbLine
 10
753.467928
 20
502.119128
 30
0.0
 11
763.341116
 21
502.119128
 31
0.0
  0
LINE
  5
2B3
100
AcDbEntity
  8
0
  6
CONTINUOUS
 62
     0
100
AcDbLine
 10
773.341116
 20
502.119128
 30
0.0
 11
783.467928
 21
502.119128
 31
0.0
  0
LINE
  5
2B4
100
AcDbEntity
  8
0
  6
CONTINUOUS
 62
     0
100
AcDbLine
 10
703.467928
 20
542.119128
 30
0.0
 11
679.467928
 21
542.119128
 31
0.0
  0
LINE
  5
2B5
100
AcDbEntity
  8
0
  6
CONTINUOUS
 62
     0
100
AcDbLine
 10
679.467928
 20
365.369128
 30
0.0
 11
665.467928
 21
365.369128
 31
0.0
  0
LINE
  5
2B6
100
AcDbEntity
  8
0
  6
CONTINUOUS
 62
     0
100
AcDbLine
 10
679.467928
 20
369.369128
 30
0.0
 11
679.467928
 21
365.369128
 31
0.0
  0
LINE
  5
2B7
100
AcDbEntity
  8
0
  6
CONTINUOUS
 62
     0
100
AcDbLine
 10
665.467928
 20
365.369128
 30
0.0
 11
665.467928
 21
369.369128
 31
0.0
  0
LINE
  5
2B8
100
AcDbEntity
  8
0
  6
CONTINUOUS
 62
     0
100
AcDbLine
 10
713.467928
 20
409.619128
 30
0.0
 11
703.467928
 21
409.619128
 31
0.0
  0
LINE
  5
2B9
100
AcDbEntity
  8
0
  6
CONTINUOUS
 62
     0
100
AcDbLine
 10
713.467928
 20
413.619128
 30
0.0
 11
713.467928
 21
409.619128
 31
0.0
  0
LINE
  5
2BA
100
AcDbEntity
  8
0
  6
CONTINUOUS
 62
     0
100
AcDbLine
 10
703.467928
 20
409.619128
 30
0.0
 11
703.467928
 21
413.619128
 31
0.0
  0
LINE
  5
2BB
100
AcDbEntity
  8
0
  6
CONTINUOUS
 62
     0
100
AcDbLine
 10
743.467928
 20
453.869128
 30
0.0
 11
733.467928
 21
453.869128
 31
0.0
  0
LINE
  5
2BC
100
AcDbEntity
  8
0
  6
CONTINUOUS
 62
     0
100
AcDbLine
 10
743.467928
 20
457.869128
 30
0.0
 11
743.467928
 21
453.869128
 31
0.0
  0
LINE
  5
2BD
100
AcDbEntity
  8
0
  6
CONTINUOUS
 62
     0
100
AcDbLine
 10
733.467928
 20
453.869128
 30
0.0
 11
733.467928
 21
457.869128
 31
0.0
  0
LINE
  5
2BE
100
AcDbEntity
  8
0
  6
CONTINUOUS
 62
     0
100
AcDbLine
 10
773.341116
 20
498.119128
 30
0.0
 11
763.341116
 21
498.119128
 31
0.0
  0
LINE
  5
2BF
100
AcDbEntity
  8
0
  6
CONTINUOUS
 62
     0
100
AcDbLine
 10
763.341116
 20
498.119128
 30
0.0
 11
763.341116
 21
502.119128
 31
0.0
  0
LINE
  5
2C0
100
AcDbEntity
  8
0
  6
CONTINUOUS
 62
     0
100
AcDbLine
 10
773.341116
 20
502.119128
 30
0.0
 11
773.341116
 21
498.119128
 31
0.0
  0
LINE
  5
2C1
100
AcDbEntity
  8
0
  6
CONTINUOUS
 62
     0
100
AcDbLine
 10
773.341116
 20
542.119128
 30
0.0
 11
773.341116
 21
546.119128
 31
0.0
  0
LINE
  5
2C2
100
AcDbEntity
  8
0
  6
CONTINUOUS
 62
     0
100
AcDbLine
 10
763.341116
 20
546.119128
 30
0.0
 11
763.341116
 21
542.119128
 31
0.0
  0
LINE
  5
2C3
100
AcDbEntity
  8
0
  6
CONTINUOUS
 62
     0
100
AcDbLine
 10
743.467928
 20
546.119128
 30
0.0
 11
743.467928
 21
542.119128
 31
0.0
  0
LINE
  5
2C4
100
AcDbEntity
  8
0
  6
CONTINUOUS
 62
     0
100
AcDbLine
 10
733.467928
 20
542.119128
 30
0.0
 11
733.467928
 21
546.119128
 31
0.0
  0
LINE
  5
2C5
100
AcDbEntity
  8
0
  6
CONTINUOUS
 62
     0
100
AcDbLine
 10
713.467928
 20
546.119128
 30
0.0
 11
713.467928
 21
542.119128
 31
0.0
  0
LINE
  5
2C6
100
AcDbEntity
  8
0
  6
CONTINUOUS
 62
     0
100
AcDbLine
 10
703.467928
 20
542.119128
 30
0.0
 11
703.467928
 21
546.119128
 31
0.0
  0
LINE
  5
2C7
100
AcDbEntity
  8
0
  6
CONTINUOUS
 62
     0
100
AcDbLine
 10
679.467928
 20
546.119128
 30
0.0
 11
679.467928
 21
542.119128
 31
0.0
  0
LINE
  5
2C8
100
AcDbEntity
  8
0
  6
CONTINUOUS
 62
     0
100
AcDbLine
 10
665.467928
 20
542.119128
 30
0.0
 11
665.467928
 21
546.119128
 31
0.0
  0
LINE
  5
2C9
100
AcDbEntity
  8
0
  6
CONTINUOUS
 62
     0
100
AcDbLine
 10
773.341116
 20
546.119128
 30
0.0
 11
763.341116
 21
546.119128
 31
0.0
  0
LINE
  5
2CA
100
AcDbEntity
  8
0
  6
CONTINUOUS
 62
     0
100
AcDbLine
 10
733.467928
 20
546.119128
 30
0.0
 11
743.467928
 21
546.119128
 31
0.0
  0
LINE
  5
2CB
100
AcDbEntity
  8
0
  6
CONTINUOUS
 62
     0
100
AcDbLine
 10
703.467928
 20
546.119128
 30
0.0
 11
713.467928
 21
546.119128
 31
0.0
  0
LINE
  5
2CC
100
AcDbEntity
  8
0
  6
CONTINUOUS
 62
     0
100
AcDbLine
 10
665.467928
 20
546.119128
 30
0.0
 11
679.467928
 21
546.119128
 31
0.0
  0
LINE
  5
2CD
100
AcDbEntity
  8
0
  6
CONTINUOUS
 62
     0
100
AcDbLine
 10
609.467928
 20
413.619128
 30
0.0
 11
609.467928
 21
369.369128
 31
0.0
  0
LINE
  5
2CE
100
AcDbEntity
  8
0
  6
CONTINUOUS
 62
     0
100
AcDbLine
 10
579.467928
 20
413.619128
 30
0.0
 11
579.467928
 21
457.869128
 31
0.0
  0
LINE
  5
2CF
100
AcDbEntity
  8
0
  6
CONTINUOUS
 62
     0
100
AcDbLine
 10
549.467928
 20
457.869128
 30
0.0
 11
549.467928
 21
502.119128
 31
0.0
  0
LINE
  5
2D0
100
AcDbEntity
  8
0
  6
CONTINUOUS
 62
     0
100
AcDbLine
 10
519.467928
 20
502.119128
 30
0.0
 11
519.467928
 21
542.119128
 31
0.0
  0
LINE
  5
2D1
100
AcDbEntity
  8
0
  6
CONTINUOUS
 62
     0
100
AcDbLine
 10
519.467928
 20
542.119128
 30
0.0
 11
529.59474
 21
542.119128
 31
0.0
  0
LINE
  5
2D2
100
AcDbEntity
  8
0
  6
CONTINUOUS
 62
     0
100
AcDbLine
 10
539.59474
 20
542.119128
 30
0.0
 11
559.467928
 21
542.119128
 31
0.0
  0
LINE
  5
2D3
100
AcDbEntity
  8
0
  6
CONTINUOUS
 62
     0
100
AcDbLine
 10
569.467928
 20
542.119128
 30
0.0
 11
589.467928
 21
542.119128
 31
0.0
  0
LINE
  5
2D4
100
AcDbEntity
  8
0
  6
CONTINUOUS
 62
     0
100
AcDbLine
 10
609.467928
 20
369.369128
 30
0.0
 11
623.467928
 21
369.369128
 31
0.0
  0
LINE
  5
2D5
100
AcDbEntity
  8
0
  6
CONTINUOUS
 62
     0
100
AcDbLine
 10
637.467928
 20
369.369128
 30
0.0
 11
651.467928
 21
369.369128
 31
0.0
  0
LINE
  5
2D6
100
AcDbEntity
  8
0
  6
CONTINUOUS
 62
     0
100
AcDbLine
 10
579.467928
 20
457.869128
 30
0.0
 11
569.467928
 21
457.869128
 31
0.0
  0
LINE
  5
2D7
100
AcDbEntity
  8
0
  6
CONTINUOUS
 62
     0
100
AcDbLine
 10
559.467928
 20
457.869128
 30
0.0
 11
549.467928
 21
457.869128
 31
0.0
  0
LINE
  5
2D8
100
AcDbEntity
  8
0
  6
CONTINUOUS
 62
     0
100
AcDbLine
 10
549.467928
 20
502.119128
 30
0.0
 11
539.59474
 21
502.119128
 31
0.0
  0
LINE
  5
2D9
100
AcDbEntity
  8
0
  6
CONTINUOUS
 62
     0
100
AcDbLine
 10
529.59474
 20
502.119128
 30
0.0
 11
519.467928
 21
502.119128
 31
0.0
  0
LINE
  5
2DA
100
AcDbEntity
  8
0
  6
CONTINUOUS
 62
     0
100
AcDbLine
 10
599.467928
 20
542.119128
 30
0.0
 11
623.467928
 21
542.119128
 31
0.0
  0
LINE
  5
2DB
100
AcDbEntity
  8
0
  6
CONTINUOUS
 62
     0
100
AcDbLine
 10
623.467928
 20
365.369128
 30
0.0
 11
637.467928
 21
365.369128
 31
0.0
  0
LINE
  5
2DC
100
AcDbEntity
  8
0
  6
CONTINUOUS
 62
     0
100
AcDbLine
 10
623.467928
 20
369.369128
 30
0.0
 11
623.467928
 21
365.369128
 31
0.0
  0
LINE
  5
2DD
100
AcDbEntity
  8
0
  6
CONTINUOUS
 62
     0
100
AcDbLine
 10
637.467928
 20
365.369128
 30
0.0
 11
637.467928
 21
369.369128
 31
0.0
  0
LINE
  5
2DE
100
AcDbEntity
  8
0
  6
CONTINUOUS
 62
     0
100
AcDbLine
 10
589.467928
 20
409.619128
 30
0.0
 11
599.467928
 21
409.619128
 31
0.0
  0
LINE
  5
2DF
100
AcDbEntity
  8
0
  6
CONTINUOUS
 62
     0
100
AcDbLine
 10
589.467928
 20
413.619128
 30
0.0
 11
589.467928
 21
409.619128
 31
0.0
  0
LINE
  5
2E0
100
AcDbEntity
  8
0
  6
CONTINUOUS
 62
     0
100
AcDbLine
 10
599.467928
 20
409.619128
 30
0.0
 11
599.467928
 21
413.619128
 31
0.0
  0
LINE
  5
2E1
100
AcDbEntity
  8
0
  6
CONTINUOUS
 62
     0
100
AcDbLine
 10
559.467928
 20
453.869128
 30
0.0
 11
569.467928
 21
453.869128
 31
0.0
  0
LINE
  5
2E2
100
AcDbEntity
  8
0
  6
CONTINUOUS
 62
     0
100
AcDbLine
 10
559.467928
 20
457.869128
 30
0.0
 11
559.467928
 21
453.869128
 31
0.0
  0
LINE
  5
2E3
100
AcDbEntity
  8
0
  6
CONTINUOUS
 62
     0
100
AcDbLine
 10
569.467928
 20
453.869128
 30
0.0
 11
569.467928
 21
457.869128
 31
0.0
  0
LINE
  5
2E4
100
AcDbEntity
  8
0
  6
CONTINUOUS
 62
     0
100
AcDbLine
 10
529.59474
 20
498.119128
 30
0.0
 11
539.59474
 21
498.119128
 31
0.0
  0
LINE
  5
2E5
100
AcDbEntity
  8
0
  6
CONTINUOUS
 62
     0
100
AcDbLine
 10
539.59474
 20
498.119128
 30
0.0
 11
539.59474
 21
502.119128
 31
0.0
  0
LINE
  5
2E6
100
AcDbEntity
  8
0
  6
CONTINUOUS
 62
     0
100
AcDbLine
 10
529.59474
 20
502.119128
 30
0.0
 11
529.59474
 21
498.119128
 31
0.0
  0
LINE
  5
2E7
100
AcDbEntity
  8
0
  6
CONTINUOUS
 62
     0
100
AcDbLine
 10
529.59474
 20
542.119128
 30
0.0
 11
529.59474
 21
546.119128
 31
0.0
  0
LINE
  5
2E8
100
AcDbEntity
  8
0
  6
CONTINUOUS
 62
     0
100
AcDbLine
 10
539.59474
 20
546.119128
 30
0.0
 11
539.59474
 21
542.119128
 31
0.0
  0
LINE
  5
2E9
100
AcDbEntity
  8
0
  6
CONTINUOUS
 62
     0
100
AcDbLine
 10
559.467928
 20
546.119128
 30
0.0
 11
559.467928
 21
542.119128
 31
0.0
  0
LINE
  5
2EA
100
AcDbEntity
  8
0
  6
CONTINUOUS
 62
     0
100
AcDbLine
 10
569.467928
 20
542.119128
 30
0.0
 11
569.467928
 21
546.119128
 31
0.0
  0
LINE
  5
2EB
100
AcDbEntity
  8
0
  6
CONTINUOUS
 62
     0
100
AcDbLine
 10
589.467928
 20
546.119128
 30
0.0
 11
589.467928
 21
542.119128
 31
0.0
  0
LINE
  5
2EC
100
AcDbEntity
  8
0
  6
CONTINUOUS
 62
     0
100
AcDbLine
 10
599.467928
 20
542.119128
 30
0.0
 11
599.467928
 21
546.119128
 31
0.0
  0
LINE
  5
2ED
100
AcDbEntity
  8
0
  6
CONTINUOUS
 62
     0
100
AcDbLine
 10
623.467928
 20
546.119128
 30
0.0
 11
623.467928
 21
542.119128
 31
0.0
  0
LINE
  5
2EE
100
AcDbEntity
  8
0
  6
CONTINUOUS
 62
     0
100
AcDbLine
 10
637.467928
 20
542.119128
 30
0.0
 11
637.467928
 21
546.119128
 31
0.0
  0
LINE
  5
2EF
100
AcDbEntity
  8
0
  6
CONTINUOUS
 62
     0
100
AcDbLine
 10
529.59474
 20
546.119128
 30
0.0
 11
539.59474
 21
546.119128
 31
0.0
  0
LINE
  5
2F0
100
AcDbEntity
  8
0
  6
CONTINUOUS
 62
     0
100
AcDbLine
 10
569.467928
 20
546.119128
 30
0.0
 11
559.467928
 21
546.119128
 31
0.0
  0
LINE
  5
2F1
100
AcDbEntity
  8
0
  6
CONTINUOUS
 62
     0
100
AcDbLine
 10
599.467928
 20
546.119128
 30
0.0
 11
589.467928
 21
546.119128
 31
0.0
  0
LINE
  5
2F2
100
AcDbEntity
  8
0
  6
CONTINUOUS
 62
     0
100
AcDbLine
 10
637.467928
 20
546.119128
 30
0.0
 11
623.467928
 21
546.119128
 31
0.0
  0
LINE
  5
2F3
100
AcDbEntity
  8
0
  6
CONTINUOUS
 62
     0
100
AcDbLine
 10
693.467928
 20
413.619128
 30
0.0
 11
703.467928
 21
413.619128
 31
0.0
  0
LINE
  5
2F4
100
AcDbEntity
  8
0
  6
CONTINUOUS
 62
     0
100
AcDbLine
 10
713.467928
 20
413.619128
 30
0.0
 11
723.467928
 21
413.619128
 31
0.0
  0
LINE
  5
2F5
100
AcDbEntity
  8
0
  6
CONTINUOUS
 62
     0
100
AcDbLine
 10
609.467928
 20
413.619128
 30
0.0
 11
599.467928
 21
413.619128
 31
0.0
  0
LINE
  5
2F6
100
AcDbEntity
  8
0
  6
CONTINUOUS
 62
     0
100
AcDbLine
 10
589.467928
 20
413.619128
 30
0.0
 11
579.467928
 21
413.619128
 31
0.0
  0
LINE
  5
2F7
100
AcDbEntity
  8
0
  6
CONTINUOUS
 62
     0
100
AcDbLine
 10
653.467928
 20
455.744128
 30
0.0
 11
649.467928
 21
455.744128
 31
0.0
  0
LINE
  5
2F8
100
AcDbEntity
  8
0
  6
CONTINUOUS
 62
     0
100
AcDbLine
 10
653.467928
 20
542.119128
 30
0.0
 11
653.467928
 21
455.744128
 31
0.0
  0
LINE
  5
2F9
100
AcDbEntity
  8
0
  6
CONTINUOUS
 62
     0
100
AcDbLine
 10
649.467928
 20
542.119128
 30
0.0
 11
649.467928
 21
455.744128
 31
0.0
  0
LINE
  5
2FA
100
AcDbEntity
  8
0
  6
CONTINUOUS
 62
     0
100
AcDbLine
 10
665.467928
 20
542.119128
 30
0.0
 11
653.467928
 21
542.119128
 31
0.0
  0
LINE
  5
2FB
100
AcDbEntity
  8
0
  6
CONTINUOUS
 62
     0
100
AcDbLine
 10
637.467928
 20
542.119128
 30
0.0
 11
649.467928
 21
542.119128
 31
0.0
  0
LINE
  5
2FC
100
AcDbEntity
  8
0
  6
CONTINUOUS
 62
     0
100
AcDbLine
 10
481.326621
 20
459.167037
 30
0.0
 11
481.326621
 21
503.417037
 31
0.0
  0
LINE
  5
2FD
100
AcDbEntity
  8
0
  6
CONTINUOUS
 62
     0
100
AcDbLine
 10
511.326621
 20
503.417037
 30
0.0
 11
511.326621
 21
543.417037
 31
0.0
  0
LINE
  5
2FE
100
AcDbEntity
  8
0
  6
CONTINUOUS
 62
     0
100
AcDbLine
 10
511.326621
 20
543.417037
 30
0.0
 11
501.199809
 21
543.417037
 31
0.0
  0
LINE
  5
2FF
100
AcDbEntity
  8
0
  6
CONTINUOUS
 62
     0
100
AcDbLine
 10
491.199809
 20
543.417037
 30
0.0
 11
471.326621
 21
543.417037
 31
0.0
  0
LINE
  5
300
100
AcDbEntity
  8
0
  6
CONTINUOUS
 62
     0
100
AcDbLine
 10
461.326621
 20
543.417037
 30
0.0
 11
441.326621
 21
543.417037
 31
0.0
  0
LINE
  5
301
100
AcDbEntity
  8
0
  6
CONTINUOUS
 62
     0
100
AcDbLine
 10
451.326621
 20
459.167037
 30
0.0
 11
461.326621
 21
459.167037
 31
0.0
  0
LINE
  5
302
100
AcDbEntity
  8
0
  6
CONTINUOUS
 62
     0
100
AcDbLine
 10
471.326621
 20
459.167037
 30
0.0
 11
481.326621
 21
459.167037
 31
0.0
  0
LINE
  5
303
100
AcDbEntity
  8
0
  6
CONTINUOUS
 62
     0
100
AcDbLine
 10
481.326621
 20
503.417037
 30
0.0
 11
491.199809
 21
503.417037
 31
0.0
  0
LINE
  5
304
100
AcDbEntity
  8
0
  6
CONTINUOUS
 62
     0
100
AcDbLine
 10
501.199809
 20
503.417037
 30
0.0
 11
511.326621
 21
503.417037
 31
0.0
  0
LINE
  5
305
100
AcDbEntity
  8
0
  6
CONTINUOUS
 62
     0
100
AcDbLine
 10
471.326621
 20
455.167037
 30
0.0
 11
461.326621
 21
455.167037
 31
0.0
  0
LINE
  5
306
100
AcDbEntity
  8
0
  6
CONTINUOUS
 62
     0
100
AcDbLine
 10
471.326621
 20
459.167037
 30
0.0
 11
471.326621
 21
455.167037
 31
0.0
  0
LINE
  5
307
100
AcDbEntity
  8
0
  6
CONTINUOUS
 62
     0
100
AcDbLine
 10
461.326621
 20
455.167037
 30
0.0
 11
461.326621
 21
459.167037
 31
0.0
  0
LINE
  5
308
100
AcDbEntity
  8
0
  6
CONTINUOUS
 62
     0
100
AcDbLine
 10
501.199809
 20
499.417037
 30
0.0
 11
491.199809
 21
499.417037
 31
0.0
  0
LINE
  5
309
100
AcDbEntity
  8
0
  6
CONTINUOUS
 62
     0
100
AcDbLine
 10
491.199809
 20
499.417037
 30
0.0
 11
491.199809
 21
503.417037
 31
0.0
  0
LINE
  5
30A
100
AcDbEntity
  8
0
  6
CONTINUOUS
 62
     0
100
AcDbLine
 10
501.199809
 20
503.417037
 30
0.0
 11
501.199809
 21
499.417037
 31
0.0
  0
LINE
  5
30B
100
AcDbEntity
  8
0
  6
CONTINUOUS
 62
     0
100
AcDbLine
 10
501.199809
 20
543.417037
 30
0.0
 11
501.199809
 21
547.417037
 31
0.0
  0
LINE
  5
30C
100
AcDbEntity
  8
0
  6
CONTINUOUS
 62
     0
100
AcDbLine
 10
491.199809
 20
547.417037
 30
0.0
 11
491.199809
 21
543.417037
 31
0.0
  0
LINE
  5
30D
100
AcDbEntity
  8
0
  6
CONTINUOUS
 62
     0
100
AcDbLine
 10
471.326621
 20
547.417037
 30
0.0
 11
471.326621
 21
543.417037
 31
0.0
  0
LINE
  5
30E
100
AcDbEntity
  8
0
  6
CONTINUOUS
 62
     0
100
AcDbLine
 10
461.326621
 20
543.417037
 30
0.0
 11
461.326621
 21
547.417037
 31
0.0
  0
LINE
  5
30F
100
AcDbEntity
  8
0
  6
CONTINUOUS
 62
     0
100
AcDbLine
 10
501.199809
 20
547.417037
 30
0.0
 11
491.199809
 21
547.417037
 31
0.0
  0
LINE
  5
310
100
AcDbEntity
  8
0
  6
CONTINUOUS
 62
     0
100
AcDbLine
 10
461.326621
 20
547.417037
 30
0.0
 11
471.326621
 21
547.417037
 31
0.0
  0
LINE
  5
311
100
AcDbEntity
  8
0
  6
CONTINUOUS
 62
     0
100
AcDbLine
 10
421.326621
 20
414.917037
 30
0.0
 11
421.326621
 21
370.667037
 31
0.0
  0
LINE
  5
312
100
AcDbEntity
  8
0
  6
CONTINUOUS
 62
     0
100
AcDbLine
 10
451.326621
 20
414.917037
 30
0.0
 11
451.326621
 21
459.167037
 31
0.0
  0
LINE
  5
313
100
AcDbEntity
  8
0
  6
CONTINUOUS
 62
     0
100
AcDbLine
 10
393.326621
 20
543.417037
 30
0.0
 11
379.326621
 21
543.417037
 31
0.0
  0
LINE
  5
314
100
AcDbEntity
  8
0
  6
CONTINUOUS
 62
     0
100
AcDbLine
 10
421.326621
 20
370.667037
 30
0.0
 11
407.326621
 21
370.667037
 31
0.0
  0
LINE
  5
315
100
AcDbEntity
  8
0
  6
CONTINUOUS
 62
     0
100
AcDbLine
 10
431.326621
 20
543.417037
 30
0.0
 11
407.326621
 21
543.417037
 31
0.0
  0
LINE
  5
316
100
AcDbEntity
  8
0
  6
CONTINUOUS
 62
     0
100
AcDbLine
 10
407.326621
 20
366.667037
 30
0.0
 11
393.326621
 21
366.667037
 31
0.0
  0
LINE
  5
317
100
AcDbEntity
  8
0
  6
CONTINUOUS
 62
     0
100
AcDbLine
 10
407.326621
 20
370.667037
 30
0.0
 11
407.326621
 21
366.667037
 31
0.0
  0
LINE
  5
318
100
AcDbEntity
  8
0
  6
CONTINUOUS
 62
     0
100
AcDbLine
 10
393.326621
 20
366.667037
 30
0.0
 11
393.326621
 21
370.667037
 31
0.0
  0
LINE
  5
319
100
AcDbEntity
  8
0
  6
CONTINUOUS
 62
     0
100
AcDbLine
 10
441.326621
 20
410.917037
 30
0.0
 11
431.326621
 21
410.917037
 31
0.0
  0
LINE
  5
31A
100
AcDbEntity
  8
0
  6
CONTINUOUS
 62
     0
100
AcDbLine
 10
441.326621
 20
414.917037
 30
0.0
 11
441.326621
 21
410.917037
 31
0.0
  0
LINE
  5
31B
100
AcDbEntity
  8
0
  6
CONTINUOUS
 62
     0
100
AcDbLine
 10
431.326621
 20
410.917037
 30
0.0
 11
431.326621
 21
414.917037
 31
0.0
  0
LINE
  5
31C
100
AcDbEntity
  8
0
  6
CONTINUOUS
 62
     0
100
AcDbLine
 10
441.326621
 20
547.417037
 30
0.0
 11
441.326621
 21
543.417037
 31
0.0
  0
LINE
  5
31D
100
AcDbEntity
  8
0
  6
CONTINUOUS
 62
     0
100
AcDbLine
 10
431.326621
 20
543.417037
 30
0.0
 11
431.326621
 21
547.417037
 31
0.0
  0
LINE
  5
31E
100
AcDbEntity
  8
0
  6
CONTINUOUS
 62
     0
100
AcDbLine
 10
407.326621
 20
547.417037
 30
0.0
 11
407.326621
 21
543.417037
 31
0.0
  0
LINE
  5
31F
100
AcDbEntity
  8
0
  6
CONTINUOUS
 62
     0
100
AcDbLine
 10
393.326621
 20
543.417037
 30
0.0
 11
393.326621
 21
547.417037
 31
0.0
  0
LINE
  5
320
100
AcDbEntity
  8
0
  6
CONTINUOUS
 62
     0
100
AcDbLine
 10
431.326621
 20
547.417037
 30
0.0
 11
441.326621
 21
547.417037
 31
0.0
  0
LINE
  5
321
100
AcDbEntity
  8
0
  6
CONTINUOUS
 62
     0
100
AcDbLine
 10
393.326621
 20
547.417037
 30
0.0
 11
407.326621
 21
547.417037
 31
0.0
  0
LINE
  5
322
100
AcDbEntity
  8
0
  6
CONTINUOUS
 62
     0
100
AcDbLine
 10
337.326621
 20
414.917037
 30
0.0
 11
337.326621
 21
370.667037
 31
0.0
  0
LINE
  5
323
100
AcDbEntity
  8
0
  6
CONTINUOUS
 62
     0
100
AcDbLine
 10
307.326621
 20
414.917037
 30
0.0
 11
307.326621
 21
459.167037
 31
0.0
  0
LINE
  5
324
100
AcDbEntity
  8
0
  6
CONTINUOUS
 62
     0
100
AcDbLine
 10
277.326621
 20
459.167037
 30
0.0
 11
277.326621
 21
503.417037
 31
0.0
  0
LINE
  5
325
100
AcDbEntity
  8
0
  6
CONTINUOUS
 62
     0
100
AcDbLine
 10
247.326621
 20
503.417037
 30
0.0
 11
247.326621
 21
543.417037
 31
0.0
  0
LINE
  5
326
100
AcDbEntity
  8
0
  6
CONTINUOUS
 62
     0
100
AcDbLine
 10
247.326621
 20
543.417037
 30
0.0
 11
257.453433
 21
543.417037
 31
0.0
  0
LINE
  5
327
100
AcDbEntity
  8
0
  6
CONTINUOUS
 62
     0
100
AcDbLine
 10
365.326621
 20
543.417037
 30
0.0
 11
379.326621
 21
543.417037
 31
0.0
  0
LINE
  5
328
100
AcDbEntity
  8
0
  6
CONTINUOUS
 62
     0
100
AcDbLine
 10
267.453433
 20
543.417037
 30
0.0
 11
287.326621
 21
543.417037
 31
0.0
  0
LINE
  5
329
100
AcDbEntity
  8
0
  6
CONTINUOUS
 62
     0
100
AcDbLine
 10
297.326621
 20
543.417037
 30
0.0
 11
317.326621
 21
543.417037
 31
0.0
  0
LINE
  5
32A
100
AcDbEntity
  8
0
  6
CONTINUOUS
 62
     0
100
AcDbLine
 10
337.326621
 20
370.667037
 30
0.0
 11
351.326621
 21
370.667037
 31
0.0
  0
LINE
  5
32B
100
AcDbEntity
  8
0
  6
CONTINUOUS
 62
     0
100
AcDbLine
 10
307.326621
 20
459.167037
 30
0.0
 11
297.326621
 21
459.167037
 31
0.0
  0
LINE
  5
32C
100
AcDbEntity
  8
0
  6
CONTINUOUS
 62
     0
100
AcDbLine
 10
287.326621
 20
459.167037
 30
0.0
 11
277.326621
 21
459.167037
 31
0.0
  0
LINE
  5
32D
100
AcDbEntity
  8
0
  6
CONTINUOUS
 62
     0
100
AcDbLine
 10
277.326621
 20
503.417037
 30
0.0
 11
267.453433
 21
503.417037
 31
0.0
  0
LINE
  5
32E
100
AcDbEntity
  8
0
  6
CONTINUOUS
 62
     0
100
AcDbLine
 10
257.453433
 20
503.417037
 30
0.0
 11
247.326621
 21
503.417037
 31
0.0
  0
LINE
  5
32F
100
AcDbEntity
  8
0
  6
CONTINUOUS
 62
     0
100
AcDbLine
 10
327.326621
 20
543.417037
 30
0.0
 11
351.326621
 21
543.417037
 31
0.0
  0
LINE
  5
330
100
AcDbEntity
  8
0
  6
CONTINUOUS
 62
     0
100
AcDbLine
 10
351.326621
 20
366.667037
 30
0.0
 11
365.326621
 21
366.667037
 31
0.0
  0
LINE
  5
331
100
AcDbEntity
  8
0
  6
CONTINUOUS
 62
     0
100
AcDbLine
 10
351.326621
 20
370.667037
 30
0.0
 11
351.326621
 21
366.667037
 31
0.0
  0
LINE
  5
332
100
AcDbEntity
  8
0
  6
CONTINUOUS
 62
     0
100
AcDbLine
 10
365.326621
 20
366.667037
 30
0.0
 11
365.326621
 21
370.667037
 31
0.0
  0
LINE
  5
333
100
AcDbEntity
  8
0
  6
CONTINUOUS
 62
     0
100
AcDbLine
 10
317.326621
 20
410.917037
 30
0.0
 11
327.326621
 21
410.917037
 31
0.0
  0
LINE
  5
334
100
AcDbEntity
  8
0
  6
CONTINUOUS
 62
     0
100
AcDbLine
 10
317.326621
 20
414.917037
 30
0.0
 11
317.326621
 21
410.917037
 31
0.0
  0
LINE
  5
335
100
AcDbEntity
  8
0
  6
CONTINUOUS
 62
     0
100
AcDbLine
 10
327.326621
 20
410.917037
 30
0.0
 11
327.326621
 21
414.917037
 31
0.0
  0
LINE
  5
336
100
AcDbEntity
  8
0
  6
CONTINUOUS
 62
     0
100
AcDbLine
 10
287.326621
 20
455.167037
 30
0.0
 11
297.326621
 21
455.167037
 31
0.0
  0
LINE
  5
337
100
AcDbEntity
  8
0
  6
CONTINUOUS
 62
     0
100
AcDbLine
 10
287.326621
 20
459.167037
 30
0.0
 11
287.326621
 21
455.167037
 31
0.0
  0
LINE
  5
338
100
AcDbEntity
  8
0
  6
CONTINUOUS
 62
     0
100
AcDbLine
 10
297.326621
 20
455.167037
 30
0.0
 11
297.326621
 21
459.167037
 31
0.0
  0
LINE
  5
339
100
AcDbEntity
  8
0
  6
CONTINUOUS
 62
     0
100
AcDbLine
 10
257.453433
 20
499.417037
 30
0.0
 11
267.453433
 21
499.417037
 31
0.0
  0
LINE
  5
33A
100
AcDbEntity
  8
0
  6
CONTINUOUS
 62
     0
100
AcDbLine
 10
267.453433
 20
499.417037
 30
0.0
 11
267.453433
 21
503.417037
 31
0.0
  0
LINE
  5
33B
100
AcDbEntity
  8
0
  6
CONTINUOUS
 62
     0
100
AcDbLine
 10
257.453433
 20
503.417037
 30
0.0
 11
257.453433
 21
499.417037
 31
0.0
  0
LINE
  5
33C
100
AcDbEntity
  8
0
  6
CONTINUOUS
 62
     0
100
AcDbLine
 10
257.453433
 20
543.417037
 30
0.0
 11
257.453433
 21
547.417037
 31
0.0
  0
LINE
  5
33D
100
AcDbEntity
  8
0
  6
CONTINUOUS
 62
     0
100
AcDbLine
 10
267.453433
 20
547.417037
 30
0.0
 11
267.453433
 21
543.417037
 31
0.0
  0
LINE
  5
33E
100
AcDbEntity
  8
0
  6
CONTINUOUS
 62
     0
100
AcDbLine
 10
287.326621
 20
547.417037
 30
0.0
 11
287.326621
 21
543.417037
 31
0.0
  0
LINE
  5
33F
100
AcDbEntity
  8
0
  6
CONTINUOUS
 62
     0
100
AcDbLine
 10
297.326621
 20
543.417037
 30
0.0
 11
297.326621
 21
547.417037
 31
0.0
  0
LINE
  5
340
100
AcDbEntity
  8
0
  6
CONTINUOUS
 62
     0
100
AcDbLine
 10
317.326621
 20
547.417037
 30
0.0
 11
317.326621
 21
543.417037
 31
0.0
  0
LINE
  5
341
100
AcDbEntity
  8
0
  6
CONTINUOUS
 62
     0
100
AcDbLine
 10
327.326621
 20
543.417037
 30
0.0
 11
327.326621
 21
547.417037
 31
0.0
  0
LINE
  5
342
100
AcDbEntity
  8
0
  6
CONTINUOUS
 62
     0
100
AcDbLine
 10
351.326621
 20
547.417037
 30
0.0
 11
351.326621
 21
543.417037
 31
0.0
  0
LINE
  5
343
100
AcDbEntity
  8
0
  6
CONTINUOUS
 62
     0
100
AcDbLine
 10
365.326621
 20
543.417037
 30
0.0
 11
365.326621
 21
547.417037
 31
0.0
  0
LINE
  5
344
100
AcDbEntity
  8
0
  6
CONTINUOUS
 62
     0
100
AcDbLine
 10
257.453433
 20
547.417037
 30
0.0
 11
267.453433
 21
547.417037
 31
0.0
  0
LINE
  5
345
100
AcDbEntity
  8
0
  6
CONTINUOUS
 62
     0
100
AcDbLine
 10
297.326621
 20
547.417037
 30
0.0
 11
287.326621
 21
547.417037
 31
0.0
  0
LINE
  5
346
100
AcDbEntity
  8
0
  6
CONTINUOUS
 62
     0
100
AcDbLine
 10
327.326621
 20
547.417037
 30
0.0
 11
317.326621
 21
547.417037
 31
0.0
  0
LINE
  5
347
100
AcDbEntity
  8
0
  6
CONTINUOUS
 62
     0
100
AcDbLine
 10
365.326621
 20
547.417037
 30
0.0
 11
351.326621
 21
547.417037
 31
0.0
  0
LINE
  5
348
100
AcDbEntity
  8
0
  6
CONTINUOUS
 62
     0
100
AcDbLine
 10
421.326621
 20
414.917037
 30
0.0
 11
431.326621
 21
414.917037
 31
0.0
  0
LINE
  5
349
100
AcDbEntity
  8
0
  6
CONTINUOUS
 62
     0
100
AcDbLine
 10
441.326621
 20
414.917037
 30
0.0
 11
451.326621
 21
414.917037
 31
0.0
  0
LINE
  5
34A
100
AcDbEntity
  8
0
  6
CONTINUOUS
 62
     0
100
AcDbLine
 10
337.326621
 20
414.917037
 30
0.0
 11
327.326621
 21
414.917037
 31
0.0
  0
LINE
  5
34B
100
AcDbEntity
  8
0
  6
CONTINUOUS
 62
     0
100
AcDbLine
 10
317.326621
 20
414.917037
 30
0.0
 11
307.326621
 21
414.917037
 31
0.0
  0
LINE
  5
34C
100
AcDbEntity
  8
0
  6
CONTINUOUS
 62
     0
100
AcDbLine
 10
381.326621
 20
457.042037
 30
0.0
 11
377.326621
 21
457.042037
 31
0.0
  0
LINE
  5
34D
100
AcDbEntity
  8
0
  6
CONTINUOUS
 62
     0
100
AcDbLine
 10
381.326621
 20
457.042037
 30
0.0
 11
381.326621
 21
370.667037
 31
0.0
  0
LINE
  5
34E
100
AcDbEntity
  8
0
  6
CONTINUOUS
 62
     0
100
AcDbLine
 10
377.326621
 20
457.042037
 30
0.0
 11
377.326621
 21
370.667037
 31
0.0
  0
LINE
  5
34F
100
AcDbEntity
  8
0
  6
CONTINUOUS
 62
     0
100
AcDbLine
 10
365.326621
 20
370.667037
 30
0.0
 11
377.326621
 21
370.667037
 31
0.0
  0
LINE
  5
350
100
AcDbEntity
  8
0
  6
CONTINUOUS
 62
     0
100
AcDbLine
 10
393.326621
 20
370.667037
 30
0.0
 11
381.326621
 21
370.667037
 31
0.0
  0
CIRCLE
  5
351
100
AcDbEntity
  8
0
  6
CONTINUOUS
 62
     0
100
AcDbCircle
 10
103.552161
 20
402.903207
 30
0.0
 40
102.0
  0
CIRCLE
  5
352
100
AcDbEntity
  8
0
  6
CONTINUOUS
 62
     0
100
AcDbCircle
 10
103.552161
 20
402.903207
 30
0.0
 40
166.0
  0
LINE
  5
353
100
AcDbEntity
  8
0
  6
CONTINUOUS
 62
     0
100
AcDbLine
 10
442.566391
 20
659.19919
 30
0.0
 11
442.566391
 21
614.94919
 31
0.0
  0
LINE
  5
354
100
AcDbEntity
  8
0
  6
CONTINUOUS
 62
     0
100
AcDbLine
 10
472.566391
 20
659.19919
 30
0.0
 11
472.566391
 21
703.44919
 31
0.0
  0
LINE
  5
355
100
AcDbEntity
  8
0
  6
CONTINUOUS
 62
     0
100
AcDbLine
 10
502.566391
 20
703.44919
 30
0.0
 11
502.566391
 21
747.69919
 31
0.0
  0
LINE
  5
356
100
AcDbEntity
  8
0
  6
CONTINUOUS
 62
     0
100
AcDbLine
 10
532.566391
 20
747.69919
 30
0.0
 11
532.566391
 21
787.69919
 31
0.0
  0
LINE
  5
357
100
AcDbEntity
  8
0
  6
CONTINUOUS
 62
     0
100
AcDbLine
 10
532.566391
 20
787.69919
 30
0.0
 11
522.439579
 21
787.69919
 31
0.0
  0
LINE
  5
358
100
AcDbEntity
  8
0
  6
CONTINUOUS
 62
     0
100
AcDbLine
 10
512.439579
 20
787.69919
 30
0.0
 11
492.566391
 21
787.69919
 31
0.0
  0
LINE
  5
359
100
AcDbEntity
  8
0
  6
CONTINUOUS
 62
     0
100
AcDbLine
 10
482.566391
 20
787.69919
 30
0.0
 11
462.566391
 21
787.69919
 31
0.0
  0
LINE
  5
35A
100
AcDbEntity
  8
0
  6
CONTINUOUS
 62
     0
100
AcDbLine
 10
442.566391
 20
614.94919
 30
0.0
 11
428.566391
 21
614.94919
 31
0.0
  0
LINE
  5
35B
100
AcDbEntity
  8
0
  6
CONTINUOUS
 62
     0
100
AcDbLine
 10
472.566391
 20
703.44919
 30
0.0
 11
482.566391
 21
703.44919
 31
0.0
  0
LINE
  5
35C
100
AcDbEntity
  8
0
  6
CONTINUOUS
 62
     0
100
AcDbLine
 10
492.566391
 20
703.44919
 30
0.0
 11
502.566391
 21
703.44919
 31
0.0
  0
LINE
  5
35D
100
AcDbEntity
  8
0
  6
CONTINUOUS
 62
     0
100
AcDbLine
 10
502.566391
 20
747.69919
 30
0.0
 11
512.439579
 21
747.69919
 31
0.0
  0
LINE
  5
35E
100
AcDbEntity
  8
0
  6
CONTINUOUS
 62
     0
100
AcDbLine
 10
522.439579
 20
747.69919
 30
0.0
 11
532.566391
 21
747.69919
 31
0.0
  0
LINE
  5
35F
100
AcDbEntity
  8
0
  6
CONTINUOUS
 62
     0
100
AcDbLine
 10
452.566391
 20
787.69919
 30
0.0
 11
428.566391
 21
787.69919
 31
0.0
  0
LINE
  5
360
100
AcDbEntity
  8
0
  6
CONTINUOUS
 62
     0
100
AcDbLine
 10
428.566391
 20
610.94919
 30
0.0
 11
414.566391
 21
610.94919
 31
0.0
  0
LINE
  5
361
100
AcDbEntity
  8
0
  6
CONTINUOUS
 62
     0
100
AcDbLine
 10
428.566391
 20
614.94919
 30
0.0
 11
428.566391
 21
610.94919
 31
0.0
  0
LINE
  5
362
100
AcDbEntity
  8
0
  6
CONTINUOUS
 62
     0
100
AcDbLine
 10
414.566391
 20
610.94919
 30
0.0
 11
414.566391
 21
614.94919
 31
0.0
  0
LINE
  5
363
100
AcDbEntity
  8
0
  6
CONTINUOUS
 62
     0
100
AcDbLine
 10
462.566391
 20
655.19919
 30
0.0
 11
452.566391
 21
655.19919
 31
0.0
  0
LINE
  5
364
100
AcDbEntity
  8
0
  6
CONTINUOUS
 62
     0
100
AcDbLine
 10
462.566391
 20
659.19919
 30
0.0
 11
462.566391
 21
655.19919
 31
0.0
  0
LINE
  5
365
100
AcDbEntity
  8
0
  6
CONTINUOUS
 62
     0
100
AcDbLine
 10
452.566391
 20
655.19919
 30
0.0
 11
452.566391
 21
659.19919
 31
0.0
  0
LINE
  5
366
100
AcDbEntity
  8
0
  6
CONTINUOUS
 62
     0
100
AcDbLine
 10
492.566391
 20
699.44919
 30
0.0
 11
482.566391
 21
699.44919
 31
0.0
  0
LINE
  5
367
100
AcDbEntity
  8
0
  6
CONTINUOUS
 62
     0
100
AcDbLine
 10
492.566391
 20
703.44919
 30
0.0
 11
492.566391
 21
699.44919
 31
0.0
  0
LINE
  5
368
100
AcDbEntity
  8
0
  6
CONTINUOUS
 62
     0
100
AcDbLine
 10
482.566391
 20
699.44919
 30
0.0
 11
482.566391
 21
703.44919
 31
0.0
  0
LINE
  5
369
100
AcDbEntity
  8
0
  6
CONTINUOUS
 62
     0
100
AcDbLine
 10
522.439579
 20
743.69919
 30
0.0
 11
512.439579
 21
743.69919
 31
0.0
  0
LINE
  5
36A
100
AcDbEntity
  8
0
  6
CONTINUOUS
 62
     0
100
AcDbLine
 10
512.439579
 20
743.69919
 30
0.0
 11
512.439579
 21
747.69919
 31
0.0
  0
LINE
  5
36B
100
AcDbEntity
  8
0
  6
CONTINUOUS
 62
     0
100
AcDbLine
 10
522.439579
 20
747.69919
 30
0.0
 11
522.439579
 21
743.69919
 31
0.0
  0
LINE
  5
36C
100
AcDbEntity
  8
0
  6
CONTINUOUS
 62
     0
100
AcDbLine
 10
522.439579
 20
787.69919
 30
0.0
 11
522.439579
 21
791.69919
 31
0.0
  0
LINE
  5
36D
100
AcDbEntity
  8
0
  6
CONTINUOUS
 62
     0
100
AcDbLine
 10
512.439579
 20
791.69919
 30
0.0
 11
512.439579
 21
787.69919
 31
0.0
  0
LINE
  5
36E
100
AcDbEntity
  8
0
  6
CONTINUOUS
 62
     0
100
AcDbLine
 10
492.566391
 20
791.69919
 30
0.0
 11
492.566391
 21
787.69919
 31
0.0
  0
LINE
  5
36F
100
AcDbEntity
  8
0
  6
CONTINUOUS
 62
     0
100
AcDbLine
 10
482.566391
 20
787.69919
 30
0.0
 11
482.566391
 21
791.69919
 31
0.0
  0
LINE
  5
370
100
AcDbEntity
  8
0
  6
CONTINUOUS
 62
     0
100
AcDbLine
 10
462.566391
 20
791.69919
 30
0.0
 11
462.566391
 21
787.69919
 31
0.0
  0
LINE
  5
371
100
AcDbEntity
  8
0
  6
CONTINUOUS
 62
     0
100
AcDbLine
 10
452.566391
 20
787.69919
 30
0.0
 11
452.566391
 21
791.69919
 31
0.0
  0
LINE
  5
372
100
AcDbEntity
  8
0
  6
CONTINUOUS
 62
     0
100
AcDbLine
 10
428.566391
 20
791.69919
 30
0.0
 11
428.566391
 21
787.69919
 31
0.0
  0
LINE
  5
373
100
AcDbEntity
  8
0
  6
CONTINUOUS
 62
     0
100
AcDbLine
 10
414.566391
 20
787.69919
 30
0.0
 11
414.566391
 21
791.69919
 31
0.0
  0
LINE
  5
374
100
AcDbEntity
  8
0
  6
CONTINUOUS
 62
     0
100
AcDbLine
 10
522.439579
 20
791.69919
 30
0.0
 11
512.439579
 21
791.69919
 31
0.0
  0
LINE
  5
375
100
AcDbEntity
  8
0
  6
CONTINUOUS
 62
     0
100
AcDbLine
 10
482.566391
 20
791.69919
 30
0.0
 11
492.566391
 21
791.69919
 31
0.0
  0
LINE
  5
376
100
AcDbEntity
  8
0
  6
CONTINUOUS
 62
     0
100
AcDbLine
 10
452.566391
 20
791.69919
 30
0.0
 11
462.566391
 21
791.69919
 31
0.0
  0
LINE
  5
377
100
AcDbEntity
  8
0
  6
CONTINUOUS
 62
     0
100
AcDbLine
 10
414.566391
 20
791.69919
 30
0.0
 11
428.566391
 21
791.69919
 31
0.0
  0
LINE
  5
378
100
AcDbEntity
  8
0
  6
CONTINUOUS
 62
     0
100
AcDbLine
 10
358.566391
 20
659.19919
 30
0.0
 11
358.566391
 21
614.94919
 31
0.0
  0
LINE
  5
379
100
AcDbEntity
  8
0
  6
CONTINUOUS
 62
     0
100
AcDbLine
 10
328.566391
 20
659.19919
 30
0.0
 11
328.566391
 21
703.44919
 31
0.0
  0
LINE
  5
37A
100
AcDbEntity
  8
0
  6
CONTINUOUS
 62
     0
100
AcDbLine
 10
298.566391
 20
703.44919
 30
0.0
 11
298.566391
 21
747.69919
 31
0.0
  0
LINE
  5
37B
100
AcDbEntity
  8
0
  6
CONTINUOUS
 62
     0
100
AcDbLine
 10
268.566391
 20
747.69919
 30
0.0
 11
268.566391
 21
787.69919
 31
0.0
  0
LINE
  5
37C
100
AcDbEntity
  8
0
  6
CONTINUOUS
 62
     0
100
AcDbLine
 10
268.566391
 20
787.69919
 30
0.0
 11
278.693203
 21
787.69919
 31
0.0
  0
LINE
  5
37D
100
AcDbEntity
  8
0
  6
CONTINUOUS
 62
     0
100
AcDbLine
 10
288.693203
 20
787.69919
 30
0.0
 11
308.566391
 21
787.69919
 31
0.0
  0
LINE
  5
37E
100
AcDbEntity
  8
0
  6
CONTINUOUS
 62
     0
100
AcDbLine
 10
318.566391
 20
787.69919
 30
0.0
 11
338.566391
 21
787.69919
 31
0.0
  0
LINE
  5
37F
100
AcDbEntity
  8
0
  6
CONTINUOUS
 62
     0
100
AcDbLine
 10
358.566391
 20
614.94919
 30
0.0
 11
372.566391
 21
614.94919
 31
0.0
  0
LINE
  5
380
100
AcDbEntity
  8
0
  6
CONTINUOUS
 62
     0
100
AcDbLine
 10
328.566391
 20
703.44919
 30
0.0
 11
318.566391
 21
703.44919
 31
0.0
  0
LINE
  5
381
100
AcDbEntity
  8
0
  6
CONTINUOUS
 62
     0
100
AcDbLine
 10
308.566391
 20
703.44919
 30
0.0
 11
298.566391
 21
703.44919
 31
0.0
  0
LINE
  5
382
100
AcDbEntity
  8
0
  6
CONTINUOUS
 62
     0
100
AcDbLine
 10
298.566391
 20
747.69919
 30
0.0
 11
288.693203
 21
747.69919
 31
0.0
  0
LINE
  5
383
100
AcDbEntity
  8
0
  6
CONTINUOUS
 62
     0
100
AcDbLine
 10
278.693203
 20
747.69919
 30
0.0
 11
268.566391
 21
747.69919
 31
0.0
  0
LINE
  5
384
100
AcDbEntity
  8
0
  6
CONTINUOUS
 62
     0
100
AcDbLine
 10
348.566391
 20
787.69919
 30
0.0
 11
372.566391
 21
787.69919
 31
0.0
  0
LINE
  5
385
100
AcDbEntity
  8
0
  6
CONTINUOUS
 62
     0
100
AcDbLine
 10
372.566391
 20
610.94919
 30
0.0
 11
386.566391
 21
610.94919
 31
0.0
  0
LINE
  5
386
100
AcDbEntity
  8
0
  6
CONTINUOUS
 62
     0
100
AcDbLine
 10
372.566391
 20
614.94919
 30
0.0
 11
372.566391
 21
610.94919
 31
0.0
  0
LINE
  5
387
100
AcDbEntity
  8
0
  6
CONTINUOUS
 62
     0
100
AcDbLine
 10
386.566391
 20
610.94919
 30
0.0
 11
386.566391
 21
614.94919
 31
0.0
  0
LINE
  5
388
100
AcDbEntity
  8
0
  6
CONTINUOUS
 62
     0
100
AcDbLine
 10
338.566391
 20
655.19919
 30
0.0
 11
348.566391
 21
655.19919
 31
0.0
  0
LINE
  5
389
100
AcDbEntity
  8
0
  6
CONTINUOUS
 62
     0
100
AcDbLine
 10
338.566391
 20
659.19919
 30
0.0
 11
338.566391
 21
655.19919
 31
0.0
  0
LINE
  5
38A
100
AcDbEntity
  8
0
  6
CONTINUOUS
 62
     0
100
AcDbLine
 10
348.566391
 20
655.19919
 30
0.0
 11
348.566391
 21
659.19919
 31
0.0
  0
LINE
  5
38B
100
AcDbEntity
  8
0
  6
CONTINUOUS
 62
     0
100
AcDbLine
 10
308.566391
 20
699.44919
 30
0.0
 11
318.566391
 21
699.44919
 31
0.0
  0
LINE
  5
38C
100
AcDbEntity
  8
0
  6
CONTINUOUS
 62
     0
100
AcDbLine
 10
308.566391
 20
703.44919
 30
0.0
 11
308.566391
 21
699.44919
 31
0.0
  0
LINE
  5
38D
100
AcDbEntity
  8
0
  6
CONTINUOUS
 62
     0
100
AcDbLine
 10
318.566391
 20
699.44919
 30
0.0
 11
318.566391
 21
703.44919
 31
0.0
  0
LINE
  5
38E
100
AcDbEntity
  8
0
  6
CONTINUOUS
 62
     0
100
AcDbLine
 10
278.693203
 20
743.69919
 30
0.0
 11
288.693203
 21
743.69919
 31
0.0
  0
LINE
  5
38F
100
AcDbEntity
  8
0
  6
CONTINUOUS
 62
     0
100
AcDbLine
 10
288.693203
 20
743.69919
 30
0.0
 11
288.693203
 21
747.69919
 31
0.0
  0
LINE
  5
390
100
AcDbEntity
  8
0
  6
CONTINUOUS
 62
     0
100
AcDbLine
 10
278.693203
 20
747.69919
 30
0.0
 11
278.693203
 21
743.69919
 31
0.0
  0
LINE
  5
391
100
AcDbEntity
  8
0
  6
CONTINUOUS
 62
     0
100
AcDbLine
 10
278.693203
 20
787.69919
 30
0.0
 11
278.693203
 21
791.69919
 31
0.0
  0
LINE
  5
392
100
AcDbEntity
  8
0
  6
CONTINUOUS
 62
     0
100
AcDbLine
 10
288.693203
 20
791.69919
 30
0.0
 11
288.693203
 21
787.69919
 31
0.0
  0
LINE
  5
393
100
AcDbEntity
  8
0
  6
CONTINUOUS
 62
     0
100
AcDbLine
 10
308.566391
 20
791.69919
 30
0.0
 11
308.566391
 21
787.69919
 31
0.0
  0
LINE
  5
394
100
AcDbEntity
  8
0
  6
CONTINUOUS
 62
     0
100
AcDbLine
 10
318.566391
 20
787.69919
 30
0.0
 11
318.566391
 21
791.69919
 31
0.0
  0
LINE
  5
395
100
AcDbEntity
  8
0
  6
CONTINUOUS
 62
     0
100
AcDbLine
 10
338.566391
 20
791.69919
 30
0.0
 11
338.566391
 21
787.69919
 31
0.0
  0
LINE
  5
396
100
AcDbEntity
  8
0
  6
CONTINUOUS
 62
     0
100
AcDbLine
 10
348.566391
 20
787.69919
 30
0.0
 11
348.566391
 21
791.69919
 31
0.0
  0
LINE
  5
397
100
AcDbEntity
  8
0
  6
CONTINUOUS
 62
     0
100
AcDbLine
 10
372.566391
 20
791.69919
 30
0.0
 11
372.566391
 21
787.69919
 31
0.0
  0
LINE
  5
398
100
AcDbEntity
  8
0
  6
CONTINUOUS
 62
     0
100
AcDbLine
 10
386.566391
 20
787.69919
 30
0.0
 11
386.566391
 21
791.69919
 31
0.0
  0
LINE
  5
399
100
AcDbEntity
  8
0
  6
CONTINUOUS
 62
     0
100
AcDbLine
 10
278.693203
 20
791.69919
 30
0.0
 11
288.693203
 21
791.69919
 31
0.0
  0
LINE
  5
39A
100
AcDbEntity
  8
0
  6
CONTINUOUS
 62
     0
100
AcDbLine
 10
318.566391
 20
791.69919
 30
0.0
 11
308.566391
 21
791.69919
 31
0.0
  0
LINE
  5
39B
100
AcDbEntity
  8
0
  6
CONTINUOUS
 62
     0
100
AcDbLine
 10
348.566391
 20
791.69919
 30
0.0
 11
338.566391
 21
791.69919
 31
0.0
  0
LINE
  5
39C
100
AcDbEntity
  8
0
  6
CONTINUOUS
 62
     0
100
AcDbLine
 10
386.566391
 20
791.69919
 30
0.0
 11
372.566391
 21
791.69919
 31
0.0
  0
LINE
  5
39D
100
AcDbEntity
  8
0
  6
CONTINUOUS
 62
     0
100
AcDbLine
 10
442.566391
 20
659.19919
 30
0.0
 11
452.566391
 21
659.19919
 31
0.0
  0
LINE
  5
39E
100
AcDbEntity
  8
0
  6
CONTINUOUS
 62
     0
100
AcDbLine
 10
462.566391
 20
659.19919
 30
0.0
 11
472.566391
 21
659.19919
 31
0.0
  0
LINE
  5
39F
100
AcDbEntity
  8
0
  6
CONTINUOUS
 62
     0
100
AcDbLine
 10
358.566391
 20
659.19919
 30
0.0
 11
348.566391
 21
659.19919
 31
0.0
  0
LINE
  5
3A0
100
AcDbEntity
  8
0
  6
CONTINUOUS
 62
     0
100
AcDbLine
 10
338.566391
 20
659.19919
 30
0.0
 11
328.566391
 21
659.19919
 31
0.0
  0
LINE
  5
3A1
100
AcDbEntity
  8
0
  6
CONTINUOUS
 62
     0
100
AcDbLine
 10
394.566391
 20
787.69919
 30
0.0
 11
394.566391
 21
614.94919
 31
0.0
  0
LINE
  5
3A2
100
AcDbEntity
  8
0
  6
CONTINUOUS
 62
     0
100
AcDbLine
 10
386.566391
 20
787.69919
 30
0.0
 11
394.566391
 21
787.69919
 31
0.0
  0
LINE
  5
3A3
100
AcDbEntity
  8
0
  6
CONTINUOUS
 62
     0
100
AcDbLine
 10
406.566391
 20
787.69919
 30
0.0
 11
406.566391
 21
614.94919
 31
0.0
  0
LINE
  5
3A4
100
AcDbEntity
  8
0
  6
CONTINUOUS
 62
     0
100
AcDbLine
 10
414.566391
 20
787.69919
 30
0.0
 11
406.566391
 21
787.69919
 31
0.0
  0
LINE
  5
3A5
100
AcDbEntity
  8
0
  6
CONTINUOUS
 62
     0
100
AcDbLine
 10
386.566391
 20
614.94919
 30
0.0
 11
394.566391
 21
614.94919
 31
0.0
  0
LINE
  5
3A6
100
AcDbEntity
  8
0
  6
CONTINUOUS
 62
     0
100
AcDbLine
 10
414.566391
 20
614.94919
 30
0.0
 11
406.566391
 21
614.94919
 31
0.0
  0
POLYLINE
  5
3A7
100
AcDbEntity
  8
0
  6
CONTINUOUS
 62
     0
100
AcDb2dPolyline
 66
     1
 10
0.0
 20
0.0
 30
0.0
 70
   129
  0
VERTEX
  5
3A8
100
AcDbEntity
  8
0
  6
CONTINUOUS
 62
     0
100
AcDbVertex
100
AcDb2dVertex
 10
119.277109
 20
690.694538
 30
0.0
  0
VERTEX
  5
3A9
100
AcDbEntity
  8
0
  6
CONTINUOUS
 62
     0
100
AcDbVertex
100
AcDb2dVertex
 10
132.90695
 20
690.694538
 30
0.0
  0
VERTEX
  5
3AA
100
AcDbEntity
  8
0
  6
CONTINUOUS
 62
     0
100
AcDbVertex
100
AcDb2dVertex
 10
132.90695
 20
690.694538
 30
0.0
  0
VERTEX
  5
3AB
100
AcDbEntity
  8
0
  6
CONTINUOUS
 62
     0
100
AcDbVertex
100
AcDb2dVertex
 10
132.90695
 20
694.694538
 30
0.0
  0
VERTEX
  5
3AC
100
AcDbEntity
  8
0
  6
CONTINUOUS
 62
     0
100
AcDbVertex
100
AcDb2dVertex
 10
132.90695
 20
694.694538
 30
0.0
  0
VERTEX
  5
3AD
100
AcDbEntity
  8
0
  6
CONTINUOUS
 62
     0
100
AcDbVertex
100
AcDb2dVertex
 10
119.277109
 20
694.694538
 30
0.0
  0
VERTEX
  5
3AE
100
AcDbEntity
  8
0
  6
CONTINUOUS
 62
     0
100
AcDbVertex
100
AcDb2dVertex
 10
119.277109
 20
694.694538
 30
0.0
  0
VERTEX
  5
3AF
100
AcDbEntity
  8
0
  6
CONTINUOUS
 62
     0
100
AcDbVertex
100
AcDb2dVertex
 10
119.277109
 20
690.694538
 30
0.0
  0
SEQEND
  5
3B0
100
AcDbEntity
  8
0
  6
CONTINUOUS
 62
     0
  0
POLYLINE
  5
3B1
100
AcDbEntity
  8
0
  6
CONTINUOUS
 62
     0
100
AcDb2dPolyline
 66
     1
 10
0.0
 20
0.0
 30
0.0
 70
   129
  0
VERTEX
  5
3B2
100
AcDbEntity
  8
0
  6
CONTINUOUS
 62
     0
100
AcDbVertex
100
AcDb2dVertex
 10
107.277109
 20
678.694538
 30
0.0
  0
VERTEX
  5
3B3
100
AcDbEntity
  8
0
  6
CONTINUOUS
 62
     0
100
AcDbVertex
100
AcDb2dVertex
 10
107.277109
 20
665.064697
 30
0.0
  0
VERTEX
  5
3B4
100
AcDbEntity
  8
0
  6
CONTINUOUS
 62
     0
100
AcDbVertex
100
AcDb2dVertex
 10
107.277109
 20
665.064697
 30
0.0
  0
VERTEX
  5
3B5
100
AcDbEntity
  8
0
  6
CONTINUOUS
 62
     0
100
AcDbVertex
100
AcDb2dVertex
 10
103.277109
 20
665.064697
 30
0.0
  0
VERTEX
  5
3B6
100
AcDbEntity
  8
0
  6
CONTINUOUS
 62
     0
100
AcDbVertex
100
AcDb2dVertex
 10
103.277109
 20
665.064697
 30
0.0
  0
VERTEX
  5
3B7
100
AcDbEntity
  8
0
  6
CONTINUOUS
 62
     0
100
AcDbVertex
100
AcDb2dVertex
 10
103.277109
 20
678.694538
 30
0.0
  0
VERTEX
  5
3B8
100
AcDbEntity
  8
0
  6
CONTINUOUS
 62
     0
100
AcDbVertex
100
AcDb2dVertex
 10
103.277109
 20
678.694538
 30
0.0
  0
VERTEX
  5
3B9
100
AcDbEntity
  8
0
  6
CONTINUOUS
 62
     0
100
AcDbVertex
100
AcDb2dVertex
 10
107.277109
 20
678.694538
 30
0.0
  0
SEQEND
  5
3BA
100
AcDbEntity
  8
0
  6
CONTINUOUS
 62
     0
  0
POLYLINE
  5
3BB
100
AcDbEntity
  8
0
  6
CONTINUOUS
 62
     0
100
AcDb2dPolyline
 66
     1
 10
0.0
 20
0.0
 30
0.0
 70
   129
  0
VERTEX
  5
3BC
100
AcDbEntity
  8
0
  6
CONTINUOUS
 62
     0
100
AcDbVertex
100
AcDb2dVertex
 10
91.277109
 20
690.694538
 30
0.0
  0
VERTEX
  5
3BD
100
AcDbEntity
  8
0
  6
CONTINUOUS
 62
     0
100
AcDbVertex
100
AcDb2dVertex
 10
77.647269
 20
690.694538
 30
0.0
  0
VERTEX
  5
3BE
100
AcDbEntity
  8
0
  6
CONTINUOUS
 62
     0
100
AcDbVertex
100
AcDb2dVertex
 10
77.647269
 20
690.694538
 30
0.0
  0
VERTEX
  5
3BF
100
AcDbEntity
  8
0
  6
CONTINUOUS
 62
     0
100
AcDbVertex
100
AcDb2dVertex
 10
77.647269
 20
694.694538
 30
0.0
  0
VERTEX
  5
3C0
100
AcDbEntity
  8
0
  6
CONTINUOUS
 62
     0
100
AcDbVertex
100
AcDb2dVertex
 10
77.647269
 20
694.694538
 30
0.0
  0
VERTEX
  5
3C1
100
AcDbEntity
  8
0
  6
CONTINUOUS
 62
     0
100
AcDbVertex
100
AcDb2dVertex
 10
91.277109
 20
694.694538
 30
0.0
  0
VERTEX
  5
3C2
100
AcDbEntity
  8
0
  6
CONTINUOUS
 62
     0
100
AcDbVertex
100
AcDb2dVertex
 10
91.277109
 20
694.694538
 30
0.0
  0
VERTEX
  5
3C3
100
AcDbEntity
  8
0
  6
CONTINUOUS
 62
     0
100
AcDbVertex
100
AcDb2dVertex
 10
91.277109
 20
690.694538
 30
0.0
  0
SEQEND
  5
3C4
100
AcDbEntity
  8
0
  6
CONTINUOUS
 62
     0
  0
POLYLINE
  5
3C5
100
AcDbEntity
  8
0
  6
CONTINUOUS
 62
     0
100
AcDb2dPolyline
 66
     1
 10
0.0
 20
0.0
 30
0.0
 70
   129
  0
VERTEX
  5
3C6
100
AcDbEntity
  8
0
  6
CONTINUOUS
 62
     0
100
AcDbVertex
100
AcDb2dVertex
 10
107.277109
 20
706.694538
 30
0.0
  0
VERTEX
  5
3C7
100
AcDbEntity
  8
0
  6
CONTINUOUS
 62
     0
100
AcDbVertex
100
AcDb2dVertex
 10
107.277109
 20
720.324378
 30
0.0
  0
VERTEX
  5
3C8
100
AcDbEntity
  8
0
  6
CONTINUOUS
 62
     0
100
AcDbVertex
100
AcDb2dVertex
 10
107.277109
 20
720.324378
 30
0.0
  0
VERTEX
  5
3C9
100
AcDbEntity
  8
0
  6
CONTINUOUS
 62
     0
100
AcDbVertex
100
AcDb2dVertex
 10
103.277109
 20
720.324378
 30
0.0
  0
VERTEX
  5
3CA
100
AcDbEntity
  8
0
  6
CONTINUOUS
 62
     0
100
AcDbVertex
100
AcDb2dVertex
 10
103.277109
 20
720.324378
 30
0.0
  0
VERTEX
  5
3CB
100
AcDbEntity
  8
0
  6
CONTINUOUS
 62
     0
100
AcDbVertex
100
AcDb2dVertex
 10
103.277109
 20
706.694538
 30
0.0
  0
VERTEX
  5
3CC
100
AcDbEntity
  8
0
  6
CONTINUOUS
 62
     0
100
AcDbVertex
100
AcDb2dVertex
 10
103.277109
 20
706.694538
 30
0.0
  0
VERTEX
  5
3CD
100
AcDbEntity
  8
0
  6
CONTINUOUS
 62
     0
100
AcDbVertex
100
AcDb2dVertex
 10
107.277109
 20
706.694538
 30
0.0
  0
SEQEND
  5
3CE
100
AcDbEntity
  8
0
  6
CONTINUOUS
 62
     0
  0
POLYLINE
  5
3CF
100
AcDbEntity
  8
0
  6
CONTINUOUS
 62
     0
100
AcDb2dPolyline
 66
     1
 10
0.0
 20
0.0
 30
0.0
 70
   129
  0
VERTEX
  5
3D0
100
AcDbEntity
  8
0
  6
CONTINUOUS
 62
     0
100
AcDbVertex
100
AcDb2dVertex
 10
116.590818
 20
701.179819
 30
0.0
  0
VERTEX
  5
3D1
100
AcDbEntity
  8
0
  6
CONTINUOUS
 62
     0
100
AcDbVertex
100
AcDb2dVertex
 10
126.22857
 20
710.817572
 30
0.0
  0
VERTEX
  5
3D2
100
AcDbEntity
  8
0
  6
CONTINUOUS
 62
     0
100
AcDbVertex
100
AcDb2dVertex
 10
126.22857
 20
710.817572
 30
0.0
  0
VERTEX
  5
3D3
100
AcDbEntity
  8
0
  6
CONTINUOUS
 62
     0
100
AcDbVertex
100
AcDb2dVertex
 10
123.400143
 20
713.645999
 30
0.0
  0
VERTEX
  5
3D4
100
AcDbEntity
  8
0
  6
CONTINUOUS
 62
     0
100
AcDbVertex
100
AcDb2dVertex
 10
123.400143
 20
713.645999
 30
0.0
  0
VERTEX
  5
3D5
100
AcDbEntity
  8
0
  6
CONTINUOUS
 62
     0
100
AcDbVertex
100
AcDb2dVertex
 10
113.762391
 20
704.008246
 30
0.0
  0
VERTEX
  5
3D6
100
AcDbEntity
  8
0
  6
CONTINUOUS
 62
     0
100
AcDbVertex
100
AcDb2dVertex
 10
113.762391
 20
704.008246
 30
0.0
  0
VERTEX
  5
3D7
100
AcDbEntity
  8
0
  6
CONTINUOUS
 62
     0
100
AcDbVertex
100
AcDb2dVertex
 10
116.590818
 20
701.179819
 30
0.0
  0
SEQEND
  5
3D8
100
AcDbEntity
  8
0
  6
CONTINUOUS
 62
     0
  0
POLYLINE
  5
3D9
100
AcDbEntity
  8
0
  6
CONTINUOUS
 62
     0
100
AcDb2dPolyline
 66
     1
 10
0.0
 20
0.0
 30
0.0
 70
   129
  0
VERTEX
  5
3DA
100
AcDbEntity
  8
0
  6
CONTINUOUS
 62
     0
100
AcDbVertex
100
AcDb2dVertex
 10
96.791828
 20
704.008246
 30
0.0
  0
VERTEX
  5
3DB
100
AcDbEntity
  8
0
  6
CONTINUOUS
 62
     0
100
AcDbVertex
100
AcDb2dVertex
 10
87.154075
 20
713.645999
 30
0.0
  0
VERTEX
  5
3DC
100
AcDbEntity
  8
0
  6
CONTINUOUS
 62
     0
100
AcDbVertex
100
AcDb2dVertex
 10
87.154075
 20
713.645999
 30
0.0
  0
VERTEX
  5
3DD
100
AcDbEntity
  8
0
  6
CONTINUOUS
 62
     0
100
AcDbVertex
100
AcDb2dVertex
 10
84.325648
 20
710.817572
 30
0.0
  0
VERTEX
  5
3DE
100
AcDbEntity
  8
0
  6
CONTINUOUS
 62
     0
100
AcDbVertex
100
AcDb2dVertex
 10
84.325648
 20
710.817572
 30
0.0
  0
VERTEX
  5
3DF
100
AcDbEntity
  8
0
  6
CONTINUOUS
 62
     0
100
AcDbVertex
100
AcDb2dVertex
 10
93.963401
 20
701.179819
 30
0.0
  0
VERTEX
  5
3E0
100
AcDbEntity
  8
0
  6
CONTINUOUS
 62
     0
100
AcDbVertex
100
AcDb2dVertex
 10
93.963401
 20
701.179819
 30
0.0
  0
VERTEX
  5
3E1
100
AcDbEntity
  8
0
  6
CONTINUOUS
 62
     0
100
AcDbVertex
100
AcDb2dVertex
 10
96.791828
 20
704.008246
 30
0.0
  0
SEQEND
  5
3E2
100
AcDbEntity
  8
0
  6
CONTINUOUS
 62
     0
  0
POLYLINE
  5
3E3
100
AcDbEntity
  8
0
  6
CONTINUOUS
 62
     0
100
AcDb2dPolyline
 66
     1
 10
0.0
 20
0.0
 30
0.0
 70
   129
  0
VERTEX
  5
3E4
100
AcDbEntity
  8
0
  6
CONTINUOUS
 62
     0
100
AcDbVertex
100
AcDb2dVertex
 10
93.963401
 20
684.209256
 30
0.0
  0
VERTEX
  5
3E5
100
AcDbEntity
  8
0
  6
CONTINUOUS
 62
     0
100
AcDbVertex
100
AcDb2dVertex
 10
84.325648
 20
674.571504
 30
0.0
  0
VERTEX
  5
3E6
100
AcDbEntity
  8
0
  6
CONTINUOUS
 62
     0
100
AcDbVertex
100
AcDb2dVertex
 10
84.325648
 20
674.571504
 30
0.0
  0
VERTEX
  5
3E7
100
AcDbEntity
  8
0
  6
CONTINUOUS
 62
     0
100
AcDbVertex
100
AcDb2dVertex
 10
87.154075
 20
671.743077
 30
0.0
  0
VERTEX
  5
3E8
100
AcDbEntity
  8
0
  6
CONTINUOUS
 62
     0
100
AcDbVertex
100
AcDb2dVertex
 10
87.154075
 20
671.743077
 30
0.0
  0
VERTEX
  5
3E9
100
AcDbEntity
  8
0
  6
CONTINUOUS
 62
     0
100
AcDbVertex
100
AcDb2dVertex
 10
96.791828
 20
681.380829
 30
0.0
  0
VERTEX
  5
3EA
100
AcDbEntity
  8
0
  6
CONTINUOUS
 62
     0
100
AcDbVertex
100
AcDb2dVertex
 10
96.791828
 20
681.380829
 30
0.0
  0
VERTEX
  5
3EB
100
AcDbEntity
  8
0
  6
CONTINUOUS
 62
     0
100
AcDbVertex
100
AcDb2dVertex
 10
93.963401
 20
684.209256
 30
0.0
  0
SEQEND
  5
3EC
100
AcDbEntity
  8
0
  6
CONTINUOUS
 62
     0
  0
POLYLINE
  5
3ED
100
AcDbEntity
  8
0
  6
CONTINUOUS
 62
     0
100
AcDb2dPolyline
 66
     1
 10
0.0
 20
0.0
 30
0.0
 70
   129
  0
VERTEX
  5
3EE
100
AcDbEntity
  8
0
  6
CONTINUOUS
 62
     0
100
AcDbVertex
100
AcDb2dVertex
 10
113.762391
 20
681.380829
 30
0.0
  0
VERTEX
  5
3EF
100
AcDbEntity
  8
0
  6
CONTINUOUS
 62
     0
100
AcDbVertex
100
AcDb2dVertex
 10
123.400143
 20
671.743077
 30
0.0
  0
VERTEX
  5
3F0
100
AcDbEntity
  8
0
  6
CONTINUOUS
 62
     0
100
AcDbVertex
100
AcDb2dVertex
 10
123.400143
 20
671.743077
 30
0.0
  0
VERTEX
  5
3F1
100
AcDbEntity
  8
0
  6
CONTINUOUS
 62
     0
100
AcDbVertex
100
AcDb2dVertex
 10
126.22857
 20
674.571504
 30
0.0
  0
VERTEX
  5
3F2
100
AcDbEntity
  8
0
  6
CONTINUOUS
 62
     0
100
AcDbVertex
100
AcDb2dVertex
 10
126.22857
 20
674.571504
 30
0.0
  0
VERTEX
  5
3F3
100
AcDbEntity
  8
0
  6
CONTINUOUS
 62
     0
100
AcDbVertex
100
AcDb2dVertex
 10
116.590818
 20
684.209256
 30
0.0
  0
VERTEX
  5
3F4
100
AcDbEntity
  8
0
  6
CONTINUOUS
 62
     0
100
AcDbVertex
100
AcDb2dVertex
 10
116.590818
 20
684.209256
 30
0.0
  0
VERTEX
  5
3F5
100
AcDbEntity
  8
0
  6
CONTINUOUS
 62
     0
100
AcDbVertex
100
AcDb2dVertex
 10
113.762391
 20
681.380829
 30
0.0
  0
SEQEND
  5
3F6
100
AcDbEntity
  8
0
  6
CONTINUOUS
 62
     0
  0
CIRCLE
  5
3F7
100
AcDbEntity
  8
0
  6
CONTINUOUS
 62
     0
100
AcDbCircle
 10
162.894449
 20
705.392655
 30
0.0
 40
13.0
  0
CIRCLE
  5
3F8
100
AcDbEntity
  8
0
  6
CONTINUOUS
 62
     0
100
AcDbCircle
 10
148.82613
 20
732.5001
 30
0.0
 40
13.0
  0
CIRCLE
  5
3F9
100
AcDbEntity
  8
0
  6
CONTINUOUS
 62
     0
100
AcDbCircle
 10
123.088886
 20
748.941676
 30
0.0
 40
13.0
  0
CIRCLE
  5
3FA
100
AcDbEntity
  8
0
  6
CONTINUOUS
 62
     0
100
AcDbCircle
 10
92.578992
 20
750.311877
 30
0.0
 40
13.0
  0
CIRCLE
  5
3FB
100
AcDbEntity
  8
0
  6
CONTINUOUS
 62
     0
100
AcDbCircle
 10
65.471547
 20
736.243559
 30
0.0
 40
13.0
  0
CIRCLE
  5
3FC
100
AcDbEntity
  8
0
  6
CONTINUOUS
 62
     0
100
AcDbCircle
 10
49.029971
 20
710.506315
 30
0.0
 40
13.0
  0
CIRCLE
  5
3FD
100
AcDbEntity
  8
0
  6
CONTINUOUS
 62
     0
100
AcDbCircle
 10
47.65977
 20
679.99642
 30
0.0
 40
13.0
  0
CIRCLE
  5
3FE
100
AcDbEntity
  8
0
  6
CONTINUOUS
 62
     0
100
AcDbCircle
 10
61.728088
 20
652.888975
 30
0.0
 40
13.0
  0
CIRCLE
  5
3FF
100
AcDbEntity
  8
0
  6
CONTINUOUS
 62
     0
100
AcDbCircle
 10
87.465332
 20
636.447399
 30
0.0
 40
13.0
  0
CIRCLE
  5
400
100
AcDbEntity
  8
0
  6
CONTINUOUS
 62
     0
100
AcDbCircle
 10
117.975227
 20
635.077198
 30
0.0
 40
13.0
  0
CIRCLE
  5
401
100
AcDbEntity
  8
0
  6
CONTINUOUS
 62
     0
100
AcDbCircle
 10
145.082671
 20
649.145517
 30
0.0
 40
13.0
  0
CIRCLE
  5
402
100
AcDbEntity
  8
0
  6
CONTINUOUS
 62
     0
100
AcDbCircle
 10
161.524248
 20
674.88276
 30
0.0
 40
13.0
  0
CIRCLE
  5
403
100
AcDbEntity
  8
0
  6
CONTINUOUS
 62
     0
100
AcDbCircle
 10
105.277109
 20
692.694538
 30
0.0
 40
76.0
  0
ENDSEC
  0
SECTION
  2
OBJECTS
  0
DICTIONARY
  5
19
100
AcDbDictionary
  3
ACAD_GROUP
350
1A
  3
ACAD_MLINESTYLE
350
1B
  0
DICTIONARY
  5
1A
102
{ACAD_REACTORS
330
19
102
}
100
AcDbDictionary
  0
DICTIONARY
  5
1B
102
{ACAD_REACTORS
330
19
102
}
100
AcDbDictionary
  3
STANDARD
350
1C
  0
MLINESTYLE
  5
1C
102
{ACAD_REACTORS
330
1B
102
}
100
AcDbMlineStyle
  2
STANDARD
 70
     0
  3

 62
     0
 51
90.0
 52
90.0
 71
     2
 49
0.5
 62
   256
  6
BYLAYER
 49
-0.5
 62
   256
  6
BYLAYER
  0
ENDSEC
  0
EOF
