999
dxflib 3.12.2.0
  0
SECTION
  2
HEADER
  9
$ACADVER
  1
AC1015
  9
$HANDSEED
  5
FFFF
  9
$ANGBASE
 50
0.0
  9
$ANGDIR
 70
0
  9
$ATTMODE
 70
1
  9
$AUNITS
 70
0
  9
$AUPREC
 70
0
  9
$CECOLOR
 62
256
  9
$CHAMFERA
 40
0.0
  9
$CHAMFERB
 40
0.0
  9
$DIMADEC
 70
0
  9
$DIMALT
 70
0
  9
$DIMALTD
 70
2
  9
$DIMALTF
 40
25.399999999999999
  9
$DIMAPOST
  1

  9
$DIMASZ
 40
0.18
  9
$DIMAUNIT
 70
0
  9
$DIMAZIN
 70
0
  9
$DIMBLK
  1

  9
$DIMBLK1
  1

  9
$DIMBLK2
  1

  9
$DIMCEN
 40
0.09
  9
$DIMCLRD
 70
0
  9
$DIMCLRE
 70
0
  9
$DIMCLRT
 70
0
  9
$DIMDEC
 70
4
  9
$DIMDLE
 40
0.0
  9
$DIMDLI
 40
0.38
  9
$DIMEXE
 40
0.18
  9
$DIMEXO
 40
0.0625
  9
$DIMGAP
 40
0.09
  9
$DIMLFAC
 40
1.0
  9
$DIMLIM
 70
0
  9
$DIMLUNIT
 70
2
  9
$DIMPOST
  1

  9
$DIMRND
 40
0.0
  9
$DIMSAH
 70
0
  9
$DIMSCALE
 40
1.0
  9
$DIMSE1
 70
0
  9
$DIMSE2
 70
0
  9
$DIMSOXD
 70
0
  9
$DIMTAD
 70
0
  9
$DIMTFAC
 40
1.0
  9
$DIMTIH
 70
1
  9
$DIMTIX
 70
0
  9
$DIMTM
 40
0.0
  9
$DIMTOFL
 70
0
  9
$DIMTOH
 70
1
  9
$DIMTOL
 70
0
  9
$DIMTP
 40
0.0
  9
$DIMTSZ
 40
0.0
  9
$DIMTVP
 40
0.0
  9
$DIMTXT
 40
0.18
  9
$DIMZIN
 70
0
  9
$DWGCODEPAGE
  3
ANSI_1252
  9
$ELEVATION
 40
0.0
  9
$EXTMAX
 10
179.0
 20
-9.7000000000000011
 30
0.0
  9
$EXTMIN
 10
-157.66497152125831
 20
-203.2066492436405
 30
0.0
  9
$FILLETRAD
 40
0.5
  9
$FILLMODE
 70
1
  9
$INSBASE
 10
0.0
 20
0.0
 30
0.0
  9
$INSUNITS
 70
0
  9
$LIMCHECK
 70
0
  9
$LIMMAX
 10
12.0
 20
9.0
  9
$LIMMIN
 10
0.0
 20
0.0
  9
$LTSCALE
 40
1.0
  9
$LUNITS
 70
2
  9
$LUPREC
 70
3
  9
$MAXACTVP
 70
64
  9
$MEASUREMENT
 70
1
  9
$MIRRTEXT
 70
1
  9
$ORTHOMODE
 70
0
  9
$PDMODE
 70
0
  9
$PDSIZE
 40
0
  9
$PELEVATION
 40
0.0
  9
$PEXTMAX
 10
-100000000000000000000.0
 20
-100000000000000000000.0
 30
-100000000000000000000.0
  9
$PEXTMIN
 10
100000000000000000000.0
 20
100000000000000000000.0
 30
100000000000000000000.0
  9
$PLIMCHECK
 70
0
  9
$PLIMMAX
 10
12.0
 20
9.0
  9
$PLIMMIN
 10
0.0
 20
0.0
  9
$PLINEGEN
 70
0
  9
$PLINEWID
 40
0.0
  9
$PSLTSCALE
 70
1
  9
$PUCSNAME
  2

  9
$PUCSORG
 10
0.0
 20
0.0
 30
0.0
  9
$PUCSXDIR
 10
1.0
 20
0.0
 30
0.0
  9
$PUCSYDIR
 10
0.0
 20
1.0
 30
0.0
  9
$QTEXTMODE
 70
0
  9
$REGENMODE
 70
1
  9
$SHADEDGE
 70
3
  9
$SHADEDIF
 70
70
  9
$SKETCHINC
 40
0.1
  9
$SKPOLY
 70
0
  9
$SPLFRAME
 70
0
  9
$SPLINESEGS
 70
8
  9
$SPLINETYPE
 70
6
  9
$SURFTAB1
 70
6
  9
$SURFTAB2
 70
6
  9
$SURFTYPE
 70
6
  9
$SURFU
 70
6
  9
$SURFV
 70
6
  9
$TEXTSIZE
 40
0.2
  9
$TEXTSTYLE
  7
STANDARD
  9
$THICKNESS
 40
0.0
  9
$TILEMODE
 70
1
  9
$TRACEWID
 40
0.05
  9
$UCSNAME
  2

  9
$UCSORG
 10
0.0
 20
0.0
 30
0.0
  9
$UCSXDIR
 10
1.0
 20
0.0
 30
0.0
  9
$UCSYDIR
 10
0.0
 20
1.0
 30
0.0
  9
$UNITMODE
 70
0
  9
$USERI1
 70
0
  9
$USERI2
 70
0
  9
$USERI3
 70
0
  9
$USERI4
 70
0
  9
$USERI5
 70
0
  9
$USERR1
 40
0.0
  9
$USERR2
 40
0.0
  9
$USERR3
 40
0.0
  9
$USERR4
 40
0.0
  9
$USERR5
 40
0.0
  9
$USRTIMER
 70
1
  9
$VISRETAIN
 70
1
  0
ENDSEC
  0
SECTION
  2
TABLES
  0
TABLE
  2
VPORT
  5
8
100
AcDbSymbolTable
 70
1
  0
VPORT
  5
30
100
AcDbSymbolTableRecord
100
AcDbViewportTableRecord
  2
*Active
 70
0
 10
0.0
 20
0.0
 11
1.0
 21
1.0
 12
286.30555555555549
 22
148.5
 13
0.0
 23
0.0
 14
10.0
 24
10.0
 15
10.0
 25
10.0
 16
0.0
 26
0.0
 36
1.0
 17
0.0
 27
0.0
 37
0.0
 40
297.0
 41
1.92798353909465
 42
50.0
 43
0.0
 44
0.0
 50
0.0
 51
0.0
 71
0
 72
100
 73
1
 74
3
 75
1
 76
1
 77
0
 78
0
281
0
 65
1
110
0.0
120
0.0
130
0.0
111
1.0
121
0.0
131
0.0
112
0.0
122
1.0
132
0.0
 79
0
146
0.0
  0
ENDTAB
  0
TABLE
  2
LTYPE
  5
5
100
AcDbSymbolTable
 70
50
  0
LTYPE
  5
16
100
AcDbSymbolTableRecord
100
AcDbLinetypeTableRecord
  2
CONTINUOUS
 70
0
  3
Solid line
 72
65
 73
0
 40
0.0
  0
LTYPE
  5
31
100
AcDbSymbolTableRecord
100
AcDbLinetypeTableRecord
  2
PHANTOMX2
 70
0
  3
Phantom (2x) ____________    ____    ____   _
 72
65
 73
6
 40
127.00000000000001
 49
63.5
 74
0
 49
-12.699999999999999
 74
0
 49
12.699999999999999
 74
0
 49
-12.699999999999999
 74
0
 49
12.699999999999999
 74
0
 49
-12.699999999999999
 74
0
  0
LTYPE
  5
32
100
AcDbSymbolTableRecord
100
AcDbLinetypeTableRecord
  2
CENTERX2
 70
0
  3
Center (2x) ________  __  ________  __  _____
 72
65
 73
4
 40
101.60000000000001
 49
63.5
 74
0
 49
-12.699999999999999
 74
0
 49
12.699999999999999
 74
0
 49
-12.699999999999999
 74
0
  0
LTYPE
  5
33
100
AcDbSymbolTableRecord
100
AcDbLinetypeTableRecord
  2
FENCELINE1
 70
0
  3
Fenceline circle ----0-----0----0-----0----0-----0--
 72
65
 73
4
 40
36.829999999999998
 49
6.3499999999999996
 74
0
 49
-2.54
 74
0
 49
-2.54
 74
0
 49
25.399999999999999
 74
0
  0
LTYPE
  5
34
100
AcDbSymbolTableRecord
100
AcDbLinetypeTableRecord
  2
DOT
 70
0
  3
Dot . . . . . . . . . . . . . . . . . . . . . . . .
 72
65
 73
2
 40
6.3499999999999996
 49
0.0
 74
0
 49
-6.3499999999999996
 74
0
  0
LTYPE
  5
35
100
AcDbSymbolTableRecord
100
AcDbLinetypeTableRecord
  2
DOT2
 70
0
  3
Dot (.5x) ........................................
 72
65
 73
2
 40
3.1749999999999998
 49
0.0
 74
0
 49
-3.1749999999999998
 74
0
  0
LTYPE
  5
36
100
AcDbSymbolTableRecord
100
AcDbLinetypeTableRecord
  2
ACAD_ISO07W100
 70
0
  3
ISO dot . . . . . . . . . . . . . . . . . . . . 
 72
65
 73
2
 40
3.0
 49
0.0
 74
0
 49
-3.0
 74
0
  0
LTYPE
  5
37
100
AcDbSymbolTableRecord
100
AcDbLinetypeTableRecord
  2
DASHEDX2
 70
0
  3
Dashed (2x) ____  ____  ____  ____  ____  ___
 72
65
 73
2
 40
38.099999999999994
 49
25.399999999999999
 74
0
 49
-12.699999999999999
 74
0
  0
LTYPE
  5
38
100
AcDbSymbolTableRecord
100
AcDbLinetypeTableRecord
  2
ACAD_ISO09W100
 70
0
  3
ISO long-dash double-short-dash ____ __ __ ____
 72
65
 73
6
 40
45.0
 49
24.0
 74
0
 49
-3.0
 74
0
 49
6.0
 74
0
 49
-3.0
 74
0
 49
6.0
 74
0
 49
-3.0
 74
0
  0
LTYPE
  5
39
100
AcDbSymbolTableRecord
100
AcDbLinetypeTableRecord
  2
ACAD_ISO06W100
 70
0
  3
ISO long-dash triple-dot ____ ... ____ ... ____
 72
65
 73
8
 40
36.0
 49
24.0
 74
0
 49
-3.0
 74
0
 49
0.0
 74
0
 49
-3.0
 74
0
 49
0.0
 74
0
 49
-3.0
 74
0
 49
0.0
 74
0
 49
-3.0
 74
0
  0
LTYPE
  5
3A
100
AcDbSymbolTableRecord
100
AcDbLinetypeTableRecord
  2
DIVIDE2
 70
0
  3
Divide (.5x) __..__..__..__..__..__..__..__.._
 72
65
 73
6
 40
15.875
 49
6.3499999999999996
 74
0
 49
-3.1749999999999998
 74
0
 49
0.0
 74
0
 49
-3.1749999999999998
 74
0
 49
0.0
 74
0
 49
-3.1749999999999998
 74
0
  0
LTYPE
  5
3B
100
AcDbSymbolTableRecord
100
AcDbLinetypeTableRecord
  2
HIDDENX2
 70
0
  3
Hidden (2x) ____ ____ ____ ____ ____ ____ ____ 
 72
65
 73
2
 40
19.049999999999997
 49
12.699999999999999
 74
0
 49
-6.3499999999999996
 74
0
  0
LTYPE
  5
15
100
AcDbSymbolTableRecord
100
AcDbLinetypeTableRecord
  2
BYLAYER
 70
0
  3

 72
65
 73
0
 40
0.0
  0
LTYPE
  5
3C
100
AcDbSymbolTableRecord
100
AcDbLinetypeTableRecord
  2
ACAD_ISO02W100
 70
0
  3
ISO dash __ __ __ __ __ __ __ __ __ __ __ __ __
 72
65
 73
2
 40
15.0
 49
12.0
 74
0
 49
-3.0
 74
0
  0
LTYPE
  5
3D
100
AcDbSymbolTableRecord
100
AcDbLinetypeTableRecord
  2
DASHDOT2
 70
0
  3
Dash dot (.5x) _._._._._._._._._._._._._._._.
 72
65
 73
4
 40
12.699999999999999
 49
6.3499999999999996
 74
0
 49
-3.1749999999999998
 74
0
 49
0.0
 74
0
 49
-3.1749999999999998
 74
0
  0
LTYPE
  5
3E
100
AcDbSymbolTableRecord
100
AcDbLinetypeTableRecord
  2
BATTING
 70
0
  3
Batting SSSSSSSSSSSSSSSSSSSSSSSSSSSSSSSSSSSSSSSSSSSSSSS
 72
65
 73
4
 40
10.16254
 49
0.00254
 74
0
 49
-2.54
 74
0
 49
-5.0800000000000001
 74
0
 49
-2.54
 74
0
  0
LTYPE
  5
3F
100
AcDbSymbolTableRecord
100
AcDbLinetypeTableRecord
  2
CENTER2
 70
0
  3
Center (.5x) ___ _ ___ _ ___ _ ___ _ ___ _ ___
 72
65
 73
4
 40
28.575000000000003
 49
19.050000000000001
 74
0
 49
-3.1749999999999998
 74
0
 49
3.1749999999999998
 74
0
 49
-3.1749999999999998
 74
0
  0
LTYPE
  5
40
100
AcDbSymbolTableRecord
100
AcDbLinetypeTableRecord
  2
ACAD_ISO05W100
 70
0
  3
ISO long-dash double-dot ____ .. ____ .. ____ . 
 72
65
 73
6
 40
33.0
 49
24.0
 74
0
 49
-3.0
 74
0
 49
0.0
 74
0
 49
-3.0
 74
0
 49
0.0
 74
0
 49
-3.0
 74
0
  0
LTYPE
  5
41
100
AcDbSymbolTableRecord
100
AcDbLinetypeTableRecord
  2
DIVIDE
 70
0
  3
Divide ____ . . ____ . . ____ . . ____ . . ____
 72
65
 73
6
 40
31.75
 49
12.699999999999999
 74
0
 49
-6.3499999999999996
 74
0
 49
0.0
 74
0
 49
-6.3499999999999996
 74
0
 49
0.0
 74
0
 49
-6.3499999999999996
 74
0
  0
LTYPE
  5
42
100
AcDbSymbolTableRecord
100
AcDbLinetypeTableRecord
  2
HIDDEN
 70
0
  3
Hidden __ __ __ __ __ __ __ __ __ __ __ __ __ __
 72
65
 73
2
 40
9.5249999999999986
 49
6.3499999999999996
 74
0
 49
-3.1749999999999998
 74
0
  0
LTYPE
  5
43
100
AcDbSymbolTableRecord
100
AcDbLinetypeTableRecord
  2
ACAD_ISO11W100
 70
0
  3
ISO double-dash dot __ __ . __ __ . __ __ . __ _
 72
65
 73
6
 40
33.0
 49
12.0
 74
0
 49
-3.0
 74
0
 49
12.0
 74
0
 49
-3.0
 74
0
 49
0.0
 74
0
 49
-3.0
 74
0
  0
LTYPE
  5
44
100
AcDbSymbolTableRecord
100
AcDbLinetypeTableRecord
  2
ACAD_ISO13W100
 70
0
  3
ISO double-dash double-dot __ __ . . __ __ . . _
 72
65
 73
8
 40
36.0
 49
12.0
 74
0
 49
-3.0
 74
0
 49
12.0
 74
0
 49
-3.0
 74
0
 49
0.0
 74
0
 49
-3.0
 74
0
 49
0.0
 74
0
 49
-3.0
 74
0
  0
LTYPE
  5
45
100
AcDbSymbolTableRecord
100
AcDbLinetypeTableRecord
  2
ACAD_ISO04W100
 70
0
  3
ISO long-dash dot ____ . ____ . ____ . ____ . _
 72
65
 73
4
 40
30.0
 49
24.0
 74
0
 49
-3.0
 74
0
 49
0.0
 74
0
 49
-3.0
 74
0
  0
LTYPE
  5
46
100
AcDbSymbolTableRecord
100
AcDbLinetypeTableRecord
  2
ACAD_ISO10W100
 70
0
  3
ISO dash dot __ . __ . __ . __ . __ . __ . __ . 
 72
65
 73
4
 40
18.0
 49
12.0
 74
0
 49
-3.0
 74
0
 49
0.0
 74
0
 49
-3.0
 74
0
  0
LTYPE
  5
47
100
AcDbSymbolTableRecord
100
AcDbLinetypeTableRecord
  2
ACAD_ISO08W100
 70
0
  3
ISO long-dash short-dash ____ __ ____ __ ____ _
 72
65
 73
4
 40
36.0
 49
24.0
 74
0
 49
-3.0
 74
0
 49
6.0
 74
0
 49
-3.0
 74
0
  0
LTYPE
  5
48
100
AcDbSymbolTableRecord
100
AcDbLinetypeTableRecord
  2
DASHED
 70
0
  3
Dashed __ __ __ __ __ __ __ __ __ __ __ __ __ _
 72
65
 73
2
 40
19.049999999999997
 49
12.699999999999999
 74
0
 49
-6.3499999999999996
 74
0
  0
LTYPE
  5
49
100
AcDbSymbolTableRecord
100
AcDbLinetypeTableRecord
  2
GAS_LINE
 70
0
  3
Gas line ----GAS----GAS----GAS----GAS----GAS----GAS--
 72
65
 73
3
 40
24.130000000000003
 49
12.699999999999999
 74
0
 49
-5.0800000000000001
 74
0
 49
-6.3499999999999996
 74
0
  0
LTYPE
  5
4A
100
AcDbSymbolTableRecord
100
AcDbLinetypeTableRecord
  2
PHANTOM
 70
0
  3
Phantom ______  __  __  ______  __  __  ______ 
 72
65
 73
6
 40
63.500000000000007
 49
31.75
 74
0
 49
-6.3499999999999996
 74
0
 49
6.3499999999999996
 74
0
 49
-6.3499999999999996
 74
0
 49
6.3499999999999996
 74
0
 49
-6.3499999999999996
 74
0
  0
LTYPE
  5
4B
100
AcDbSymbolTableRecord
100
AcDbLinetypeTableRecord
  2
ACAD_ISO12W100
 70
0
  3
ISO dash double-dot __ . . __ . . __ . . __ . . 
 72
65
 73
6
 40
21.0
 49
12.0
 74
0
 49
-3.0
 74
0
 49
0.0
 74
0
 49
-3.0
 74
0
 49
0.0
 74
0
 49
-3.0
 74
0
  0
LTYPE
  5
4C
100
AcDbSymbolTableRecord
100
AcDbLinetypeTableRecord
  2
DOTX2
 70
0
  3
Dot (2x) .  .  .  .  .  .  .  .  .  .  .  .  .  .
 72
65
 73
2
 40
12.699999999999999
 49
0.0
 74
0
 49
-12.699999999999999
 74
0
  0
LTYPE
  5
4D
100
AcDbSymbolTableRecord
100
AcDbLinetypeTableRecord
  2
DASHDOTX2
 70
0
  3
Dash dot (2x) ____  .  ____  .  ____  .  ___
 72
65
 73
4
 40
50.799999999999997
 49
25.399999999999999
 74
0
 49
-12.699999999999999
 74
0
 49
0.0
 74
0
 49
-12.699999999999999
 74
0
  0
LTYPE
  5
4E
100
AcDbSymbolTableRecord
100
AcDbLinetypeTableRecord
  2
HOT_WATER_SUPPLY
 70
0
  3
Hot water supply ---- HW ---- HW ---- HW ----
 72
65
 73
3
 40
22.859999999999999
 49
12.699999999999999
 74
0
 49
-5.0800000000000001
 74
0
 49
-5.0800000000000001
 74
0
  0
LTYPE
  5
4F
100
AcDbSymbolTableRecord
100
AcDbLinetypeTableRecord
  2
BORDER2
 70
0
  3
Border (.5x) __.__.__.__.__.__.__.__.__.__.__.
 72
65
 73
6
 40
22.224999999999998
 49
6.3499999999999996
 74
0
 49
-3.1749999999999998
 74
0
 49
6.3499999999999996
 74
0
 49
-3.1749999999999998
 74
0
 49
0.0
 74
0
 49
-3.1749999999999998
 74
0
  0
LTYPE
  5
50
100
AcDbSymbolTableRecord
100
AcDbLinetypeTableRecord
  2
HIDDEN2
 70
0
  3
Hidden (.5x) _ _ _ _ _ _ _ _ _ _ _ _ _ _ _ _ _ 
 72
65
 73
2
 40
4.7624999999999993
 49
3.1749999999999998
 74
0
 49
-1.5874999999999999
 74
0
  0
LTYPE
  5
51
100
AcDbSymbolTableRecord
100
AcDbLinetypeTableRecord
  2
CENTER
 70
0
  3
Center ____ _ ____ _ ____ _ ____ _ ____ _ ____
 72
65
 73
4
 40
50.800000000000004
 49
31.75
 74
0
 49
-6.3499999999999996
 74
0
 49
6.3499999999999996
 74
0
 49
-6.3499999999999996
 74
0
  0
LTYPE
  5
52
100
AcDbSymbolTableRecord
100
AcDbLinetypeTableRecord
  2
TRACKS
 70
0
  3
Tracks -|-|-|-|-|-|-|-|-|-|-|-|-|-|-|-|-|-|-|-|-|-|-|-|-
 72
65
 73
2
 40
7.6200000000000001
 49
3.8100000000000001
 74
0
 49
3.8100000000000001
 74
0
  0
LTYPE
  5
53
100
AcDbSymbolTableRecord
100
AcDbLinetypeTableRecord
  2
ACAD_ISO03W100
 70
0
  3
ISO dash space __    __    __    __    __    __
 72
65
 73
2
 40
30.0
 49
12.0
 74
0
 49
-18.0
 74
0
  0
LTYPE
  5
54
100
AcDbSymbolTableRecord
100
AcDbLinetypeTableRecord
  2
DRAINAGE
 70
0
  3
Drainage ---->---->---->----
 72
65
 73
2
 40
10.16
 49
5.0800000000000001
 74
0
 49
5.0800000000000001
 74
0
  0
LTYPE
  5
55
100
AcDbSymbolTableRecord
100
AcDbLinetypeTableRecord
  2
DASHDOT
 70
0
  3
Dash dot __ . __ . __ . __ . __ . __ . __ . __
 72
65
 73
4
 40
25.399999999999999
 49
12.699999999999999
 74
0
 49
-6.3499999999999996
 74
0
 49
0.0
 74
0
 49
-6.3499999999999996
 74
0
  0
LTYPE
  5
56
100
AcDbSymbolTableRecord
100
AcDbLinetypeTableRecord
  2
ZIGZAG
 70
0
  3
Zig zag /\/\/\/\/\/\/\/\/\/\/\/\/\/\/\/\/\/\/\/\/\/\/\/
 72
65
 73
4
 40
20.32254
 49
0.00254
 74
0
 49
-5.0800000000000001
 74
0
 49
-10.16
 74
0
 49
-5.0800000000000001
 74
0
  0
LTYPE
  5
57
100
AcDbSymbolTableRecord
100
AcDbLinetypeTableRecord
  2
DASHED2
 70
0
  3
Dashed (.5x) _ _ _ _ _ _ _ _ _ _ _ _ _ _ _ _ _ 
 72
65
 73
2
 40
9.5249999999999986
 49
6.3499999999999996
 74
0
 49
-3.1749999999999998
 74
0
  0
LTYPE
  5
58
100
AcDbSymbolTableRecord
100
AcDbLinetypeTableRecord
  2
PHANTOM2
 70
0
  3
Phantom (.5x) ___ _ _ ___ _ _ ___ _ _ ___ _ _
 72
65
 73
6
 40
31.750000000000004
 49
15.875
 74
0
 49
-3.1749999999999998
 74
0
 49
3.1749999999999998
 74
0
 49
-3.1749999999999998
 74
0
 49
3.1749999999999998
 74
0
 49
-3.1749999999999998
 74
0
  0
LTYPE
  5
59
100
AcDbSymbolTableRecord
100
AcDbLinetypeTableRecord
  2
BORDERX2
 70
0
  3
Border (2x) ____  ____  .  ____  ____  .  ___
 72
65
 73
6
 40
88.899999999999991
 49
25.399999999999999
 74
0
 49
-12.699999999999999
 74
0
 49
25.399999999999999
 74
0
 49
-12.699999999999999
 74
0
 49
0.0
 74
0
 49
-12.699999999999999
 74
0
  0
LTYPE
  5
5A
100
AcDbSymbolTableRecord
100
AcDbLinetypeTableRecord
  2
DRAINAGE2
 70
0
  3
Drainage reversed----<----<----<----
 72
65
 73
2
 40
10.16
 49
5.0800000000000001
 74
0
 49
5.0800000000000001
 74
0
  0
LTYPE
  5
5B
100
AcDbSymbolTableRecord
100
AcDbLinetypeTableRecord
  2
ACAD_ISO15W100
 70
0
  3
ISO double-dash triple-dot __ __ . . . __ __ . .
 72
65
 73
10
 40
39.0
 49
12.0
 74
0
 49
-3.0
 74
0
 49
12.0
 74
0
 49
-3.0
 74
0
 49
0.0
 74
0
 49
-3.0
 74
0
 49
0.0
 74
0
 49
-3.0
 74
0
 49
0.0
 74
0
 49
-3.0
 74
0
  0
LTYPE
  5
5C
100
AcDbSymbolTableRecord
100
AcDbLinetypeTableRecord
  2
BORDER
 70
0
  3
Border __ __ . __ __ . __ __ . __ __ . __ __ .
 72
65
 73
6
 40
44.449999999999996
 49
12.699999999999999
 74
0
 49
-6.3499999999999996
 74
0
 49
12.699999999999999
 74
0
 49
-6.3499999999999996
 74
0
 49
0.0
 74
0
 49
-6.3499999999999996
 74
0
  0
LTYPE
  5
5D
100
AcDbSymbolTableRecord
100
AcDbLinetypeTableRecord
  2
FENCELINE2
 70
0
  3
Fenceline square ----[]-----[]----[]-----[]----[]---
 72
65
 73
4
 40
36.829999999999998
 49
6.3499999999999996
 74
0
 49
-2.54
 74
0
 49
-2.54
 74
0
 49
25.399999999999999
 74
0
  0
LTYPE
  5
5E
100
AcDbSymbolTableRecord
100
AcDbLinetypeTableRecord
  2
DIVIDEX2
 70
0
  3
Divide (2x) ________  .  .  ________  .  .  _
 72
65
 73
6
 40
63.5
 49
25.399999999999999
 74
0
 49
-12.699999999999999
 74
0
 49
0.0
 74
0
 49
-12.699999999999999
 74
0
 49
0.0
 74
0
 49
-12.699999999999999
 74
0
  0
LTYPE
  5
14
100
AcDbSymbolTableRecord
100
AcDbLinetypeTableRecord
  2
BYBLOCK
 70
0
  3

 72
65
 73
0
 40
0.0
  0
LTYPE
  5
5F
100
AcDbSymbolTableRecord
100
AcDbLinetypeTableRecord
  2
ACAD_ISO14W100
 70
0
  3
ISO dash triple-dot __ . . . __ . . . __ . . . _
 72
65
 73
8
 40
24.0
 49
12.0
 74
0
 49
-3.0
 74
0
 49
0.0
 74
0
 49
-3.0
 74
0
 49
0.0
 74
0
 49
-3.0
 74
0
 49
0.0
 74
0
 49
-3.0
 74
0
  0
ENDTAB
  0
TABLE
  2
LAYER
  5
2
100
AcDbSymbolTable
 70
2
  0
LAYER
  5
60
100
AcDbSymbolTableRecord
100
AcDbLayerTableRecord
  2
D\U+fffdFAUT
 70
0
 62
7
420
16777215
  6
CONTINUOUS
370
5
390
F
  0
LAYER
  5
10
100
AcDbSymbolTableRecord
100
AcDbLayerTableRecord
  2
0
 70
0
 62
7
420
16777215
  6
CONTINUOUS
370
5
390
F
  0
ENDTAB
  0
TABLE
  2
STYLE
  5
3
100
AcDbSymbolTable
 70
1
  0
STYLE
  5
61
100
AcDbSymbolTableRecord
100
AcDbTextStyleTableRecord
  2
Standard
 70
0
 40
0.0
 41
1.0
 50
0.0
 71
0
 42
2.5
  3

  4

1001
ACAD
1000
txt
1071
0
  0
ENDTAB
  0
TABLE
  2
VIEW
  5
6
100
AcDbSymbolTable
 70
0
  0
ENDTAB
  0
TABLE
  2
UCS
  5
7
100
AcDbSymbolTable
 70
0
  0
ENDTAB
  0
TABLE
  2
APPID
  5
9
100
AcDbSymbolTable
 70
1
  0
APPID
  5
12
100
AcDbSymbolTableRecord
100
AcDbRegAppTableRecord
  2
ACAD
 70
0
  0
APPID
  5
62
100
AcDbSymbolTableRecord
100
AcDbRegAppTableRecord
  2
QCAD
 70
0
  0
ENDTAB
  0
TABLE
  2
DIMSTYLE
  5
A
100
AcDbSymbolTable
 70
1
100
AcDbDimStyleTable
 71
0
  0
DIMSTYLE
105
27
100
AcDbSymbolTableRecord
100
AcDbDimStyleTableRecord
  2
Standard
 41
0.18
 42
0.0625
 43
3.75
 44
0.18
 70
0
 73
0
 74
0
 77
1
 78
8
140
0.18
141
2.5
143
0.03937007874016
147
0.09
171
3
172
1
271
2
272
2
274
3
278
44
283
0
284
8
340
61
  0
ENDTAB
  0
TABLE
  2
BLOCK_RECORD
  5
1
100
AcDbSymbolTable
 70
1
  0
BLOCK_RECORD
  5
1F
100
AcDbSymbolTableRecord
100
AcDbBlockTableRecord
  2
*Model_Space
340
22
  0
BLOCK_RECORD
  5
1B
100
AcDbSymbolTableRecord
100
AcDbBlockTableRecord
  2
*Paper_Space
340
1E
  0
BLOCK_RECORD
  5
23
100
AcDbSymbolTableRecord
100
AcDbBlockTableRecord
  2
*Paper_Space0
340
26
  0
BLOCK_RECORD
  5
63
100
AcDbSymbolTableRecord
100
AcDbBlockTableRecord
  2
$PAPER_SPACE
340
0
  0
BLOCK_RECORD
  5
64
100
AcDbSymbolTableRecord
100
AcDbBlockTableRecord
  2
$MODEL_SPACE
340
0
  0
ENDTAB
  0
ENDSEC
  0
SECTION
  2
BLOCKS
  0
BLOCK
  5
20
100
AcDbEntity
  8
0
100
AcDbBlockBegin
  2
*Model_Space
 70
0
 10
0.0
 20
0.0
 30
0.0
  3
*Model_Space
  1

  0
ENDBLK
  5
21
100
AcDbEntity
  8
0
100
AcDbBlockEnd
  0
BLOCK
  5
1C
100
AcDbEntity
 67
1
  8
0
100
AcDbBlockBegin
  2
*Paper_Space
 70
0
 10
0.0
 20
0.0
 30
0.0
  3
*Paper_Space
  1

  0
ENDBLK
  5
1D
100
AcDbEntity
 67
1
  8
0
100
AcDbBlockEnd
  0
BLOCK
  5
24
100
AcDbEntity
  8
0
100
AcDbBlockBegin
  2
*Paper_Space0
 70
0
 10
0.0
 20
0.0
 30
0.0
  3
*Paper_Space0
  1

  0
ENDBLK
  5
25
100
AcDbEntity
  8
0
100
AcDbBlockEnd
  0
BLOCK
  5
65
100
AcDbEntity
  8
0
100
AcDbBlockBegin
  2
$PAPER_SPACE
 70
0
 10
0.0
 20
0.0
 30
0.0
  3
$PAPER_SPACE
  1

  0
ENDBLK
  5
66
100
AcDbEntity
  8
0
100
AcDbBlockEnd
  0
BLOCK
  5
67
100
AcDbEntity
  8
0
100
AcDbBlockBegin
  2
$MODEL_SPACE
 70
0
 10
0.0
 20
0.0
 30
0.0
  3
$MODEL_SPACE
  1

  0
ENDBLK
  5
68
100
AcDbEntity
  8
0
100
AcDbBlockEnd
  0
ENDSEC
  0
SECTION
  2
ENTITIES
  0
LINE
  5
69
100
AcDbEntity
  8
D\U+fffdFAUT
 62
256
370
-1
 48
1.0
  6
BYLAYER
100
AcDbLine
 10
451.14114541158597
 20
-117.40666233627813
 30
0.0
 11
460.8397569304986
 21
-117.40666234420219
 31
0.0
  0
LWPOLYLINE
  5
6A
100
AcDbEntity
  8
D\U+fffdFAUT
 62
256
370
-1
 48
1.0
  6
BYLAYER
100
AcDbPolyline
 90
18
 70
1
 10
-31.767766952966383
 20
-121.76776695296635
 30
0.0
 42
0.4142135623730879
 10
-31.767766952966383
 20
-122.47487373415291
 30
0.0
 10
-26.81801948466051
 20
-127.42462120245872
 30
0.0
 42
0.4142135623730684
 10
-26.110912703473957
 20
-127.4246212024587
 30
0.0
 10
-24.343145750507574
 20
-125.65685424949234
 30
0.0
 10
-22.928932188134524
 20
-127.07106781186548
 30
0.0
 10
-22.221825406947971
 20
-126.36396103067889
 30
0.0
 42
0.4142135623730976
 10
-22.221825406947971
 20
-123.53553390593271
 30
0.0
 10
-42.020815280171348
 20
-103.73654403270945
 30
0.0
 42
0.4142135623730929
 10
-44.849242404917447
 20
-103.73654403270936
 30
0.0
 10
-45.556349186104114
 20
-104.44365081389594
 30
0.0
 10
-44.142135623731008
 20
-105.85786437626908
 30
0.0
 10
-45.909902576697334
 20
-107.6256313292354
 30
0.0
 42
0.4142135623730794
 10
-45.909902576697334
 20
-108.33273811042193
 30
0.0
 10
-40.960155108391461
 20
-113.2824855787278
 30
0.0
 42
0.4142135623730693
 10
-40.253048327204908
 20
-113.28248557872774
 30
0.0
 10
-38.485281374238582
 20
-111.51471862576145
 30
0.0
 10
-30.0
 20
-120.0
 30
0.0
  0
LWPOLYLINE
  5
6B
100
AcDbEntity
  8
D\U+fffdFAUT
 62
256
370
-1
 48
1.0
  6
BYLAYER
100
AcDbPolyline
 90
18
 70
1
 10
-23.282485578727801
 20
-110.25304832720499
 30
0.0
 42
0.4142135623730879
 10
-23.282485578727858
 20
-110.9601551083916
 30
0.0
 10
-18.332738110422042
 20
-115.90990257669736
 30
0.0
 42
0.4142135623730684
 10
-17.625631329235432
 20
-115.90990257669736
 30
0.0
 10
-15.857864376269106
 20
-114.14213562373098
 30
0.0
 10
-14.443650813895999
 20
-115.55634918610409
 30
0.0
 10
-13.736544032709446
 20
-114.84924240491753
 30
0.0
 42
0.4142135623730976
 10
-13.736544032709446
 20
-112.02081528017138
 30
0.0
 10
-33.535533905932766
 20
-92.221825406948
 30
0.0
 42
0.4142135623730929
 10
-36.363961030678979
 20
-92.221825406948057
 30
0.0
 10
-37.071067811865532
 20
-92.92893218813461
 30
0.0
 10
-35.656854249492483
 20
-94.343145750507716
 30
0.0
 10
-37.424621202458809
 20
-96.110912703474071
 30
0.0
 42
0.4142135623730794
 10
-37.424621202458809
 20
-96.818019484660596
 30
0.0
 10
-32.474873734152936
 20
-101.76776695296641
 30
0.0
 42
0.4142135623730693
 10
-31.767766952966383
 20
-101.76776695296641
 30
0.0
 10
-30.0
 20
-100.0
 30
0.0
 10
-21.514718625761475
 20
-108.48528137423861
 30
0.0
  0
LWPOLYLINE
  5
6C
100
AcDbEntity
  8
D\U+fffdFAUT
 62
256
370
-1
 48
1.0
  6
BYLAYER
100
AcDbPolyline
 90
32
 70
1
 10
-2.3977023364769963
 20
-81.15227296443868
 30
0.0
 42
0.149826373323213
 10
-5.5224465121362556
 20
-88.696072732261655
 30
0.0
 10
-1.6550695985097406
 20
-88.69607273226157
 30
0.0
 10
-1.6550695985097406
 20
-91.346072732261547
 30
0.0
 10
-5.5224465121362272
 20
-91.346072732261433
 30
0.0
 42
0.149826373323215
 10
-2.3977023364769963
 20
-98.889872500084465
 30
0.0
 10
0.3369461045526094
 20
-96.155224059054859
 30
0.0
 10
2.2107790746969584
 20
-98.029057029199208
 30
0.0
 10
-0.5238693663326188
 20
-100.76370547022881
 30
0.0
 42
0.1498263733232175
 10
7.0199304014905266
 20
-103.88844964588807
 30
0.0
 10
7.0199304014902708
 20
-100.02107273226156
 30
0.0
 10
9.6699304014902481
 20
-100.02107273226156
 30
0.0
 10
9.6699304014899639
 20
-103.8884496458881
 30
0.0
 42
0.1498263733232159
 10
17.213730169313152
 20
-100.76370547022881
 30
0.0
 10
14.47908172828356
 20
-98.029057029199208
 30
0.0
 10
16.352914698427909
 20
-96.155224059054859
 30
0.0
 10
19.087563139457522
 20
-98.889872500084437
 30
0.0
 42
0.1498263733232158
 10
22.212307315116782
 20
-91.346072732261291
 30
0.0
 10
18.344930401490259
 20
-91.346072732261547
 30
0.0
 10
18.344930401490259
 20
-88.696072732261541
 30
0.0
 10
22.212307315116782
 20
-88.696072732261825
 30
0.0
 42
0.1498263733232174
 10
19.087563139457508
 20
-81.15227296443868
 30
0.0
 10
16.352914698427909
 20
-83.886921405468257
 30
0.0
 10
14.47908172828356
 20
-82.013088435323908
 30
0.0
 10
17.213730169313159
 20
-79.278439994294331
 30
0.0
 42
0.1498263733232176
 10
9.6699304014899639
 20
-76.153695818635043
 30
0.0
 10
9.6699304014902481
 20
-80.021072732261558
 30
0.0
 10
7.0199304014902708
 20
-80.021072732261558
 30
0.0
 10
7.019930401490555
 20
-76.153695818635043
 30
0.0
 42
0.1498263733232191
 10
-0.5238693663326899
 20
-79.278439994294331
 30
0.0
 10
2.2107790746969584
 20
-82.013088435323908
 30
0.0
 10
0.3369461045526094
 20
-83.886921405468257
 30
0.0
  0
LINE
  5
6D
100
AcDbEntity
  8
D\U+fffdFAUT
 62
256
370
-1
 48
1.0
  6
BYLAYER
100
AcDbLine
 10
145.58155680858408
 20
-117.40666232614068
 30
0.0
 11
155.16131290217425
 21
-117.40666233627796
 31
0.0
  0
LINE
  5
6E
100
AcDbEntity
  8
D\U+fffdFAUT
 62
256
370
-1
 48
1.0
  6
BYLAYER
100
AcDbLine
 10
189.54224421376233
 20
-75.723043434602999
 30
0.0
 11
182.20372528531618
 21
-81.880791947616231
 31
0.0
  0
CIRCLE
  5
6F
100
AcDbEntity
  8
D\U+fffdFAUT
 62
256
370
-1
 48
1.0
  6
BYLAYER
100
AcDbCircle
 10
8.3449304014902594
 20
-90.021072732261558
 30
0.0
 40
5.25
  0
LWPOLYLINE
  5
70
100
AcDbEntity
  8
D\U+fffdFAUT
 62
256
370
-1
 48
1.0
  6
BYLAYER
100
AcDbPolyline
 90
6
 70
1
 10
-47.902937830948019
 20
-152.14558237132002
 30
0.0
 10
-50.800717474389501
 20
-152.92204167120184
 30
0.0
 10
-52.922040774812729
 20
-150.80072053535309
 30
0.0
 10
-52.145584431794248
 20
-147.9029400996223
 30
0.0
 10
-49.247804788352767
 20
-147.12648079974042
 30
0.0
 10
-47.126481487929539
 20
-149.24780193558922
 30
0.0
  0
LWPOLYLINE
  5
71
100
AcDbEntity
  8
D\U+fffdFAUT
 62
256
370
-1
 48
1.0
  6
BYLAYER
100
AcDbPolyline
 90
32
 70
1
 10
-2.3977023364769963
 20
-111.15227296443868
 30
0.0
 42
0.149826373323213
 10
-5.5224465121362556
 20
-118.69607273226165
 30
0.0
 10
-1.6550695985097406
 20
-118.69607273226157
 30
0.0
 10
-1.6550695985097406
 20
-121.34607273226155
 30
0.0
 10
-5.5224465121362414
 20
-121.34607273226143
 30
0.0
 42
0.1498263733232147
 10
-2.3977023364769963
 20
-128.88987250008446
 30
0.0
 10
0.3369461045526094
 20
-126.15522405905486
 30
0.0
 10
2.2107790746969584
 20
-128.02905702919921
 30
0.0
 10
-0.5238693663326188
 20
-130.76370547022881
 30
0.0
 42
0.1498263733232177
 10
7.0199304014905266
 20
-133.88844964588807
 30
0.0
 10
7.0199304014902708
 20
-130.02107273226156
 30
0.0
 10
9.6699304014902481
 20
-130.02107273226156
 30
0.0
 10
9.6699304014899639
 20
-133.88844964588807
 30
0.0
 42
0.1498263733232161
 10
17.213730169313152
 20
-130.76370547022881
 30
0.0
 10
14.47908172828356
 20
-128.02905702919921
 30
0.0
 10
16.352914698427909
 20
-126.15522405905486
 30
0.0
 10
19.087563139457522
 20
-128.88987250008444
 30
0.0
 42
0.1498263733232158
 10
22.212307315116782
 20
-121.34607273226126
 30
0.0
 10
18.344930401490259
 20
-121.34607273226155
 30
0.0
 10
18.344930401490259
 20
-118.69607273226154
 30
0.0
 10
22.212307315116782
 20
-118.69607273226183
 30
0.0
 42
0.1498263733232165
 10
19.087563139457508
 20
-111.15227296443868
 30
0.0
 10
16.352914698427909
 20
-113.88692140546826
 30
0.0
 10
14.47908172828356
 20
-112.01308843532391
 30
0.0
 10
17.213730169313166
 20
-109.2784399942943
 30
0.0
 42
0.1498263733232176
 10
9.6699304014899639
 20
-106.15369581863501
 30
0.0
 10
9.6699304014902481
 20
-110.02107273226156
 30
0.0
 10
7.0199304014902708
 20
-110.02107273226156
 30
0.0
 10
7.019930401490555
 20
-106.15369581863504
 30
0.0
 42
0.1498263733232195
 10
-0.5238693663326899
 20
-109.27843999429436
 30
0.0
 10
2.2107790746969584
 20
-112.01308843532391
 30
0.0
 10
0.3369461045526094
 20
-113.88692140546826
 30
0.0
  0
LWPOLYLINE
  5
72
100
AcDbEntity
  8
D\U+fffdFAUT
 62
3
420
65280
370
-1
 48
1.0
  6
BYLAYER
100
AcDbPolyline
 90
4
 70
1
 10
454.21065686954125
 20
-131.10666224558847
 30
0.0
 10
454.21065686954131
 20
-123.70666224558855
 30
0.0
 10
457.21065686954125
 20
-123.70666224558798
 30
0.0
 10
457.21065686954125
 20
-131.10666224558847
 30
0.0
  0
LWPOLYLINE
  5
73
100
AcDbEntity
  8
D\U+fffdFAUT
 62
256
370
-1
 48
1.0
  6
BYLAYER
100
AcDbPolyline
 90
24
 70
1
 10
-48.240858852589838
 20
-161.91643282895512
 30
0.0
 10
-45.565244313769142
 20
-161.19950407402121
 30
0.0
 10
-44.80537087374563
 20
-164.03539035951104
 30
0.0
 42
0.2188582858714671
 10
-35.964609536377282
 20
-155.19462902215662
 30
0.0
 10
-38.800495821878883
 20
-154.43475558213106
 30
0.0
 10
-38.083567066945022
 20
-151.75914104331036
 30
0.0
 10
-35.247680781455358
 20
-152.51901448333388
 30
0.0
 42
0.2188582327777565
 10
-38.483624019716842
 20
-140.44230990770228
 30
0.0
 10
-40.559636865189134
 20
-142.51832275317594
 30
0.0
 10
-42.518322649075856
 20
-140.55963696928916
 30
0.0
 10
-40.442309803609703
 20
-138.48362412382295
 30
0.0
 42
0.2188582858724233
 10
-52.519014379233852
 20
-135.24768088555516
 30
0.0
 10
-51.75914093921034
 20
-138.08356717104499
 30
0.0
 10
-54.434755478031036
 20
-138.80049592597902
 30
0.0
 10
-55.194628918054548
 20
-135.96460964048919
 30
0.0
 42
0.2188582858724374
 10
-64.035390255411642
 20
-144.80537097784742
 30
0.0
 10
-61.199503969921295
 20
-145.56524441786917
 30
0.0
 10
-61.916432724855269
 20
-148.24085895668975
 30
0.0
 10
-64.75231901034482
 20
-147.48098551666635
 30
0.0
 42
0.2188582858720403
 10
-61.516375772083563
 20
-159.557690092298
 30
0.0
 10
-59.440362926610931
 20
-157.48167724682418
 30
0.0
 10
-57.481677142724209
 20
-159.4403630307109
 30
0.0
 10
-59.557689988190475
 20
-161.51637587617722
 30
0.0
 42
0.2188582858724082
 10
-47.480985412566213
 20
-164.75231911444484
 30
0.0
  0
CIRCLE
  5
74
100
AcDbEntity
  8
D\U+fffdFAUT
 62
256
370
-1
 48
1.0
  6
BYLAYER
100
AcDbCircle
 10
8.3449304014902594
 20
-120.02107273226156
 30
0.0
 40
5.25
  0
LWPOLYLINE
  5
75
100
AcDbEntity
  8
D\U+fffdFAUT
 62
3
420
65280
370
-1
 48
1.0
  6
BYLAYER
100
AcDbPolyline
 90
4
 70
1
 10
-55.687553073672817
 20
-263.6111961334696
 30
0.0
 10
-50.93092476199233
 20
-269.27992501255034
 30
0.0
 10
-53.22905809134906
 20
-271.20828784160994
 30
0.0
 10
-57.985686403029206
 20
-265.5395589625299
 30
0.0
  0
LWPOLYLINE
  5
76
100
AcDbEntity
  8
D\U+fffdFAUT
 62
256
370
-1
 48
1.0
  6
BYLAYER
100
AcDbPolyline
 90
46
 70
1
 10
-0.8390464706088636
 20
-206.3980945023111
 30
0.0
 10
4.160953524786585
 20
-206.39809450215091
 30
0.0
 10
4.1609535247865637
 20
-160.04809450246654
 30
0.0
 10
1.8949140383088405
 20
-160.04809450235717
 30
0.0
 42
0.3997682387250049
 10
0.8961423821525258
 20
-160.9985447413174
 30
0.0
 10
0.5360261181924102
 20
-166.64085706464672
 30
0.0
 10
0.0216328239172725
 20
-172.1338061116634
 30
0.0
 10
-0.6478651498331232
 20
-177.46441372410357
 30
0.0
 10
-1.4726755472491249
 20
-182.62017042116565
 30
0.0
 10
-1.9432152621669516
 20
-185.12872160290658
 30
0.0
 10
-2.4523742995488647
 20
-187.58912848761133
 30
0.0
 10
-2.9999999999999929
 20
-190.0
 30
0.0
 10
-3.5858998590778342
 20
-192.35999102125368
 30
0.0
 10
-4.2098417044274186
 20
-194.6678048563781
 30
0.0
 10
-4.8715539750955514
 20
-196.92219558767266
 30
0.0
 10
-5.5707261024438424
 20
-199.12197030540733
 30
0.0
 10
-6.3070089915938468
 20
-201.26599120736091
 30
0.0
 10
-7.0800156018539298
 20
-203.35317755947835
 30
0.0
 10
-7.8893216241039568
 20
-205.38250751055671
 30
0.0
 10
-8.7344662526512451
 20
-207.35301975456571
 30
0.0
 10
-9.6149530486250612
 20
-209.26381503494633
 30
0.0
 10
-10.530250891549073
 20
-211.11405748599429
 30
0.0
 10
-11.479795015325912
 20
-212.90297580723569
 30
0.0
 10
-12.46298812448812
 20
-214.62986426751274
 30
0.0
 10
-13.47920158621708
 20
-216.29408353633085
 30
0.0
 10
-14.527776693310045
 20
-217.89506134085468
 30
0.0
 10
-15.608025992985709
 20
-219.4322929477799
 30
0.0
 10
-16.719234676164156
 20
-220.90534147014279
 30
0.0
 10
-17.28621828285948
 20
-221.617679135358
 30
0.0
 10
-17.860662021636756
 20
-222.31383799995206
 30
0.0
 10
-18.442469498585815
 20
-222.99378256559362
 30
0.0
 10
-19.031542889360374
 20
-223.65748156833331
 30
0.0
 10
-19.627782988113076
 20
-224.30490796810699
 30
0.0
 10
-20.231089256964395
 20
-224.9360389356608
 30
0.0
 10
-20.841359875957743
 20
-225.55085583692949
 30
0.0
 10
-21.458491793452865
 20
-226.14934421490364
 30
0.0
 10
-22.082380776909702
 20
-226.73149376902313
 30
0.0
 10
-22.712921464014926
 20
-227.29729833213651
 30
0.0
 42
0.6915255342599399
 10
-22.052387505121771
 20
-229.04809450231119
 30
0.0
 10
4.1609535247865779
 20
-229.04809450231113
 30
0.0
 10
4.1609535247865779
 20
-226.69809450482626
 30
0.0
 10
-0.8390464752134221
 20
-226.69809450231116
 30
0.0
 10
-0.8390464752134221
 20
-224.04809450231113
 30
0.0
 10
3.1609535260666917
 20
-224.04809450231113
 30
0.0
 10
3.16095352708885
 20
-209.04809450231113
 30
0.0
 10
-0.8390464706088636
 20
-209.04809450231113
 30
0.0
  0
CIRCLE
  5
77
100
AcDbEntity
  8
D\U+fffdFAUT
 62
256
370
-1
 48
1.0
  6
BYLAYER
100
AcDbCircle
 10
85.898205958612664
 20
-93.891581016436021
 30
0.0
 40
5.5
  0
LWPOLYLINE
  5
78
100
AcDbEntity
  8
D\U+fffdFAUT
 62
3
420
65280
370
-1
 48
1.0
  6
BYLAYER
100
AcDbPolyline
 90
4
 70
1
 10
175.65786874825884
 20
-69.489338008135149
 30
0.0
 10
180.41449705993932
 20
-75.158066887215696
 30
0.0
 10
182.71263038929612
 20
-73.229704058155875
 30
0.0
 10
177.95600207761589
 20
-67.560975179075584
 30
0.0
  0
LWPOLYLINE
  5
79
100
AcDbEntity
  8
D\U+fffdFAUT
 62
3
420
65280
370
-1
 48
1.0
  6
BYLAYER
100
AcDbPolyline
 90
4
 70
1
 10
152.21065686954131
 20
-131.10666224558835
 30
0.0
 10
152.21065686954131
 20
-123.70666224558821
 30
0.0
 10
149.21065686954125
 20
-123.70666224558798
 30
0.0
 10
149.21065686954131
 20
-131.10666224558818
 30
0.0
  0
LWPOLYLINE
  5
7A
100
AcDbEntity
  8
D\U+fffdFAUT
 62
256
370
-1
 48
1.0
  6
BYLAYER
100
AcDbPolyline
 90
46
 70
1
 10
-23.052387509726302
 20
-182.69809450235721
 30
0.0
 10
-28.05238750512175
 20
-182.69809450251745
 30
0.0
 10
-28.052387505121736
 20
-229.04809450220182
 30
0.0
 10
-25.786348018644006
 20
-229.04809450231119
 30
0.0
 42
0.3997682387250159
 10
-24.787576362487684
 20
-228.09764426335096
 30
0.0
 10
-24.427460098527575
 20
-222.45533194002167
 30
0.0
 10
-23.913066804252445
 20
-216.96238289300493
 30
0.0
 10
-23.243568830502049
 20
-211.6317752805648
 30
0.0
 10
-22.41875843308604
 20
-206.47601858350271
 30
0.0
 10
-21.948218718168214
 20
-203.96746740176172
 30
0.0
 10
-21.439059680786301
 20
-201.50706051705708
 30
0.0
 10
-20.891433980335165
 20
-199.09618900466836
 30
0.0
 10
-20.305534121257345
 20
-196.73619798341468
 30
0.0
 10
-19.68159227590774
 20
-194.42838414829026
 30
0.0
 10
-19.019880005239635
 20
-192.1739934169957
 30
0.0
 10
-18.32070787789133
 20
-189.97421869926103
 30
0.0
 10
-17.584424988741326
 20
-187.83019779730745
 30
0.0
 10
-16.811418378481235
 20
-185.74301144518995
 30
0.0
 10
-16.002112356231216
 20
-183.71368149411165
 30
0.0
 10
-15.156967727683913
 20
-181.74316925010262
 30
0.0
 10
-14.27648093171009
 20
-179.83237396972203
 30
0.0
 10
-13.361183088786106
 20
-177.98213151867407
 30
0.0
 10
-12.411638965009253
 20
-176.19321319743264
 30
0.0
 10
-11.428445855847031
 20
-174.46632473715562
 30
0.0
 10
-10.412232394118071
 20
-172.80210546833749
 30
0.0
 10
-9.36365728702512
 20
-171.20112766381368
 30
0.0
 10
-8.2834079873494488
 20
-169.66389605688846
 30
0.0
 10
-7.1721993041710022
 20
-168.19084753452557
 30
0.0
 10
-6.6052156974756713
 20
-167.47850986931039
 30
0.0
 10
-6.0307719586984092
 20
-166.78235100471633
 30
0.0
 10
-5.448964481749357
 20
-166.10240643907474
 30
0.0
 10
-4.8598910909747914
 20
-165.43870743633508
 30
0.0
 10
-4.2636509922220824
 20
-164.79128103656137
 30
0.0
 10
-3.6603447233707627
 20
-164.16015006900756
 30
0.0
 10
-3.0500741043774156
 20
-163.54533316773887
 30
0.0
 10
-2.4329421868823005
 20
-162.94684478976467
 30
0.0
 10
-1.8090532034254636
 20
-162.3646952356452
 30
0.0
 10
-1.1785125163202252
 20
-161.79889067253185
 30
0.0
 42
0.6915255342599328
 10
-1.8390464752133937
 20
-160.04809450235717
 30
0.0
 10
-28.052387505121743
 20
-160.04809450235723
 30
0.0
 10
-28.052387505121743
 20
-162.3980944998421
 30
0.0
 10
-23.052387505121743
 20
-162.3980945023572
 30
0.0
 10
-23.052387505121743
 20
-165.04809450235723
 30
0.0
 10
-27.05238750640185
 20
-165.04809450235723
 30
0.0
 10
-27.052387507424015
 20
-180.04809450235723
 30
0.0
 10
-23.052387509726302
 20
-180.04809450235723
 30
0.0
  0
LWPOLYLINE
  5
7B
100
AcDbEntity
  8
D\U+fffdFAUT
 62
256
370
-1
 48
1.0
  6
BYLAYER
100
AcDbPolyline
 90
192
 70
1
 10
54.475739777910235
 20
-127.27290757266911
 30
0.0
 10
50.963019706383079
 20
-130.78562404320132
 30
0.0
 10
52.246124816861368
 20
-131.95961332922798
 30
0.0
 10
53.56865622197796
 20
-133.08900265568747
 30
0.0
 10
54.929064462945519
 20
-134.17246884627588
 30
0.0
 10
56.325755705019731
 20
-135.20874252757523
 30
0.0
 10
57.757093604813861
 20
-136.19660961623322
 30
0.0
 10
59.221401227414788
 20
-137.13491274136578
 30
0.0
 10
60.716963011055896
 20
-138.02255260051629
 30
0.0
 10
62.242026777044828
 20
-138.85848924758238
 30
0.0
 10
63.794805782590686
 20
-139.64174331120188
 30
0.0
 10
65.373480814126253
 20
-140.37139714217045
 30
0.0
 10
66.976202318672165
 20
-141.04659588854554
 30
0.0
 10
68.601092570747142
 20
-141.66654849717969
 30
0.0
 10
70.246247872283732
 20
-142.23052864050607
 30
0.0
 10
71.909740782973927
 20
-142.73787556749414
 30
0.0
 10
73.589622378430136
 20
-143.1879948777754
 30
0.0
 10
75.283924533517393
 20
-143.5803592180348
 30
0.0
 10
76.990662228180383
 20
-143.91450889984992
 30
0.0
 10
78.707835873064141
 20
-144.19005243825592
 30
0.0
 10
80.433433652204485
 20
-144.40666701040317
 30
0.0
 10
82.165433880042599
 20
-144.56409883377199
 30
0.0
 10
83.901807370002928
 20
-144.66216346350052
 30
0.0
 10
85.640519811858383
 20
-144.70074600847818
 30
0.0
 10
87.379534155100316
 20
-144.67980126594944
 30
0.0
 10
89.116812995516057
 20
-144.59935377447357
 30
0.0
 10
90.850320962183048
 20
-144.45949778517587
 30
0.0
 10
92.578027102080625
 20
-144.26039715132316
 30
0.0
 10
94.297907259524948
 20
-144.00228513635687
 30
0.0
 10
96.00794644764045
 20
-143.68546414060398
 30
0.0
 10
97.706141209090049
 20
-143.31030534699039
 30
0.0
 10
96.420415233601545
 20
-138.51189813652292
 30
0.0
 10
99.096030196260642
 20
-137.79497096337758
 30
0.0
 10
100.38175525427442
 20
-142.59337204242325
 30
0.0
 10
102.04001151240516
 20
-142.06916670524305
 30
0.0
 10
103.6793562913598
 20
-141.48851728530775
 30
0.0
 10
105.29786896122249
 20
-140.85210406211735
 30
0.0
 10
106.89365329863983
 20
-140.16067264714496
 30
0.0
 10
108.46483970840694
 20
-139.41503311029015
 30
0.0
 10
110.00958741385381
 20
-138.61605903081465
 30
0.0
 10
111.52608661347085
 20
-137.76468647387014
 30
0.0
 10
113.01256060124223
 20
-136.86191289381975
 30
0.0
 10
114.46726784820606
 20
-135.90879596563713
 30
0.0
 10
115.88850404280242
 20
-134.90645234575061
 30
0.0
 10
117.27460408761624
 20
-133.85605636378722
 30
0.0
 10
118.62394405017932
 20
-132.75883864674705
 30
0.0
 10
119.93494306554373
 20
-131.61608467721925
 30
0.0
 10
121.20606518839639
 20
-130.4291332873334
 30
0.0
 10
122.43582119254921
 20
-129.19937509020383
 30
0.0
 10
123.62277031569187
 20
-127.92825085070996
 30
0.0
 10
124.76552194736547
 20
-126.61724979752029
 30
0.0
 10
125.86273725818
 20
-125.26790787833448
 30
0.0
 10
126.91313076836462
 20
-123.88180596039371
 30
0.0
 10
127.91547185381563
 20
-122.4605679783603
 30
0.0
 10
128.86858618787539
 20
-121.00585903174334
 30
0.0
 10
129.77135711715442
 20
-119.51938343409427
 30
0.0
 10
130.62272696978511
 20
-118.00288271626101
 30
0.0
 10
131.42169829457242
 20
-116.45813358603783
 30
0.0
 10
132.16733502959192
 20
-114.88694584660402
 30
0.0
 10
132.85876359886475
 20
-113.29116027618699
 30
0.0
 10
133.49517393582499
 20
-111.67264647143662
 30
0.0
 10
134.07582043238136
 20
-110.03330065703557
 30
0.0
 10
134.60002281245835
 20
-108.37504346411311
 30
0.0
 10
129.8016192652974
 20
-107.08931174718225
 30
0.0
 10
130.51854960201973
 20
-104.41369763220098
 30
0.0
 10
135.31695134570708
 20
-105.6994281404605
 30
0.0
 10
135.69210711099691
 20
-104.00123271001013
 30
0.0
 10
136.00892505730434
 20
-102.29119295692544
 30
0.0
 10
136.26703400527668
 20
-100.57131233920529
 30
0.0
 10
136.46613155817994
 20
-98.843605844264573
 30
0.0
 10
136.60598445618217
 20
-97.110097628202993
 30
0.0
 10
136.68642884963833
 20
-95.372818644333677
 30
0.0
 10
136.70737049105281
 20
-93.633804263747038
 30
0.0
 10
136.66878484549972
 20
-91.895091890699064
 30
0.0
 10
136.57071711936663
 20
-90.158718575618593
 30
0.0
 10
136.41328220739234
 20
-88.42671862852734
 30
0.0
 10
136.19666455805697
 20
-86.701121235672005
 30
0.0
 10
135.92111795748559
 20
-84.983948082158932
 30
0.0
 10
135.58696523211535
 20
-83.27721098337652
 30
0.0
 10
135.19459787047691
 20
-81.582909527981499
 30
0.0
 10
134.74447556453237
 20
-79.90302873520973
 30
0.0
 10
134.2371256711067
 20
-78.239536729255533
 30
0.0
 10
133.67314259404355
 20
-76.59438243344654
 30
0.0
 10
133.05318708781067
 20
-74.969493286912453
 30
0.0
 10
132.37798548336974
 20
-73.366772986425488
 30
0.0
 10
131.64832883721675
 20
-71.788099256056555
 30
0.0
 10
130.86507200459238
 20
-70.235321647260051
 30
0.0
 10
130.02913263794488
 20
-68.710259371967041
 30
0.0
 10
129.14149011182303
 20
-67.214699171222051
 30
0.0
 10
128.20318437545353
 20
-65.750393221862865
 30
0.0
 10
127.21531473435232
 20
-64.319057083695739
 30
0.0
 10
126.17903856239394
 20
-62.922367689569867
 30
0.0
 10
125.09556994584875
 20
-61.561961380706819
 30
0.0
 10
123.96617826097685
 20
-60.239431989587345
 30
0.0
 10
122.79218668684547
 20
-58.956328972639383
 30
0.0
 10
119.27946321536507
 20
-62.469047852151803
 30
0.0
 10
117.3207785894283
 20
-60.510360910315839
 30
0.0
 10
120.83350156380288
 20
-56.997641536939128
 30
0.0
 10
119.55039798762226
 20
-55.823646728094801
 30
0.0
 10
118.22786786917919
 20
-54.694251897129092
 30
0.0
 10
116.86746067037984
 20
-53.610780230745618
 30
0.0
 10
115.470770229506
 20
-52.574501112567148
 30
0.0
 10
114.0394328938911
 20
-51.586628635940897
 30
0.0
 10
112.57512560279378
 20
-50.648320181518542
 30
0.0
 10
111.07956392271416
 20
-49.760675061282782
 30
0.0
 10
109.55450003745449
 20
-48.924733230604474
 30
0.0
 10
108.00172069527997
 20
-48.141474069842687
 30
0.0
 10
106.42304511558365
 20
-47.411815236913625
 30
0.0
 10
104.82032285750893
 20
-46.736611592171684
 30
0.0
 10
103.19543165302599
 20
-46.116654196865355
 30
0.0
 10
101.55027520700179
 20
-45.552669386337797
 30
0.0
 10
99.886780966839467
 20
-45.045317919060679
 30
0.0
 10
98.206897864303187
 20
-44.595194202496103
 30
0.0
 10
96.512594032169261
 20
-44.202825596696087
 30
0.0
 10
94.805854498384576
 20
-43.868671796452631
 30
0.0
 10
93.088678860428274
 20
-43.593124292724738
 30
0.0
 10
91.363078942606307
 20
-43.376505913971627
 30
0.0
 10
89.631076439018727
 20
-43.219070447930406
 30
0.0
 10
87.894700544965929
 20
-43.121002344281223
 30
0.0
 10
86.155985579564742
 20
-43.082416498548
 30
0.0
 10
84.416968602362715
 20
-43.103358117487787
 30
0.0
 10
82.679687026740737
 20
-43.183802666127846
 30
0.0
 10
80.946176232902701
 20
-43.323655896509635
 30
0.0
 10
79.218467183245195
 20
-43.522753958109107
 30
0.0
 10
77.498584042904497
 20
-43.780863589802081
 30
0.0
 10
75.78854180826653
 20
-44.097682393150947
 30
0.0
 10
74.090343946219207
 20
-44.472839186690109
 30
0.0
 10
75.37610313373699
 20
-49.271370346462064
 30
0.0
 10
72.700488171077893
 20
-49.988297519607343
 30
0.0
 10
71.414728838537656
 20
-45.189768526025929
 30
0.0
 10
69.756466879496145
 20
-45.713973055470106
 30
0.0
 10
68.117116434672312
 20
-46.294622030798948
 30
0.0
 10
66.498598152089073
 20
-46.931035168970922
 30
0.0
 10
64.902808272997731
 20
-47.622466854160521
 30
0.0
 10
63.331616410259699
 20
-48.368107011314535
 30
0.0
 10
61.786863357925029
 20
-49.167082055228391
 30
0.0
 10
60.27035893457429
 20
-50.01845591403098
 30
0.0
 10
58.783879862952517
 20
-50.921231125877668
 30
0.0
 10
57.329167688376344
 20
-51.87435000756814
 30
0.0
 10
55.907926738356139
 20
-52.876695893716871
 30
0.0
 10
54.521822125820165
 20
-53.92709444503005
 30
0.0
 10
53.172477798285115
 20
-55.024315024149715
 30
0.0
 10
51.861474635252648
 20
-56.167072137456543
 30
0.0
 10
50.590348596066235
 20
-57.354026941144085
 30
0.0
 10
49.36058892039506
 20
-58.583788809794797
 30
0.0
 10
48.173636383453811
 20
-59.854916965624554
 30
0.0
 10
47.030881608004165
 20
-61.165922166484577
 30
0.0
 10
45.93366343511434
 20
-62.515268450643774
 30
0.0
 10
44.883267355583428
 20
-63.90137493630813
 30
0.0
 10
43.880924003873986
 20
-65.322617673766516
 30
0.0
 10
42.927807716310838
 20
-66.777331547996354
 30
0.0
 10
42.025035155239777
 20
-68.263812229495798
 30
0.0
 10
41.173664000755764
 20
-69.780318171062433
 30
0.0
 10
40.374691711534922
 20
-71.325072648172593
 30
0.0
 10
39.629054356221047
 20
-72.896265840576191
 30
0.0
 10
38.937625516735864
 20
-74.492056952665351
 30
0.0
 10
38.301215264798884
 20
-76.110576370134353
 30
0.0
 10
37.720569212854286
 20
-77.749927850401846
 30
0.0
 10
37.196367640518076
 20
-79.408190744232186
 30
0.0
 10
41.994899102041131
 20
-80.693956735802672
 30
0.0
 10
41.277968765318803
 20
-83.369570850783916
 30
0.0
 10
36.479443072491449
 20
-82.083807130384642
 30
0.0
 10
36.104289307275621
 20
-83.782005661432677
 30
0.0
 10
35.787473553372081
 20
-85.492048461039488
 30
0.0
 10
35.529366988673189
 20
-87.211932061655673
 30
0.0
 10
35.330272008023599
 20
-88.939641466355738
 30
0.0
 10
35.190421868937619
 20
-90.67315250958751
 30
0.0
 10
35.109980418317775
 20
-92.410434228662268
 30
0.0
 10
35.089041900492816
 20
-94.149451243208091
 30
0.0
 10
35.127630846802504
 20
-95.888166139800603
 30
0.0
 10
35.225702046857066
 20
-97.624541858972293
 30
0.0
 10
35.383140601504863
 20
-99.356544081811137
 30
0.0
 10
35.599762057447037
 20
-101.08214361334643
 30
0.0
 10
35.875312623341415
 20
-102.79931875993009
 30
0.0
 10
36.209469467141105
 20
-104.50605769783209
 30
0.0
 10
36.601841094321514
 20
-106.20036083027111
 30
0.0
 10
37.051967806550579
 20
-107.88024313012033
 30
0.0
 10
37.559322240266795
 20
-109.54373646554365
 30
0.0
 10
38.123309984532341
 20
-111.18889190583724
 30
0.0
 10
38.743270277438569
 20
-112.81378200477565
 30
0.0
 10
39.418476780247488
 20
-114.41650305878778
 30
0.0
 10
40.148138428362302
 20
-115.99517733731369
 30
0.0
 10
40.931400358130077
 20
-117.54795528273462
 30
0.0
 10
41.767344908390783
 20
-119.07301767729371
 30
0.0
 10
42.654992695598992
 20
-120.56857777447266
 30
0.0
 10
43.593303761258937
 20
-122.03288339232324
 30
0.0
 10
44.581178790328977
 20
-123.46421896630608
 30
0.0
 10
45.61746039916693
 20
-124.86090755922629
 30
0.0
 10
46.700934491507724
 20
-126.22131282591539
 30
0.0
 10
47.830331680886047
 20
-127.54384093035532
 30
0.0
 10
49.004328777835326
 20
-128.82694241299947
 30
0.0
 10
52.517055151973352
 20
-125.31422063083329
 30
0.0
  0
LINE
  5
7C
100
AcDbEntity
  8
D\U+fffdFAUT
 62
256
370
-1
 48
1.0
  6
BYLAYER
100
AcDbLine
 10
132.15123633396578
 20
-7.2712975257580581
 30
0.0
 11
130.4460314930754
 21
-11.950462077568233
 31
0.0
  0
LINE
  5
7D
100
AcDbEntity
  8
D\U+fffdFAUT
 62
256
370
-1
 48
1.0
  6
BYLAYER
100
AcDbLine
 10
145.54568534828303
 20
-206.73397067395931
 30
0.0
 11
149.85965703861484
 21
-204.2456072143078
 31
0.0
  0
LWPOLYLINE
  5
7E
100
AcDbEntity
  8
D\U+fffdFAUT
 62
256
370
-1
 48
1.0
  6
BYLAYER
100
AcDbPolyline
 90
46
 70
1
 10
102.16095352939112
 20
-206.3980945023111
 30
0.0
 10
107.16095352478658
 20
-206.39809450215091
 30
0.0
 10
107.16095352478658
 20
-160.04809450246654
 30
0.0
 10
104.89491403830885
 20
-160.04809450235717
 30
0.0
 42
0.3997682387250208
 10
103.8961423821525
 20
-160.9985447413174
 30
0.0
 10
103.53602611819241
 20
-166.64085706464672
 30
0.0
 10
103.02163282391729
 20
-172.1338061116634
 30
0.0
 10
102.35213485016686
 20
-177.46441372410357
 30
0.0
 10
101.52732445275089
 20
-182.62017042116565
 30
0.0
 10
101.05678473783306
 20
-185.12872160290658
 30
0.0
 10
100.54762570045114
 20
-187.58912848761133
 30
0.0
 10
100.0
 20
-190.0
 30
0.0
 10
99.414100140922187
 20
-192.35999102125368
 30
0.0
 10
98.79015829557261
 20
-194.6678048563781
 30
0.0
 10
98.128446024904463
 20
-196.92219558767266
 30
0.0
 10
97.429273897556186
 20
-199.12197030540733
 30
0.0
 10
96.692991008406182
 20
-201.26599120736091
 30
0.0
 10
95.919984398146084
 20
-203.35317755947835
 30
0.0
 10
95.110678375896043
 20
-205.38250751055671
 30
0.0
 10
94.265533747348769
 20
-207.35301975456571
 30
0.0
 10
93.385046951374932
 20
-209.26381503494633
 30
0.0
 10
92.469749108450941
 20
-211.11405748599429
 30
0.0
 10
91.520204984674081
 20
-212.90297580723569
 30
0.0
 10
90.537011875511894
 20
-214.62986426751274
 30
0.0
 10
89.520798413782927
 20
-216.29408353633085
 30
0.0
 10
88.472223306689955
 20
-217.89506134085468
 30
0.0
 10
87.391974007014312
 20
-219.4322929477799
 30
0.0
 10
86.280765323835851
 20
-220.90534147014279
 30
0.0
 10
85.713781717140535
 20
-221.617679135358
 30
0.0
 10
85.139337978363244
 20
-222.31383799995206
 30
0.0
 10
84.557530501414192
 20
-222.99378256559362
 30
0.0
 10
83.968457110639633
 20
-223.65748156833331
 30
0.0
 10
83.372217011886931
 20
-224.30490796810699
 30
0.0
 10
82.768910743035605
 20
-224.9360389356608
 30
0.0
 10
82.158640124042279
 20
-225.55085583692949
 30
0.0
 10
81.541508206547149
 20
-226.14934421490364
 30
0.0
 10
80.917619223090327
 20
-226.73149376902313
 30
0.0
 10
80.287078535985074
 20
-227.29729833213651
 30
0.0
 42
0.6915255342599463
 10
80.947612494878229
 20
-229.04809450231119
 30
0.0
 10
107.16095352478658
 20
-229.04809450231113
 30
0.0
 10
107.16095352478658
 20
-226.69809450482626
 30
0.0
 10
102.16095352478658
 20
-226.69809450231116
 30
0.0
 10
102.16095352478658
 20
-224.04809450231113
 30
0.0
 10
106.16095352606669
 20
-224.04809450231113
 30
0.0
 10
106.16095352708885
 20
-209.04809450231113
 30
0.0
 10
102.16095352939112
 20
-209.04809450231113
 30
0.0
  0
LINE
  5
7F
100
AcDbEntity
  8
D\U+fffdFAUT
 62
256
370
-1
 48
1.0
  6
BYLAYER
100
AcDbLine
 10
130.4460314930754
 20
-11.950462077568233
 30
0.0
 11
127.81527692922856
 21
-10.991749177478027
 31
0.0
  0
LINE
  5
80
100
AcDbEntity
  8
D\U+fffdFAUT
 62
256
370
-1
 48
1.0
  6
BYLAYER
100
AcDbLine
 10
149.85965703861484
 20
-204.2456072143078
 30
0.0
 11
151.25868318003495
 21
-206.67104034173551
 31
0.0
  0
LINE
  5
81
100
AcDbEntity
  8
D\U+fffdFAUT
 62
256
370
-1
 48
1.0
  6
BYLAYER
100
AcDbLine
 10
151.25868318003495
 20
-206.67104034173551
 30
0.0
 11
146.94471147202381
 21
-209.15940381158518
 31
0.0
  0
LINE
  5
82
100
AcDbEntity
  8
D\U+fffdFAUT
 62
256
370
-1
 48
1.0
  6
BYLAYER
100
AcDbLine
 10
127.81527692922856
 20
-10.991749177478027
 30
0.0
 11
129.52048177710674
 21
-6.312584606491555
 31
0.0
  0
LWPOLYLINE
  5
83
100
AcDbEntity
  8
D\U+fffdFAUT
 62
256
370
-1
 48
1.0
  6
BYLAYER
100
AcDbPolyline
 90
46
 70
1
 10
79.947612490273698
 20
-182.69809450235721
 30
0.0
 10
74.947612494878257
 20
-182.69809450251745
 30
0.0
 10
74.947612494878257
 20
-229.04809450220182
 30
0.0
 10
77.213651981355994
 20
-229.04809450231119
 30
0.0
 42
0.3997682387249989
 10
78.212423637512302
 20
-228.09764426335096
 30
0.0
 10
78.572539901472425
 20
-222.45533194002167
 30
0.0
 10
79.086933195747577
 20
-216.96238289300493
 30
0.0
 10
79.756431169497972
 20
-211.6317752805648
 30
0.0
 10
80.581241566913974
 20
-206.47601858350271
 30
0.0
 10
81.051781281831808
 20
-203.96746740176172
 30
0.0
 10
81.560940319213699
 20
-201.50706051705708
 30
0.0
 10
82.108566019664835
 20
-199.09618900466836
 30
0.0
 10
82.694465878742676
 20
-196.73619798341468
 30
0.0
 10
83.318407724092282
 20
-194.42838414829026
 30
0.0
 10
83.9801199947604
 20
-192.1739934169957
 30
0.0
 10
84.679292122108677
 20
-189.97421869926103
 30
0.0
 10
85.415575011258682
 20
-187.83019779730745
 30
0.0
 10
86.188581621518779
 20
-185.74301144518995
 30
0.0
 10
86.99788764376882
 20
-183.71368149411165
 30
0.0
 10
87.843032272316066
 20
-181.74316925010262
 30
0.0
 10
88.723519068289903
 20
-179.83237396972203
 30
0.0
 10
89.638816911213922
 20
-177.98213151867407
 30
0.0
 10
90.588361034990754
 20
-176.19321319743264
 30
0.0
 10
91.571554144152969
 20
-174.46632473715562
 30
0.0
 10
92.587767605881936
 20
-172.80210546833749
 30
0.0
 10
93.636342712974852
 20
-171.20112766381368
 30
0.0
 10
94.716592012650551
 20
-169.66389605688846
 30
0.0
 10
95.827800695829012
 20
-168.19084753452557
 30
0.0
 10
96.394784302524329
 20
-167.47850986931039
 30
0.0
 10
96.969228041301591
 20
-166.78235100471633
 30
0.0
 10
97.551035518250671
 20
-166.10240643907474
 30
0.0
 10
98.14010890902523
 20
-165.43870743633508
 30
0.0
 10
98.736349007777932
 20
-164.79128103656137
 30
0.0
 10
99.33965527662923
 20
-164.16015006900756
 30
0.0
 10
99.949925895622584
 20
-163.54533316773887
 30
0.0
 10
100.56705781311769
 20
-162.94684478976467
 30
0.0
 10
101.19094679657454
 20
-162.3646952356452
 30
0.0
 10
101.82148748367979
 20
-161.79889067253185
 30
0.0
 42
0.6915255342599282
 10
101.16095352478661
 20
-160.0480945023572
 30
0.0
 10
74.947612494878257
 20
-160.04809450235723
 30
0.0
 10
74.947612494878257
 20
-162.3980944998421
 30
0.0
 10
79.947612494878257
 20
-162.3980945023572
 30
0.0
 10
79.947612494878257
 20
-165.04809450235723
 30
0.0
 10
75.947612493598143
 20
-165.04809450235723
 30
0.0
 10
75.947612492575985
 20
-180.04809450235723
 30
0.0
 10
79.947612490273698
 20
-180.04809450235723
 30
0.0
  0
LINE
  5
84
100
AcDbEntity
  8
D\U+fffdFAUT
 62
256
370
-1
 48
1.0
  6
BYLAYER
100
AcDbLine
 10
146.94471147202381
 20
-209.15940381158518
 30
0.0
 11
301.73788945956926
 21
-298.61218708413367
 31
0.0
  0
LINE
  5
85
100
AcDbEntity
  8
D\U+fffdFAUT
 62
256
370
-1
 48
1.0
  6
BYLAYER
100
AcDbLine
 10
129.52048177710674
 20
-6.312584606491555
 30
0.0
 11
-46.557112792548693
 21
-37.286913933427002
 31
0.0
  0
LWPOLYLINE
  5
86
100
AcDbEntity
  8
D\U+fffdFAUT
 62
256
370
-1
 48
1.0
  6
BYLAYER
100
AcDbPolyline
 90
46
 70
1
 10
68.160953529391136
 20
-206.3980945023111
 30
0.0
 10
73.160953524786578
 20
-206.39809450215091
 30
0.0
 10
73.160953524786578
 20
-160.04809450246654
 30
0.0
 10
70.894914038308841
 20
-160.04809450235717
 30
0.0
 42
0.3997682387250093
 10
69.896142382152519
 20
-160.9985447413174
 30
0.0
 10
69.53602611819241
 20
-166.64085706464672
 30
0.0
 10
69.021632823917287
 20
-172.1338061116634
 30
0.0
 10
68.352134850166891
 20
-177.46441372410357
 30
0.0
 10
67.527324452750889
 20
-182.62017042116565
 30
0.0
 10
67.056784737833055
 20
-185.12872160290658
 30
0.0
 10
66.54762570045115
 20
-187.58912848761133
 30
0.0
 10
66.000000000000014
 20
-190.0
 30
0.0
 10
65.414100140922187
 20
-192.35999102125368
 30
0.0
 10
64.790158295572581
 20
-194.6678048563781
 30
0.0
 10
64.128446024904463
 20
-196.92219558767266
 30
0.0
 10
63.429273897556158
 20
-199.12197030540733
 30
0.0
 10
62.692991008406182
 20
-201.26599120736091
 30
0.0
 10
61.919984398146084
 20
-203.35317755947835
 30
0.0
 10
61.110678375896057
 20
-205.38250751055671
 30
0.0
 10
60.265533747348755
 20
-207.35301975456571
 30
0.0
 10
59.385046951374932
 20
-209.26381503494633
 30
0.0
 10
58.469749108450941
 20
-211.11405748599429
 30
0.0
 10
57.520204984674095
 20
-212.90297580723569
 30
0.0
 10
56.53701187551188
 20
-214.62986426751274
 30
0.0
 10
55.520798413782927
 20
-216.29408353633085
 30
0.0
 10
54.472223306689969
 20
-217.89506134085468
 30
0.0
 10
53.391974007014284
 20
-219.4322929477799
 30
0.0
 10
52.280765323835851
 20
-220.90534147014279
 30
0.0
 10
51.71378171714052
 20
-221.617679135358
 30
0.0
 10
51.139337978363244
 20
-222.31383799995206
 30
0.0
 10
50.557530501414192
 20
-222.99378256559362
 30
0.0
 10
49.968457110639633
 20
-223.65748156833331
 30
0.0
 10
49.372217011886931
 20
-224.30490796810699
 30
0.0
 10
48.768910743035605
 20
-224.9360389356608
 30
0.0
 10
48.15864012404225
 20
-225.55085583692949
 30
0.0
 10
47.541508206547149
 20
-226.14934421490364
 30
0.0
 10
46.917619223090313
 20
-226.73149376902313
 30
0.0
 10
46.287078535985074
 20
-227.29729833213651
 30
0.0
 42
0.6915255342599345
 10
46.947612494878229
 20
-229.04809450231119
 30
0.0
 10
73.160953524786578
 20
-229.04809450231113
 30
0.0
 10
73.160953524786578
 20
-226.69809450482626
 30
0.0
 10
68.160953524786578
 20
-226.69809450231116
 30
0.0
 10
68.160953524786578
 20
-224.04809450231113
 30
0.0
 10
72.160953526066692
 20
-224.04809450231113
 30
0.0
 10
72.16095352708885
 20
-209.04809450231113
 30
0.0
 10
68.160953529391136
 20
-209.04809450231113
 30
0.0
  0
LINE
  5
87
100
AcDbEntity
  8
D\U+fffdFAUT
 62
256
370
-1
 48
1.0
  6
BYLAYER
100
AcDbLine
 10
301.73788945956926
 20
-298.61218708413361
 30
0.0
 11
301.73988933482821
 21
-293.63199627927355
 31
0.0
  0
LINE
  5
88
100
AcDbEntity
  8
D\U+fffdFAUT
 62
256
370
-1
 48
1.0
  6
BYLAYER
100
AcDbLine
 10
-46.557112792548693
 20
-37.286913933427002
 30
0.0
 11
-43.357439842638897
 21
-41.103246920199524
 31
0.0
  0
LWPOLYLINE
  5
89
100
AcDbEntity
  8
D\U+fffdFAUT
 62
256
370
-1
 48
1.0
  6
BYLAYER
100
AcDbPolyline
 90
24
 70
1
 10
278.48445442008915
 20
-16.40716763769926
 30
0.0
 10
277.07722307682252
 20
-11.155308766624799
 30
0.0
 42
0.2621337870483921
 10
188.66189244853405
 20
-99.570745687039064
 30
0.0
 10
193.91375292786364
 20
-100.97797746123716
 30
0.0
 10
193.19682417292978
 20
-103.6535920000576
 30
0.0
 10
187.9449660920842
 20
-102.24636086853219
 30
0.0
 42
0.2621337081429571
 10
220.30736025254129
 20
-223.02395572004525
 30
0.0
 10
224.15194315262323
 20
-219.17937281996421
 30
0.0
 10
226.11062893650978
 20
-221.13805860385082
 30
0.0
 10
222.26604837069652
 20
-224.98263916966414
 30
0.0
 42
0.262133550332086
 10
343.04364743929187
 20
-257.34476414771393
 30
0.0
 10
341.6364494084288
 20
-252.09302960021961
 30
0.0
 10
344.31206394724916
 20
-251.37610084528581
 30
0.0
 10
345.71926133544071
 20
-256.6278329942956
 30
0.0
 42
0.2621334714266634
 10
434.13449919682699
 20
-168.21248884089459
 30
0.0
 10
428.88276543947472
 20
-166.80529102174808
 30
0.0
 10
429.59969419440858
 20
-164.12967648292761
 30
0.0
 10
434.85142713364735
 20
-165.53687408286055
 30
0.0
 42
0.2621335503320915
 10
402.4891569579496
 20
-44.759313919787203
 30
0.0
 10
398.64457521471525
 20
-48.603895663020793
 30
0.0
 10
396.68588943082869
 20
-46.645209879134271
 30
0.0
 10
400.53047115361863
 20
-42.800628156344246
 30
0.0
 42
0.2621337081429533
 10
279.75283739643049
 20
-10.438379193576978
 30
0.0
 10
281.16006895890962
 20
-15.690238882765343
 30
0.0
  0
LWPOLYLINE
  5
8A
100
AcDbEntity
  8
D\U+fffdFAUT
 62
256
370
-1
 48
1.0
  6
BYLAYER
100
AcDbPolyline
 90
46
 70
1
 10
45.947612490273698
 20
-182.69809450235721
 30
0.0
 10
40.947612494878243
 20
-182.69809450251745
 30
0.0
 10
40.947612494878271
 20
-229.04809450220182
 30
0.0
 10
43.213651981355994
 20
-229.04809450231119
 30
0.0
 42
0.3997682387250007
 10
44.212423637512316
 20
-228.09764426335096
 30
0.0
 10
44.572539901472439
 20
-222.45533194002167
 30
0.0
 10
45.086933195747562
 20
-216.96238289300493
 30
0.0
 10
45.756431169497972
 20
-211.6317752805648
 30
0.0
 10
46.581241566913974
 20
-206.47601858350271
 30
0.0
 10
47.051781281831779
 20
-203.96746740176172
 30
0.0
 10
47.560940319213699
 20
-201.50706051705708
 30
0.0
 10
48.108566019664835
 20
-199.09618900466836
 30
0.0
 10
48.694465878742676
 20
-196.73619798341468
 30
0.0
 10
49.318407724092268
 20
-194.42838414829026
 30
0.0
 10
49.980119994760386
 20
-192.1739934169957
 30
0.0
 10
50.679292122108677
 20
-189.97421869926103
 30
0.0
 10
51.415575011258682
 20
-187.83019779730745
 30
0.0
 10
52.188581621518779
 20
-185.74301144518995
 30
0.0
 10
52.997887643768792
 20
-183.71368149411165
 30
0.0
 10
53.843032272316094
 20
-181.74316925010262
 30
0.0
 10
54.723519068289917
 20
-179.83237396972203
 30
0.0
 10
55.638816911213922
 20
-177.98213151867407
 30
0.0
 10
56.588361034990754
 20
-176.19321319743264
 30
0.0
 10
57.571554144152969
 20
-174.46632473715562
 30
0.0
 10
58.587767605881936
 20
-172.80210546833749
 30
0.0
 10
59.63634271297488
 20
-171.20112766381368
 30
0.0
 10
60.716592012650551
 20
-169.66389605688846
 30
0.0
 10
61.827800695828998
 20
-168.19084753452557
 30
0.0
 10
62.394784302524315
 20
-167.47850986931039
 30
0.0
 10
62.969228041301591
 20
-166.78235100471633
 30
0.0
 10
63.551035518250643
 20
-166.10240643907474
 30
0.0
 10
64.140108909025216
 20
-165.43870743633508
 30
0.0
 10
64.736349007777918
 20
-164.79128103656137
 30
0.0
 10
65.33965527662923
 20
-164.16015006900756
 30
0.0
 10
65.949925895622584
 20
-163.54533316773887
 30
0.0
 10
66.5670578131177
 20
-162.94684478976467
 30
0.0
 10
67.190946796574536
 20
-162.3646952356452
 30
0.0
 10
67.821487483679775
 20
-161.79889067253185
 30
0.0
 42
0.6915255342599423
 10
67.160953524786606
 20
-160.04809450235717
 30
0.0
 10
40.947612494878257
 20
-160.04809450235723
 30
0.0
 10
40.947612494878257
 20
-162.3980944998421
 30
0.0
 10
45.947612494878257
 20
-162.3980945023572
 30
0.0
 10
45.947612494878257
 20
-165.04809450235723
 30
0.0
 10
41.947612493598143
 20
-165.04809450235723
 30
0.0
 10
41.947612492575985
 20
-180.04809450235723
 30
0.0
 10
45.947612490273698
 20
-180.04809450235723
 30
0.0
  0
LINE
  5
8B
100
AcDbEntity
  8
D\U+fffdFAUT
 62
256
370
-1
 48
1.0
  6
BYLAYER
100
AcDbLine
 10
301.73988933482821
 20
-293.63199627927355
 30
0.0
 11
304.53988910907088
 21
-293.63312066395906
 31
0.0
  0
LINE
  5
8C
100
AcDbEntity
  8
D\U+fffdFAUT
 62
256
370
-1
 48
1.0
  6
BYLAYER
100
AcDbLine
 10
-43.357439842638897
 20
-41.103246920199524
 30
0.0
 11
-45.503086850976331
 21
-42.902190753567595
 31
0.0
  0
CIRCLE
  5
8D
100
AcDbEntity
  8
D\U+fffdFAUT
 62
256
370
-1
 48
1.0
  6
BYLAYER
100
AcDbCircle
 10
311.39820595861266
 20
-133.89158101643602
 30
0.0
 40
115.61754625523309
  0
LWPOLYLINE
  5
8E
100
AcDbEntity
  8
D\U+fffdFAUT
 62
256
370
-1
 48
1.0
  6
BYLAYER
100
AcDbPolyline
 90
46
 70
1
 10
33.160953529391136
 20
-206.3980945023111
 30
0.0
 10
38.160953524786592
 20
-206.39809450215091
 30
0.0
 10
38.160953524786564
 20
-160.04809450246654
 30
0.0
 10
35.894914038308841
 20
-160.04809450235717
 30
0.0
 42
0.3997682387250079
 10
34.896142382152519
 20
-160.9985447413174
 30
0.0
 10
34.53602611819241
 20
-166.64085706464672
 30
0.0
 10
34.021632823917273
 20
-172.1338061116634
 30
0.0
 10
33.352134850166877
 20
-177.46441372410357
 30
0.0
 10
32.527324452750875
 20
-182.62017042116565
 30
0.0
 10
32.056784737833041
 20
-185.12872160290658
 30
0.0
 10
31.547625700451135
 20
-187.58912848761133
 30
0.0
 10
31.0
 20
-190.0
 30
0.0
 10
30.414100140922173
 20
-192.35999102125368
 30
0.0
 10
29.790158295572581
 20
-194.6678048563781
 30
0.0
 10
29.128446024904463
 20
-196.92219558767266
 30
0.0
 10
28.429273897556172
 20
-199.12197030540733
 30
0.0
 10
27.692991008406167
 20
-201.26599120736091
 30
0.0
 10
26.91998439814607
 20
-203.35317755947835
 30
0.0
 10
26.110678375896043
 20
-205.38250751055671
 30
0.0
 10
25.265533747348755
 20
-207.35301975456571
 30
0.0
 10
24.385046951374932
 20
-209.26381503494633
 30
0.0
 10
23.469749108450927
 20
-211.11405748599429
 30
0.0
 10
22.520204984674081
 20
-212.90297580723569
 30
0.0
 10
21.537011875511865
 20
-214.62986426751274
 30
0.0
 10
20.520798413782913
 20
-216.29408353633085
 30
0.0
 10
19.472223306689955
 20
-217.89506134085468
 30
0.0
 10
18.391974007014284
 20
-219.4322929477799
 30
0.0
 10
17.280765323835851
 20
-220.90534147014279
 30
0.0
 10
16.713781717140513
 20
-221.617679135358
 30
0.0
 10
16.139337978363251
 20
-222.31383799995206
 30
0.0
 10
15.557530501414192
 20
-222.99378256559362
 30
0.0
 10
14.968457110639633
 20
-223.65748156833331
 30
0.0
 10
14.372217011886924
 20
-224.30490796810699
 30
0.0
 10
13.768910743035605
 20
-224.9360389356608
 30
0.0
 10
13.15864012404225
 20
-225.55085583692949
 30
0.0
 10
12.541508206547142
 20
-226.14934421490364
 30
0.0
 10
11.917619223090306
 20
-226.73149376902313
 30
0.0
 10
11.287078535985067
 20
-227.29729833213651
 30
0.0
 42
0.6915255342599394
 10
11.947612494878229
 20
-229.04809450231119
 30
0.0
 10
38.160953524786578
 20
-229.04809450231113
 30
0.0
 10
38.160953524786578
 20
-226.69809450482626
 30
0.0
 10
33.160953524786578
 20
-226.69809450231116
 30
0.0
 10
33.160953524786578
 20
-224.04809450231113
 30
0.0
 10
37.160953526066692
 20
-224.04809450231113
 30
0.0
 10
37.16095352708885
 20
-209.04809450231113
 30
0.0
 10
33.160953529391136
 20
-209.04809450231113
 30
0.0
  0
LWPOLYLINE
  5
8F
100
AcDbEntity
  8
D\U+fffdFAUT
 62
256
370
-1
 48
1.0
  6
BYLAYER
100
AcDbPolyline
 90
46
 70
1
 10
10.947612490273698
 20
-182.69809450235721
 30
0.0
 10
5.9476124948782498
 20
-182.69809450251745
 30
0.0
 10
5.9476124948782711
 20
-229.04809450220182
 30
0.0
 10
8.2136519813559943
 20
-229.04809450231119
 30
0.0
 42
0.3997682387250072
 10
9.2124236375123161
 20
-228.09764426335096
 30
0.0
 10
9.5725399014724317
 20
-222.45533194002167
 30
0.0
 10
10.086933195747562
 20
-216.96238289300493
 30
0.0
 10
10.756431169497958
 20
-211.6317752805648
 30
0.0
 10
11.58124156691396
 20
-206.47601858350271
 30
0.0
 10
12.051781281831794
 20
-203.96746740176172
 30
0.0
 10
12.560940319213699
 20
-201.50706051705708
 30
0.0
 10
13.108566019664835
 20
-199.09618900466836
 30
0.0
 10
13.694465878742669
 20
-196.73619798341468
 30
0.0
 10
14.318407724092268
 20
-194.42838414829026
 30
0.0
 10
14.980119994760386
 20
-192.1739934169957
 30
0.0
 10
15.67929212210867
 20
-189.97421869926103
 30
0.0
 10
16.415575011258682
 20
-187.83019779730745
 30
0.0
 10
17.188581621518779
 20
-185.74301144518995
 30
0.0
 10
17.997887643768792
 20
-183.71368149411165
 30
0.0
 10
18.843032272316094
 20
-181.74316925010262
 30
0.0
 10
19.723519068289903
 20
-179.83237396972203
 30
0.0
 10
20.638816911213908
 20
-177.98213151867407
 30
0.0
 10
21.588361034990754
 20
-176.19321319743264
 30
0.0
 10
22.571554144152969
 20
-174.46632473715562
 30
0.0
 10
23.587767605881936
 20
-172.80210546833749
 30
0.0
 10
24.63634271297488
 20
-171.20112766381368
 30
0.0
 10
25.716592012650551
 20
-169.66389605688846
 30
0.0
 10
26.827800695828984
 20
-168.19084753452557
 30
0.0
 10
27.394784302524329
 20
-167.47850986931039
 30
0.0
 10
27.969228041301591
 20
-166.78235100471633
 30
0.0
 10
28.551035518250643
 20
-166.10240643907474
 30
0.0
 10
29.140108909025201
 20
-165.43870743633508
 30
0.0
 10
29.736349007777903
 20
-164.79128103656137
 30
0.0
 10
30.33965527662923
 20
-164.16015006900756
 30
0.0
 10
30.949925895622584
 20
-163.54533316773887
 30
0.0
 10
31.5670578131177
 20
-162.94684478976467
 30
0.0
 10
32.190946796574536
 20
-162.3646952356452
 30
0.0
 10
32.821487483679761
 20
-161.79889067253185
 30
0.0
 42
0.6915255342599369
 10
32.160953524786606
 20
-160.04809450235717
 30
0.0
 10
5.9476124948782569
 20
-160.04809450235723
 30
0.0
 10
5.9476124948782569
 20
-162.3980944998421
 30
0.0
 10
10.947612494878257
 20
-162.3980945023572
 30
0.0
 10
10.947612494878257
 20
-165.04809450235723
 30
0.0
 10
6.9476124935981431
 20
-165.04809450235723
 30
0.0
 10
6.9476124925759848
 20
-180.04809450235723
 30
0.0
 10
10.947612490273698
 20
-180.04809450235723
 30
0.0
  0
LINE
  5
90
100
AcDbEntity
  8
D\U+fffdFAUT
 62
256
370
-1
 48
1.0
  6
BYLAYER
100
AcDbLine
 10
-45.503086850976331
 20
-42.902190753567595
 30
0.0
 11
-48.702759813999279
 21
-39.085857751155231
 31
0.0
  0
LINE
  5
91
100
AcDbEntity
  8
D\U+fffdFAUT
 62
256
370
-1
 48
1.0
  6
BYLAYER
100
AcDbLine
 10
304.53988910907088
 20
-293.63312066395906
 30
0.0
 11
304.53788923380449
 21
-298.61331148922875
 31
0.0
  0
LINE
  5
92
100
AcDbEntity
  8
D\U+fffdFAUT
 62
256
370
-1
 48
1.0
  6
BYLAYER
100
AcDbLine
 10
-48.702759813999279
 20
-39.085857751155231
 30
0.0
 11
-109.91700103651581
 21
-207.06069234920136
 31
0.0
  0
LINE
  5
93
100
AcDbEntity
  8
D\U+fffdFAUT
 62
256
370
-1
 48
1.0
  6
BYLAYER
100
AcDbLine
 10
304.53788923380449
 20
-298.61331148922875
 30
0.0
 11
459.4028609808276
 21
-209.2848786557623
 31
0.0
  0
LINE
  5
94
100
AcDbEntity
  8
D\U+fffdFAUT
 62
256
370
-1
 48
1.0
  6
BYLAYER
100
AcDbLine
 10
-109.91700103651581
 20
-207.06069234920136
 30
0.0
 11
-105.01212324571543
 21
-206.19786078416226
 31
0.0
  0
LINE
  5
95
100
AcDbEntity
  8
D\U+fffdFAUT
 62
256
370
-1
 48
1.0
  6
BYLAYER
100
AcDbLine
 10
459.4028609808276
 20
-209.2848786557623
 30
0.0
 11
455.09088916575456
 21
-206.79305131055381
 31
0.0
  0
LINE
  5
96
100
AcDbEntity
  8
D\U+fffdFAUT
 62
256
370
-1
 48
1.0
  6
BYLAYER
100
AcDbLine
 10
-105.01212324571543
 20
-206.19786078416226
 30
0.0
 11
-104.52701569020573
 21
-208.95551751762304
 31
0.0
  0
LINE
  5
97
100
AcDbEntity
  8
D\U+fffdFAUT
 62
256
370
-1
 48
1.0
  6
BYLAYER
100
AcDbLine
 10
455.09088916575456
 20
-206.79305131055381
 30
0.0
 11
456.49186279857724
 21
-204.36874256781184
 31
0.0
  0
LINE
  5
98
100
AcDbEntity
  8
D\U+fffdFAUT
 62
256
370
-1
 48
1.0
  6
BYLAYER
100
AcDbLine
 10
-104.52701569020573
 20
-208.95551751762304
 30
0.0
 11
-109.43189350110688
 21
-209.81834908619919
 31
0.0
  0
LINE
  5
99
100
AcDbEntity
  8
D\U+fffdFAUT
 62
256
370
-1
 48
1.0
  6
BYLAYER
100
AcDbLine
 10
456.49186279857724
 20
-204.36874256781184
 30
0.0
 11
460.80383463132199
 21
-206.86056992323179
 31
0.0
  0
ARC
  5
9A
100
AcDbEntity
  8
D\U+fffdFAUT
 62
256
370
-1
 48
1.0
  6
BYLAYER
100
AcDbCircle
 10
68.836887698628956
 20
-177.00689482516026
 30
0.0
 40
147.98991625470771
100
AcDbArc
 50
40.000009239244235
 51
219.99999076075568
  0
ARC
  5
9B
100
AcDbEntity
  8
D\U+fffdFAUT
 62
256
370
-1
 48
1.0
  6
BYLAYER
100
AcDbCircle
 10
303.15122915687999
 20
-117.40663838143992
 30
0.0
 40
147.98991625470771
100
AcDbArc
 50
180.00000923924429
 51
359.99999076075574
  0
LINE
  5
9C
100
AcDbEntity
  8
D\U+fffdFAUT
 62
256
370
-1
 48
1.0
  6
BYLAYER
100
AcDbLine
 10
-109.43189350110688
 20
-209.81834908619919
 30
0.0
 11
-51.959548148931191
 21
-278.36710831121269
 31
0.0
  0
LINE
  5
9D
100
AcDbEntity
  8
D\U+fffdFAUT
 62
256
370
-1
 48
1.0
  6
BYLAYER
100
AcDbLine
 10
460.80383463132199
 20
-206.86056992323179
 30
0.0
 11
460.8397569304986
 21
-117.40666234420219
 31
0.0
  0
LINE
  5
9E
100
AcDbEntity
  8
D\U+fffdFAUT
 62
256
370
-1
 48
1.0
  6
BYLAYER
100
AcDbLine
 10
189.54224421376233
 20
-75.723043434602999
 30
0.0
 11
132.15123633396578
 21
-7.2712975257580581
 31
0.0
  0
LINE
  5
9F
100
AcDbEntity
  8
D\U+fffdFAUT
 62
256
370
-1
 48
1.0
  6
BYLAYER
100
AcDbLine
 10
145.58155680858408
 20
-117.40666232614068
 30
0.0
 11
145.54568534828303
 21
-206.73397067395931
 31
0.0
  0
LINE
  5
A0
100
AcDbEntity
  8
0
 62
256
370
-1
 48
1.0
  6
BYLAYER
100
AcDbLine
 10
-51.959548148931191
 20
-278.36710831121269
 30
0.0
 11
-44.52998062551039
 21
-272.13296107123529
 31
0.0
  0
ENDSEC
  0
SECTION
  2
OBJECTS
  0
DICTIONARY
  5
C
100
AcDbDictionary
280
0
281
1
  3
ACAD_GROUP
350
D
  3
ACAD_LAYOUT
350
1A
  3
ACAD_MLINESTYLE
350
17
  3
ACAD_PLOTSETTINGS
350
19
  3
ACAD_PLOTSTYLENAME
350
E
  3
AcDbVariableDictionary
350
A1
  3
QCAD_OBJECTS
350
A2
  0
DICTIONARY
  5
D
100
AcDbDictionary
280
0
281
1
  0
ACDBDICTIONARYWDFLT
  5
E
100
AcDbDictionary
281
1
  3
Normal
350
F
100
AcDbDictionaryWithDefault
340
F
  0
ACDBPLACEHOLDER
  5
F
  0
DICTIONARY
  5
17
100
AcDbDictionary
280
0
281
1
  3
Standard
350
18
  0
MLINESTYLE
  5
18
100
AcDbMlineStyle
  2
STANDARD
 70
0
  3

 62
256
 51
90.0
 52
90.0
 71
2
 49
0.5
 62
256
  6
BYLAYER
 49
-0.5
 62
256
  6
BYLAYER
  0
DICTIONARY
  5
19
100
AcDbDictionary
280
0
281
1
  0
DICTIONARY
  5
1A
100
AcDbDictionary
281
1
  3
Layout1
350
1E
  3
Layout2
350
26
  3
Model
350
22
  0
LAYOUT
  5
1E
100
AcDbPlotSettings
  1

  2
none_device
  4

  6

 40
0.0
 41
0.0
 42
0.0
 43
0.0
 44
0.0
 45
0.0
 46
0.0
 47
0.0
 48
0.0
 49
0.0
140
0.0
141
0.0
142
1.0
143
1.0
 70
688
 72
0
 73
0
 74
5
  7

 75
16
147
1.0
148
0.0
149
0.0
100
AcDbLayout
  1
Layout1
 70
1
 71
1
 10
0.0
 20
0.0
 11
420.0
 21
297.0
 12
0.0
 22
0.0
 32
0.0
 14
100000000000000000000.0
 24
100000000000000000000.0
 34
100000000000000000000.0
 15
-100000000000000000000.0
 25
-100000000000000000000.0
 35
-100000000000000000000.0
146
0.0
 13
0.0
 23
0.0
 33
0.0
 16
1.0
 26
0.0
 36
0.0
 17
0.0
 27
1.0
 37
0.0
 76
0
330
1B
  0
LAYOUT
  5
22
100
AcDbPlotSettings
  1

  2
none_device
  4

  6

 40
0.0
 41
0.0
 42
0.0
 43
0.0
 44
0.0
 45
0.0
 46
0.0
 47
0.0
 48
0.0
 49
0.0
140
0.0
141
0.0
142
1.0
143
1.0
 70
1712
 72
0
 73
0
 74
0
  7

 75
0
147
1.0
148
0.0
149
0.0
100
AcDbLayout
  1
Model
 70
1
 71
0
 10
0.0
 20
0.0
 11
12.0
 21
9.0
 12
0.0
 22
0.0
 32
0.0
 14
0.0
 24
0.0
 34
0.0
 15
0.0
 25
0.0
 35
0.0
146
0.0
 13
0.0
 23
0.0
 33
0.0
 16
1.0
 26
0.0
 36
0.0
 17
0.0
 27
1.0
 37
0.0
 76
0
330
1F
  0
LAYOUT
  5
26
100
AcDbPlotSettings
  1

  2
none_device
  4

  6

 40
0.0
 41
0.0
 42
0.0
 43
0.0
 44
0.0
 45
0.0
 46
0.0
 47
0.0
 48
0.0
 49
0.0
140
0.0
141
0.0
142
1.0
143
1.0
 70
688
 72
0
 73
0
 74
5
  7

 75
16
147
1.0
148
0.0
149
0.0
100
AcDbLayout
  1
Layout2
 70
1
 71
2
 10
0.0
 20
0.0
 11
12.0
 21
9.0
 12
0.0
 22
0.0
 32
0.0
 14
0.0
 24
0.0
 34
0.0
 15
0.0
 25
0.0
 35
0.0
146
0.0
 13
0.0
 23
0.0
 33
0.0
 16
1.0
 26
0.0
 36
0.0
 17
0.0
 27
1.0
 37
0.0
 76
0
330
23
  0
DICTIONARY
  5
A1
100
AcDbDictionary
281
1
  3
DIMASSOC
350
A4
  3
HIDETEXT
350
A3
  0
DICTIONARYVAR
  5
A3
100
DictionaryVariables
280
0
  1
2
  0
DICTIONARYVAR
  5
A4
100
DictionaryVariables
280
0
  1
1
  0
DICTIONARY
  5
A2
100
AcDbDictionary
281
1
  3
ColorSettings/BackgroundColor
350
A5
  3
ColorSettings/ColorMode
350
A6
  3
Grid/DisplayGrid00
350
A7
  3
Grid/DisplayGrid01
350
A8
  3
Grid/DisplayGrid02
350
A9
  3
Grid/DisplayGrid03
350
AA
  3
Grid/GridSpacingX00
350
AB
  3
Grid/GridSpacingX01
350
AC
  3
Grid/GridSpacingX02
350
AD
  3
Grid/GridSpacingX03
350
AE
  3
Grid/GridSpacingY00
350
AF
  3
Grid/GridSpacingY01
350
B0
  3
Grid/GridSpacingY02
350
B1
  3
Grid/GridSpacingY03
350
B2
  3
Grid/IsometricGrid00
350
B3
  3
Grid/IsometricGrid01
350
B4
  3
Grid/IsometricGrid02
350
B5
  3
Grid/IsometricGrid03
350
B6
  3
Grid/IsometricProjection00
350
B7
  3
Grid/IsometricProjection01
350
B8
  3
Grid/IsometricProjection02
350
B9
  3
Grid/IsometricProjection03
350
BA
  3
Grid/MetaGridSpacingX00
350
BB
  3
Grid/MetaGridSpacingX01
350
BC
  3
Grid/MetaGridSpacingX02
350
BD
  3
Grid/MetaGridSpacingX03
350
BE
  3
Grid/MetaGridSpacingY00
350
BF
  3
Grid/MetaGridSpacingY01
350
C0
  3
Grid/MetaGridSpacingY02
350
C1
  3
Grid/MetaGridSpacingY03
350
C2
  3
MultiPageSettings/Columns
350
C3
  3
MultiPageSettings/GlueMarginsBottom
350
C4
  3
MultiPageSettings/GlueMarginsLeft
350
C5
  3
MultiPageSettings/GlueMarginsRight
350
C6
  3
MultiPageSettings/GlueMarginsTop
350
C7
  3
MultiPageSettings/PrintCropMarks
350
C8
  3
MultiPageSettings/Rows
350
C9
  3
PageSettings/OffsetX
350
CA
  3
PageSettings/OffsetY
350
CB
  3
PageSettings/PageOrientation
350
CC
  3
PageSettings/PaperHeight
350
CD
  3
PageSettings/PaperWidth
350
CE
  3
PageSettings/Scale
350
CF
  3
PageSettings/ShowPaperBorders
350
D0
  3
QCADVersion
350
D1
  3
UnitSettings/PaperUnit
350
D2
  3
ViewportCenter
350
D3
  3
ViewportHeight
350
D4
  3
ViewportWidth
350
D5
  0
XRECORD
  5
A5
330
A2
100
AcDbXrecord
280
1
1000
Blanc
  0
XRECORD
  5
A6
330
A2
100
AcDbXrecord
280
1
1000
FullColor
  0
XRECORD
  5
A7
330
A2
100
AcDbXrecord
280
1
290
1
  0
XRECORD
  5
A8
330
A2
100
AcDbXrecord
280
1
290
1
  0
XRECORD
  5
A9
330
A2
100
AcDbXrecord
280
1
290
1
  0
XRECORD
  5
AA
330
A2
100
AcDbXrecord
280
1
290
1
  0
XRECORD
  5
AB
330
A2
100
AcDbXrecord
280
1
1000
auto
  0
XRECORD
  5
AC
330
A2
100
AcDbXrecord
280
1
1000
auto
  0
XRECORD
  5
AD
330
A2
100
AcDbXrecord
280
1
1000
auto
  0
XRECORD
  5
AE
330
A2
100
AcDbXrecord
280
1
1000
auto
  0
XRECORD
  5
AF
330
A2
100
AcDbXrecord
280
1
1000
auto
  0
XRECORD
  5
B0
330
A2
100
AcDbXrecord
280
1
1000
auto
  0
XRECORD
  5
B1
330
A2
100
AcDbXrecord
280
1
1000
auto
  0
XRECORD
  5
B2
330
A2
100
AcDbXrecord
280
1
1000
auto
  0
XRECORD
  5
B3
330
A2
100
AcDbXrecord
280
1
290
0
  0
XRECORD
  5
B4
330
A2
100
AcDbXrecord
280
1
290
0
  0
XRECORD
  5
B5
330
A2
100
AcDbXrecord
280
1
290
0
  0
XRECORD
  5
B6
330
A2
100
AcDbXrecord
280
1
290
0
  0
XRECORD
  5
B7
330
A2
100
AcDbXrecord
280
1
 90
0
  0
XRECORD
  5
B8
330
A2
100
AcDbXrecord
280
1
 90
0
  0
XRECORD
  5
B9
330
A2
100
AcDbXrecord
280
1
 90
0
  0
XRECORD
  5
BA
330
A2
100
AcDbXrecord
280
1
 90
0
  0
XRECORD
  5
BB
330
A2
100
AcDbXrecord
280
1
1000
auto
  0
XRECORD
  5
BC
330
A2
100
AcDbXrecord
280
1
1000
auto
  0
XRECORD
  5
BD
330
A2
100
AcDbXrecord
280
1
1000
auto
  0
XRECORD
  5
BE
330
A2
100
AcDbXrecord
280
1
1000
auto
  0
XRECORD
  5
BF
330
A2
100
AcDbXrecord
280
1
1000
auto
  0
XRECORD
  5
C0
330
A2
100
AcDbXrecord
280
1
1000
auto
  0
XRECORD
  5
C1
330
A2
100
AcDbXrecord
280
1
1000
auto
  0
XRECORD
  5
C2
330
A2
100
AcDbXrecord
280
1
1000
auto
  0
XRECORD
  5
C3
330
A2
100
AcDbXrecord
280
1
 90
1
  0
XRECORD
  5
C4
330
A2
100
AcDbXrecord
280
1
 40
10.0
  0
XRECORD
  5
C5
330
A2
100
AcDbXrecord
280
1
 40
10.0
  0
XRECORD
  5
C6
330
A2
100
AcDbXrecord
280
1
 40
10.0
  0
XRECORD
  5
C7
330
A2
100
AcDbXrecord
280
1
 40
10.0
  0
XRECORD
  5
C8
330
A2
100
AcDbXrecord
280
1
290
0
  0
XRECORD
  5
C9
330
A2
100
AcDbXrecord
280
1
 90
1
  0
XRECORD
  5
CA
330
A2
100
AcDbXrecord
280
1
 40
0.0
  0
XRECORD
  5
CB
330
A2
100
AcDbXrecord
280
1
 40
0.0
  0
XRECORD
  5
CC
330
A2
100
AcDbXrecord
280
1
1000
Portrait
  0
XRECORD
  5
CD
330
A2
100
AcDbXrecord
280
1
 40
297.0
  0
XRECORD
  5
CE
330
A2
100
AcDbXrecord
280
1
 40
210.0
  0
XRECORD
  5
CF
330
A2
100
AcDbXrecord
280
1
1000
1:1
  0
XRECORD
  5
D0
330
A2
100
AcDbXrecord
280
1
290
1
  0
XRECORD
  5
D1
330
A2
100
AcDbXrecord
280
1
1000
3.16.5
  0
XRECORD
  5
D2
330
A2
100
AcDbXrecord
280
1
 90
4
  0
XRECORD
  5
D4
330
A2
100
AcDbXrecord
280
1
 40
330.12213862469281
  0
XRECORD
  5
D5
330
A2
100
AcDbXrecord
280
1
 40
717.65682309715828
  0
ENDSEC
  0
EOF
