  0
SECTION
  2
HEADER
  9
$ACADVER
  1
AC1012
  9
$DWGCODEPAGE
  3
ansi_1252
  9
$INSBASE
 10
0.0
 20
0.0
 30
0.0
  9
$EXTMIN
 10
0.0
 20
-29.63844983191741
 30
0.0
  9
$EXTMAX
 10
168.5201424404145
 20
150.2339379108367
 30
0.0
  9
$LIMMIN
 10
0.0
 20
0.0
  9
$LIMMAX
 10
12.0
 20
9.0
  9
$ORTHOMODE
 70
     0
  9
$REGENMODE
 70
     1
  9
$FILLMODE
 70
     1
  9
$QTEXTMODE
 70
     0
  9
$MIRRTEXT
 70
     0
  9
$DRAGMODE
 70
     2
  9
$LTSCALE
 40
1.0
  9
$OSMODE
 70
   183
  9
$ATTMODE
 70
     1
  9
$TEXTSIZE
 40
0.2
  9
$TRACEWID
 40
0.05
  9
$TEXTSTYLE
  7
STANDARD
  9
$CLAYER
  8
0
  9
$CELTYPE
  6
BYLAYER
  9
$CECOLOR
 62
   256
  9
$CELTSCALE
 40
1.0
  9
$DELOBJ
 70
     1
  9
$DISPSILH
 70
     0
  9
$DIMSCALE
 40
1.0
  9
$DIMASZ
 40
0.18
  9
$DIMEXO
 40
0.0625
  9
$DIMDLI
 40
0.38
  9
$DIMRND
 40
0.0
  9
$DIMDLE
 40
0.0
  9
$DIMEXE
 40
0.18
  9
$DIMTP
 40
0.0
  9
$DIMTM
 40
0.0
  9
$DIMTXT
 40
0.18
  9
$DIMCEN
 40
0.09
  9
$DIMTSZ
 40
0.0
  9
$DIMTOL
 70
     0
  9
$DIMLIM
 70
     0
  9
$DIMTIH
 70
     1
  9
$DIMTOH
 70
     1
  9
$DIMSE1
 70
     0
  9
$DIMSE2
 70
     0
  9
$DIMTAD
 70
     0
  9
$DIMZIN
 70
     0
  9
$DIMBLK
  1

  9
$DIMASO
 70
     1
  9
$DIMSHO
 70
     1
  9
$DIMPOST
  1

  9
$DIMAPOST
  1

  9
$DIMALT
 70
     0
  9
$DIMALTD
 70
     2
  9
$DIMALTF
 40
25.4
  9
$DIMLFAC
 40
1.0
  9
$DIMTOFL
 70
     0
  9
$DIMTVP
 40
0.0
  9
$DIMTIX
 70
     0
  9
$DIMSOXD
 70
     0
  9
$DIMSAH
 70
     0
  9
$DIMBLK1
  1

  9
$DIMBLK2
  1

  9
$DIMSTYLE
  2
STANDARD
  9
$DIMCLRD
 70
     0
  9
$DIMCLRE
 70
     0
  9
$DIMCLRT
 70
     0
  9
$DIMTFAC
 40
1.0
  9
$DIMGAP
 40
0.09
  9
$DIMJUST
 70
     0
  9
$DIMSD1
 70
     0
  9
$DIMSD2
 70
     0
  9
$DIMTOLJ
 70
     1
  9
$DIMTZIN
 70
     0
  9
$DIMALTZ
 70
     0
  9
$DIMALTTZ
 70
     0
  9
$DIMFIT
 70
     3
  9
$DIMUPT
 70
     0
  9
$DIMUNIT
 70
     2
  9
$DIMDEC
 70
     4
  9
$DIMTDEC
 70
     4
  9
$DIMALTU
 70
     2
  9
$DIMALTTD
 70
     2
  9
$DIMTXSTY
  7
STANDARD
  9
$DIMAUNIT
 70
     0
  9
$LUNITS
 70
     2
  9
$LUPREC
 70
     4
  9
$SKETCHINC
 40
0.1
  9
$FILLETRAD
 40
0.0
  9
$AUNITS
 70
     0
  9
$AUPREC
 70
     0
  9
$MENU
  1
.
  9
$ELEVATION
 40
0.0
  9
$PELEVATION
 40
0.0
  9
$THICKNESS
 40
0.0
  9
$LIMCHECK
 70
     0
  9
$CHAMFERA
 40
0.0
  9
$CHAMFERB
 40
0.0
  9
$CHAMFERC
 40
0.0
  9
$CHAMFERD
 40
0.0
  9
$SKPOLY
 70
     0
  9
$TDCREATE
 40
2452643.105050937
  9
$TDUPDATE
 40
2457740.824910671
  9
$TDINDWG
 40
0.0045502083
  9
$TDUSRTIMER
 40
2457740.782684132
  9
$USRTIMER
 70
     1
  9
$ANGBASE
 50
0.0
  9
$ANGDIR
 70
     0
  9
$PDMODE
 70
     0
  9
$PDSIZE
 40
0.0
  9
$PLINEWID
 40
0.0
  9
$COORDS
 70
     2
  9
$SPLFRAME
 70
     0
  9
$SPLINETYPE
 70
     6
  9
$SPLINESEGS
 70
     8
  9
$ATTDIA
 70
     0
  9
$ATTREQ
 70
     1
  9
$HANDLING
 70
     1
  9
$HANDSEED
  5
6E9
  9
$SURFTAB1
 70
     6
  9
$SURFTAB2
 70
     6
  9
$SURFTYPE
 70
     6
  9
$SURFU
 70
     6
  9
$SURFV
 70
     6
  9
$UCSNAME
  2

  9
$UCSORG
 10
0.0
 20
0.0
 30
0.0
  9
$UCSXDIR
 10
1.0
 20
0.0
 30
0.0
  9
$UCSYDIR
 10
0.0
 20
1.0
 30
0.0
  9
$PUCSNAME
  2

  9
$PUCSORG
 10
0.0
 20
0.0
 30
0.0
  9
$PUCSXDIR
 10
1.0
 20
0.0
 30
0.0
  9
$PUCSYDIR
 10
0.0
 20
1.0
 30
0.0
  9
$USERI1
 70
     0
  9
$USERI2
 70
     0
  9
$USERI3
 70
     0
  9
$USERI4
 70
     0
  9
$USERI5
 70
     0
  9
$USERR1
 40
0.0
  9
$USERR2
 40
0.0
  9
$USERR3
 40
0.0
  9
$USERR4
 40
0.0
  9
$USERR5
 40
0.0
  9
$WORLDVIEW
 70
     1
  9
$SHADEDGE
 70
     3
  9
$SHADEDIF
 70
    70
  9
$TILEMODE
 70
     1
  9
$MAXACTVP
 70
    64
  9
$PINSBASE
 10
0.0
 20
0.0
 30
0.0
  9
$PLIMCHECK
 70
     0
  9
$PEXTMIN
 10
0.0
 20
0.0
 30
0.0
  9
$PEXTMAX
 10
0.0
 20
0.0
 30
0.0
  9
$PLIMMIN
 10
0.0
 20
0.0
  9
$PLIMMAX
 10
0.0
 20
0.0
  9
$UNITMODE
 70
     0
  9
$VISRETAIN
 70
     1
  9
$PLINEGEN
 70
     0
  9
$PSLTSCALE
 70
     1
  9
$TREEDEPTH
 70
  3020
  9
$PICKSTYLE
 70
     1
  9
$CMLSTYLE
  2
STANDARD
  9
$CMLJUST
 70
     0
  9
$CMLSCALE
 40
1.0
  9
$SAVEIMAGES
 70
     1
  0
ENDSEC
  0
SECTION
  2
CLASSES
  0
CLASS
  1
ACDBDICTIONARYWDFLT
  2
AcDbDictionaryWithDefault
  3
ObjectDBX Classes
 90
    32768
280
     0
281
     0
  0
CLASS
  1
ACDBPLACEHOLDER
  2
AcDbPlaceHolder
  3
ObjectDBX Classes
 90
        0
280
     0
281
     0
  0
CLASS
  1
LAYOUT
  2
AcDbLayout
  3
ObjectDBX Classes
 90
        0
280
     0
281
     0
  0
CLASS
  1
DICTIONARYVAR
  2
AcDbDictionaryVar
  3
ObjectDBX Classes
 90
        0
280
     0
281
     0
  0
CLASS
  1
TABLESTYLE
  2
AcDbTableStyle
  3
ObjectDBX Classes
 90
     4095
280
     0
281
     0
  0
CLASS
  1
MATERIAL
  2
AcDbMaterial
  3
ObjectDBX Classes
 90
     1153
280
     0
281
     0
  0
CLASS
  1
VISUALSTYLE
  2
AcDbVisualStyle
  3
ObjectDBX Classes
 90
     4095
280
     0
281
     0
  0
CLASS
  1
SCALE
  2
AcDbScale
  3
ObjectDBX Classes
 90
     1153
280
     0
281
     0
  0
CLASS
  1
CELLSTYLEMAP
  2
AcDbCellStyleMap
  3
ObjectDBX Classes
 90
     1152
280
     0
281
     0
  0
CLASS
  1
RASTERVARIABLES
  2
AcDbRasterVariables
  3
ISM
 90
    32768
280
     0
281
     0
  0
CLASS
  1
SUN
  2
AcDbSun
  3
SCENEOE
 90
     1153
280
     0
281
     0
  0
CLASS
  1
MLEADERSTYLE
  2
AcDbMLeaderStyle
  3
ACDB_MLEADERSTYLE_CLASS
 90
     4095
280
     0
281
     0
  0
CLASS
  1
XRECORD
  2
AcDbXrecord
  3
ObjectDBX Classes
 90
    32768
280
     0
281
     0
  0
ENDSEC
  0
SECTION
  2
TABLES
  0
TABLE
  2
VPORT
  5
8
330
0
100
AcDbSymbolTable
 70
     1
  0
VPORT
  5
94
330
8
100
AcDbSymbolTableRecord
100
AcDbViewportTableRecord
  2
*ACTIVE
 70
     0
 10
0.0
 20
0.0
 11
1.0
 21
1.0
 12
237.0964447402152
 22
66.01386446851798
 13
0.0
 23
0.0
 14
0.5
 24
0.5
 15
0.5
 25
0.5
 16
0.0
 26
0.0
 36
1.0
 17
-27.66959356597977
 27
-19.53870295786203
 37
0.0
 40
391.0015168782716
 41
2.161917098445596
 42
50.0
 43
0.0
 44
0.0
 50
0.0
 51
0.0
 71
    16
 72
  1000
 73
     1
 74
     3
 75
     0
 76
     0
 77
     0
 78
     0
  0
ENDTAB
  0
TABLE
  2
LTYPE
  5
5
330
0
100
AcDbSymbolTable
 70
     1
  0
LTYPE
  5
14
330
5
100
AcDbSymbolTableRecord
100
AcDbLinetypeTableRecord
  2
BYBLOCK
 70
     0
  3

 72
    65
 73
     0
 40
0.0
  0
LTYPE
  5
15
330
5
100
AcDbSymbolTableRecord
100
AcDbLinetypeTableRecord
  2
BYLAYER
 70
     0
  3

 72
    65
 73
     0
 40
0.0
  0
LTYPE
  5
16
330
5
100
AcDbSymbolTableRecord
100
AcDbLinetypeTableRecord
  2
CONTINUOUS
 70
     0
  3
Solid line
 72
    65
 73
     0
 40
0.0
  0
ENDTAB
  0
TABLE
  2
LAYER
  5
2
102
{ACAD_XDICTIONARY
360
2D1
102
}
330
0
100
AcDbSymbolTable
 70
     5
  0
LAYER
  5
10
330
2
100
AcDbSymbolTableRecord
100
AcDbLayerTableRecord
  2
0
 70
     0
 62
     7
  6
CONTINUOUS
  0
LAYER
  5
127
330
2
100
AcDbSymbolTableRecord
100
AcDbLayerTableRecord
  2
-01
 70
     0
 62
     5
  6
CONTINUOUS
1001
ACAECLAYERSTANDARD
1000

1000

  0
LAYER
  5
12A
330
2
100
AcDbSymbolTableRecord
100
AcDbLayerTableRecord
  2
-02
 70
     0
 62
     1
  6
CONTINUOUS
1001
ACAECLAYERSTANDARD
1000

1000

  0
LAYER
  5
12B
330
2
100
AcDbSymbolTableRecord
100
AcDbLayerTableRecord
  2
-03
 70
     0
 62
     3
  6
CONTINUOUS
1001
ACAECLAYERSTANDARD
1000

1000

  0
LAYER
  5
12C
330
2
100
AcDbSymbolTableRecord
100
AcDbLayerTableRecord
  2
-04
 70
     0
 62
     6
  6
CONTINUOUS
1001
ACAECLAYERSTANDARD
1000

1000

  0
ENDTAB
  0
TABLE
  2
STYLE
  5
3
330
0
100
AcDbSymbolTable
 70
     1
  0
STYLE
  5
11
330
3
100
AcDbSymbolTableRecord
100
AcDbTextStyleTableRecord
  2
STANDARD
 70
     0
 40
0.0
 41
1.0
 50
0.0
 71
     0
 42
0.2
  3
arial.ttf
  4

1001
ACAD
1000
Arial
1071
        0
  0
ENDTAB
  0
TABLE
  2
VIEW
  5
6
330
0
100
AcDbSymbolTable
 70
     0
  0
ENDTAB
  0
TABLE
  2
UCS
  5
7
330
0
100
AcDbSymbolTable
 70
     0
  0
ENDTAB
  0
TABLE
  2
APPID
  5
9
330
0
100
AcDbSymbolTable
 70
     2
  0
APPID
  5
12
330
9
100
AcDbSymbolTableRecord
100
AcDbRegAppTableRecord
  2
ACAD
 70
     0
  0
APPID
  5
129
330
9
100
AcDbSymbolTableRecord
100
AcDbRegAppTableRecord
  2
ACAECLAYERSTANDARD
 70
     0
  0
ENDTAB
  0
TABLE
  2
DIMSTYLE
  5
A
330
0
100
AcDbSymbolTable
 70
     2
  0
DIMSTYLE
105
27
330
A
100
AcDbSymbolTableRecord
100
AcDbDimStyleTableRecord
  2
STANDARD
 70
     0
  3

  4

  5

  6

  7

 40
1.0
 41
0.18
 42
0.0625
 43
0.38
 44
0.18
 45
0.0
 46
0.0
 47
0.0
 48
0.0
140
0.18
141
0.09
142
0.0
143
25.4
144
1.0
145
0.0
146
1.0
147
0.09
 71
     0
 72
     0
 73
     1
 74
     1
 75
     0
 76
     0
 77
     0
 78
     0
170
     0
171
     2
172
     0
173
     0
174
     0
175
     0
176
     0
177
     0
178
     0
270
     2
271
     4
272
     4
273
     2
274
     2
340
11
275
     0
280
     0
281
     0
282
     0
283
     1
284
     0
285
     0
286
     0
287
     3
288
     0
  0
DIMSTYLE
105
3DA
330
A
100
AcDbSymbolTableRecord
100
AcDbDimStyleTableRecord
  2
ISO-25
 70
     0
  3

  4

  5

  6

  7

 40
1.0
 41
2.5
 42
0.625
 43
3.75
 44
1.25
 45
0.0
 46
0.0
 47
0.0
 48
0.0
140
2.5
141
2.5
142
0.0
143
0.03937007874016
144
1.0
145
0.0
146
1.0
147
0.625
 71
     0
 72
     0
 73
     0
 74
     0
 75
     0
 76
     0
 77
     1
 78
     8
170
     0
171
     3
172
     1
173
     0
174
     0
175
     0
176
     0
177
     0
178
     0
270
     2
271
     2
272
     2
273
     2
274
     3
340
11
275
     0
280
     0
281
     0
282
     0
283
     0
284
     8
285
     0
286
     0
287
     3
288
     0
  0
ENDTAB
  0
TABLE
  2
BLOCK_RECORD
  5
1
330
0
100
AcDbSymbolTable
 70
     9
  0
BLOCK_RECORD
  5
1F
330
1
100
AcDbSymbolTableRecord
100
AcDbBlockTableRecord
  2
*MODEL_SPACE
  0
BLOCK_RECORD
  5
58
330
1
100
AcDbSymbolTableRecord
100
AcDbBlockTableRecord
  2
*PAPER_SPACE
  0
BLOCK_RECORD
  5
5D
330
1
100
AcDbSymbolTableRecord
100
AcDbBlockTableRecord
  2
*PAPER_SPACE0
  0
BLOCK_RECORD
  5
16A
330
1
100
AcDbSymbolTableRecord
100
AcDbBlockTableRecord
  2
CH1
  0
BLOCK_RECORD
  5
190
330
1
100
AcDbSymbolTableRecord
100
AcDbBlockTableRecord
  2
CH2
  0
BLOCK_RECORD
  5
19F
330
1
100
AcDbSymbolTableRecord
100
AcDbBlockTableRecord
  2
CH3
  0
BLOCK_RECORD
  5
1BB
330
1
100
AcDbSymbolTableRecord
100
AcDbBlockTableRecord
  2
CH4
  0
BLOCK_RECORD
  5
1C4
330
1
100
AcDbSymbolTableRecord
100
AcDbBlockTableRecord
  2
CH6
  0
BLOCK_RECORD
  5
1E3
330
1
100
AcDbSymbolTableRecord
100
AcDbBlockTableRecord
  2
CH5
  0
ENDTAB
  0
ENDSEC
  0
SECTION
  2
BLOCKS
  0
BLOCK
  5
20
330
1F
100
AcDbEntity
  8
0
100
AcDbBlockBegin
  2
*MODEL_SPACE
 70
     0
 10
0.0
 20
0.0
 30
0.0
  3
*MODEL_SPACE
  1

  0
ENDBLK
  5
21
330
1F
100
AcDbEntity
  8
0
100
AcDbBlockEnd
  0
BLOCK
  5
5A
330
58
100
AcDbEntity
 67
     1
  8
0
100
AcDbBlockBegin
  2
*PAPER_SPACE
 70
     0
 10
0.0
 20
0.0
 30
0.0
  3
*PAPER_SPACE
  1

  0
ENDBLK
  5
5B
330
58
100
AcDbEntity
 67
     1
  8
0
100
AcDbBlockEnd
  0
BLOCK
  5
5F
330
5D
100
AcDbEntity
  8
0
100
AcDbBlockBegin
  2
*PAPER_SPACE0
 70
     0
 10
0.0
 20
0.0
 30
0.0
  3
*PAPER_SPACE0
  1
*PAPER_SPACE0
  0
ENDBLK
  5
60
330
5D
100
AcDbEntity
  8
0
100
AcDbBlockEnd
  0
BLOCK
  5
16B
330
16A
100
AcDbEntity
  8
0
100
AcDbBlockBegin
  2
CH1
 70
     0
 10
0.0
 20
0.0
 30
0.0
  3
CH1
  1
CH1
  0
SPLINE
  5
16C
330
16A
100
AcDbEntity
  8
-01
100
AcDbSpline
210
0.0
220
0.0
230
1.0
 70
     8
 71
     3
 72
     8
 73
     4
 74
     0
 42
0.000000001
 43
0.0000001
 40
0.0
 40
0.0
 40
0.0
 40
0.0
 40
1.0
 40
1.0
 40
1.0
 40
1.0
 10
22.61002150000002
 20
-7.076511000000011
 30
0.0
 10
22.56500750000004
 20
-13.668128
 30
0.0
 10
14.38521950000001
 20
-63.77721300000002
 30
0.0
 10
8.35451850000004
 20
-74.42453999999998
 30
0.0
  0
SPLINE
  5
16D
330
16A
100
AcDbEntity
  8
-01
100
AcDbSpline
210
0.0
220
0.0
230
1.0
 70
     8
 71
     3
 72
     8
 73
     4
 74
     0
 42
0.000000001
 43
0.0000001
 40
0.0
 40
0.0
 40
0.0
 40
0.0
 40
1.0
 40
1.0
 40
1.0
 40
1.0
 10
8.35451850000004
 20
-74.42453999999998
 30
0.0
 10
6.845158500000025
 20
-77.08928200000003
 30
0.0
 10
5.453662500000007
 20
-77.59082699999999
 30
0.0
 10
2.999986500000034
 20
-77.67284699999999
 30
0.0
  0
LINE
  5
16E
330
16A
100
AcDbEntity
  8
-01
100
AcDbLine
 10
2.999986500000034
 20
-77.67284699999999
 30
0.0
 11
2.999986500000034
 21
-67.688672
 31
0.0
  0
LINE
  5
16F
330
16A
100
AcDbEntity
  8
-01
100
AcDbLine
 10
2.999986500000034
 20
-67.688672
 30
0.0
 11
-2.999986499999977
 21
-67.688672
 31
0.0
  0
LINE
  5
170
330
16A
100
AcDbEntity
  8
-01
100
AcDbLine
 10
-2.999986499999977
 20
-67.688672
 30
0.0
 11
-2.999986499999977
 21
-77.67284699999999
 31
0.0
  0
SPLINE
  5
171
330
16A
100
AcDbEntity
  8
-01
100
AcDbSpline
210
0.0
220
0.0
230
1.0
 70
     8
 71
     3
 72
     8
 73
     4
 74
     0
 42
0.000000001
 43
0.0000001
 40
0.0
 40
0.0
 40
0.0
 40
0.0
 40
1.0
 40
1.0
 40
1.0
 40
1.0
 10
-2.999986499999977
 20
-77.67284699999999
 30
0.0
 10
-5.453768499999967
 20
-77.59082699999999
 30
0.0
 10
-6.845158499999968
 20
-77.08928200000003
 30
0.0
 10
-8.354483499999958
 20
-74.42453999999998
 30
0.0
  0
SPLINE
  5
172
330
16A
100
AcDbEntity
  8
-01
100
AcDbSpline
210
0.0
220
0.0
230
1.0
 70
     8
 71
     3
 72
     8
 73
     4
 74
     0
 42
0.000000001
 43
0.0000001
 40
0.0
 40
0.0
 40
0.0
 40
0.0
 40
1.0
 40
1.0
 40
1.0
 40
1.0
 10
-8.354483499999958
 20
-74.42453999999998
 30
0.0
 10
-14.38521949999995
 20
-63.77721300000002
 30
0.0
 10
-22.56444249999998
 20
-13.668128
 30
0.0
 10
-22.60945749999996
 20
-7.076511000000011
 30
0.0
  0
SPLINE
  5
173
330
16A
100
AcDbEntity
  8
-01
100
AcDbSpline
210
0.0
220
0.0
230
1.0
 70
     8
 71
     3
 72
     8
 73
     4
 74
     0
 42
0.000000001
 43
0.0000001
 40
0.0
 40
0.0
 40
0.0
 40
0.0
 40
1.0
 40
1.0
 40
1.0
 40
1.0
 10
-22.60945749999996
 20
-7.076511000000011
 30
0.0
 10
-22.67373349999997
 20
2.330943999999988
 30
0.0
 10
-10.85603049999997
 20
6.311406000000005
 30
0.0
 10
0.0002825000000257
 20
6.311406000000005
 30
0.0
  0
SPLINE
  5
174
330
16A
100
AcDbEntity
  8
-01
100
AcDbSpline
210
0.0
220
0.0
230
1.0
 70
     8
 71
     3
 72
     8
 73
     4
 74
     0
 42
0.000000001
 43
0.0000001
 40
0.0
 40
0.0
 40
0.0
 40
0.0
 40
1.0
 40
1.0
 40
1.0
 40
1.0
 10
0.0002825000000257
 20
6.311406000000005
 30
0.0
 10
10.85663050000005
 20
6.311406000000005
 30
0.0
 10
22.67426250000005
 20
2.330943999999988
 30
0.0
 10
22.61002150000002
 20
-7.076511000000011
 30
0.0
  0
LINE
  5
175
330
16A
100
AcDbEntity
  8
-03
100
AcDbLine
 10
15.21766950000006
 20
-29.35783000000004
 30
0.0
 11
15.21766950000006
 21
-23.35782100000006
 31
0.0
  0
LINE
  5
176
330
16A
100
AcDbEntity
  8
-03
100
AcDbLine
 10
15.21766950000006
 20
-23.35782100000006
 30
0.0
 11
9.217695500000048
 21
-23.35782100000006
 31
0.0
  0
LINE
  5
177
330
16A
100
AcDbEntity
  8
-03
100
AcDbLine
 10
9.217695500000048
 20
-23.35782100000006
 30
0.0
 11
9.217695500000048
 21
-29.35783000000004
 31
0.0
  0
LINE
  5
178
330
16A
100
AcDbEntity
  8
-03
100
AcDbLine
 10
9.217695500000048
 20
-29.35783000000004
 30
0.0
 11
15.21766950000006
 21
-29.35783000000004
 31
0.0
  0
LINE
  5
179
330
16A
100
AcDbEntity
  8
-03
100
AcDbLine
 10
15.21766950000006
 20
-29.35783000000004
 30
0.0
 11
15.21766950000006
 21
-29.35783000000004
 31
0.0
  0
LINE
  5
17A
330
16A
100
AcDbEntity
  8
-03
100
AcDbLine
 10
15.21766950000006
 20
-12.35822899999999
 30
0.0
 11
15.21766950000006
 21
-2.358108000000016
 31
0.0
  0
LINE
  5
17B
330
16A
100
AcDbEntity
  8
-03
100
AcDbLine
 10
15.21766950000006
 20
-2.358108000000016
 30
0.0
 11
9.217695500000048
 21
-2.358108000000016
 31
0.0
  0
LINE
  5
17C
330
16A
100
AcDbEntity
  8
-03
100
AcDbLine
 10
9.217695500000048
 20
-2.358108000000016
 30
0.0
 11
9.217695500000048
 21
-12.35822899999999
 31
0.0
  0
LINE
  5
17D
330
16A
100
AcDbEntity
  8
-03
100
AcDbLine
 10
9.217695500000048
 20
-12.35822899999999
 30
0.0
 11
15.21766950000006
 21
-12.35822899999999
 31
0.0
  0
LINE
  5
17E
330
16A
100
AcDbEntity
  8
-03
100
AcDbLine
 10
15.21766950000006
 20
-12.35822899999999
 30
0.0
 11
15.21766950000006
 21
-12.35822899999999
 31
0.0
  0
LINE
  5
17F
330
16A
100
AcDbEntity
  8
-03
100
AcDbLine
 10
2.999986500000034
 20
-5.999973999999895
 30
0.0
 11
2.999986500000034
 21
0.0
 31
0.0
  0
LINE
  5
180
330
16A
100
AcDbEntity
  8
-03
100
AcDbLine
 10
2.999986500000034
 20
0.0
 30
0.0
 11
-2.999986499999977
 21
0.0
 31
0.0
  0
LINE
  5
181
330
16A
100
AcDbEntity
  8
-03
100
AcDbLine
 10
-2.999986499999977
 20
0.0
 30
0.0
 11
-2.999986499999977
 21
-5.999973999999895
 31
0.0
  0
LINE
  5
182
330
16A
100
AcDbEntity
  8
-03
100
AcDbLine
 10
-2.999986499999977
 20
-5.999973999999895
 30
0.0
 11
2.999986500000034
 21
-5.999973999999895
 31
0.0
  0
LINE
  5
183
330
16A
100
AcDbEntity
  8
-03
100
AcDbLine
 10
2.999986500000034
 20
-5.999973999999895
 30
0.0
 11
2.999986500000034
 21
-5.999973999999895
 31
0.0
  0
LINE
  5
184
330
16A
100
AcDbEntity
  8
-03
100
AcDbLine
 10
-9.217130499999996
 20
-29.35783000000004
 30
0.0
 11
-9.217130499999996
 21
-23.35782100000006
 31
0.0
  0
LINE
  5
185
330
16A
100
AcDbEntity
  8
-03
100
AcDbLine
 10
-9.217130499999996
 20
-23.35782100000006
 30
0.0
 11
-15.2171045
 21
-23.35782100000006
 31
0.0
  0
LINE
  5
186
330
16A
100
AcDbEntity
  8
-03
100
AcDbLine
 10
-15.2171045
 20
-23.35782100000006
 30
0.0
 11
-15.2171045
 21
-29.35783000000004
 31
0.0
  0
LINE
  5
187
330
16A
100
AcDbEntity
  8
-03
100
AcDbLine
 10
-15.2171045
 20
-29.35783000000004
 30
0.0
 11
-9.217130499999996
 21
-29.35783000000004
 31
0.0
  0
LINE
  5
188
330
16A
100
AcDbEntity
  8
-03
100
AcDbLine
 10
-9.217130499999996
 20
-29.35783000000004
 30
0.0
 11
-9.217130499999996
 21
-29.35783000000004
 31
0.0
  0
LINE
  5
189
330
16A
100
AcDbEntity
  8
-03
100
AcDbLine
 10
-9.217130499999996
 20
-12.35822899999999
 30
0.0
 11
-9.217130499999996
 21
-2.358108000000016
 31
0.0
  0
LINE
  5
18A
330
16A
100
AcDbEntity
  8
-03
100
AcDbLine
 10
-9.217130499999996
 20
-2.358108000000016
 30
0.0
 11
-15.2171045
 21
-2.358108000000016
 31
0.0
  0
LINE
  5
18B
330
16A
100
AcDbEntity
  8
-03
100
AcDbLine
 10
-15.2171045
 20
-2.358108000000016
 30
0.0
 11
-15.2171045
 21
-12.35822899999999
 31
0.0
  0
LINE
  5
18C
330
16A
100
AcDbEntity
  8
-03
100
AcDbLine
 10
-15.2171045
 20
-12.35822899999999
 30
0.0
 11
-9.217130499999996
 21
-12.35822899999999
 31
0.0
  0
LINE
  5
18D
330
16A
100
AcDbEntity
  8
-03
100
AcDbLine
 10
-9.217130499999996
 20
-12.35822899999999
 30
0.0
 11
-9.217130499999996
 21
-12.35822899999999
 31
0.0
  0
ENDBLK
  5
18E
330
16A
100
AcDbEntity
  8
0
100
AcDbBlockEnd
  0
BLOCK
  5
191
330
190
100
AcDbEntity
  8
0
100
AcDbBlockBegin
  2
CH2
 70
     0
 10
0.0
 20
0.0
 30
0.0
  3
CH2
  1
CH2
  0
SPLINE
  5
192
330
190
100
AcDbEntity
  8
-01
100
AcDbSpline
210
0.0
220
0.0
230
1.0
 70
     8
 71
     3
 72
     8
 73
     4
 74
     0
 42
0.000000001
 43
0.0000001
 40
0.0
 40
0.0
 40
0.0
 40
0.0
 40
1.0
 40
1.0
 40
1.0
 40
1.0
 10
-21.675972
 20
0.0
 30
0.0
 10
-17.06086199999999
 20
-9.325108999999998
 30
0.0
 10
-17.95035599999994
 20
-21.62680100000001
 30
0.0
 10
-7.583063999999979
 20
-30.65418400000001
 30
0.0
  0
SPLINE
  5
193
330
190
100
AcDbEntity
  8
-01
100
AcDbSpline
210
0.0
220
0.0
230
1.0
 70
     8
 71
     3
 72
     8
 73
     4
 74
     0
 42
0.000000001
 43
0.0000001
 40
0.0
 40
0.0
 40
0.0
 40
0.0
 40
1.0
 40
1.0
 40
1.0
 40
1.0
 10
-7.583063999999979
 20
-30.65418400000001
 30
0.0
 10
-3.087192999999957
 20
-34.56896899999991
 30
0.0
 10
2.37740500000001
 20
-38.22845300000002
 30
0.0
 10
5.689671000000033
 20
-45.49124799999996
 30
0.0
  0
SPLINE
  5
194
330
190
100
AcDbEntity
  8
-01
100
AcDbSpline
210
0.0
220
0.0
230
1.0
 70
     8
 71
     3
 72
     8
 73
     4
 74
     0
 42
0.000000001
 43
0.0000001
 40
0.0
 40
0.0
 40
0.0
 40
0.0
 40
1.0
 40
1.0
 40
1.0
 40
1.0
 10
5.689671000000033
 20
-45.49124799999996
 30
0.0
 10
6.146095000000059
 20
-46.49204699999999
 30
0.0
 10
6.857223999999974
 20
-47.97414400000005
 30
0.0
 10
7.458498999999961
 20
-49.21525799999998
 30
0.0
  0
SPLINE
  5
195
330
190
100
AcDbEntity
  8
-01
100
AcDbSpline
210
0.0
220
0.0
230
1.0
 70
     8
 71
     3
 72
     8
 73
     4
 74
     0
 42
0.000000001
 43
0.0000001
 40
0.0
 40
0.0
 40
0.0
 40
0.0
 40
1.0
 40
1.0
 40
1.0
 40
1.0
 10
16.29723999999999
 20
-47.76445600000002
 30
0.0
 10
13.27964899999995
 20
-41.96375900000001
 30
0.0
 10
8.041217000000074
 20
-31.077245
 30
0.0
 10
7.377501000000052
 20
-24.19669900000001
 30
0.0
  0
SPLINE
  5
196
330
190
100
AcDbEntity
  8
-01
100
AcDbSpline
210
0.0
220
0.0
230
1.0
 70
     8
 71
     3
 72
     8
 73
     4
 74
     0
 42
0.000000001
 43
0.0000001
 40
0.0
 40
0.0
 40
0.0
 40
0.0
 40
1.0
 40
1.0
 40
1.0
 40
1.0
 10
7.377501000000052
 20
-24.19669900000001
 30
0.0
 10
6.593770000000006
 20
-16.07243200000001
 30
0.0
 10
11.25975000000005
 20
-8.09850400000002
 30
0.0
 10
11.78334300000006
 20
0.0
 30
0.0
  0
POLYLINE
  5
197
330
190
100
AcDbEntity
  8
-01
100
AcDb2dPolyline
 66
     1
 10
0.0
 20
0.0
 30
0.0
  0
VERTEX
  5
6B6
330
197
100
AcDbEntity
  8
-01
100
AcDbVertex
100
AcDb2dVertex
 10
15.14852499999995
 20
-47.95297399999995
 30
0.0
  0
VERTEX
  5
6B7
330
197
100
AcDbEntity
  8
-01
100
AcDbVertex
100
AcDb2dVertex
 10
16.29723999999999
 20
-47.76445600000002
 30
0.0
  0
SEQEND
  5
6DE
330
197
100
AcDbEntity
  8
-01
  0
POLYLINE
  5
198
330
190
100
AcDbEntity
  8
-01
100
AcDb2dPolyline
 66
     1
 10
0.0
 20
0.0
 30
0.0
  0
VERTEX
  5
6B8
330
198
100
AcDbEntity
  8
-01
100
AcDbVertex
100
AcDb2dVertex
 10
7.458498999999961
 20
-49.21525799999998
 30
0.0
  0
VERTEX
  5
6B9
330
198
100
AcDbEntity
  8
-01
100
AcDbVertex
100
AcDb2dVertex
 10
9.227926000000025
 20
-48.92532099999997
 30
0.0
  0
SEQEND
  5
6DF
330
198
100
AcDbEntity
  8
-01
  0
POLYLINE
  5
199
330
190
100
AcDbEntity
  8
-01
100
AcDb2dPolyline
 66
     1
 10
0.0
 20
0.0
 30
0.0
  0
VERTEX
  5
6BA
330
199
100
AcDbEntity
  8
-01
100
AcDbVertex
100
AcDb2dVertex
 10
9.227926000000025
 20
-48.92532099999997
 30
0.0
  0
VERTEX
  5
6BB
330
199
100
AcDbEntity
  8
-01
100
AcDbVertex
100
AcDb2dVertex
 10
10.20025199999998
 20
-54.84592000000001
 30
0.0
  0
SEQEND
  5
6E0
330
199
100
AcDbEntity
  8
-01
  0
POLYLINE
  5
19A
330
190
100
AcDbEntity
  8
-01
100
AcDb2dPolyline
 66
     1
 10
0.0
 20
0.0
 30
0.0
  0
VERTEX
  5
6BC
330
19A
100
AcDbEntity
  8
-01
100
AcDbVertex
100
AcDb2dVertex
 10
10.20025199999998
 20
-54.84592000000001
 30
0.0
  0
VERTEX
  5
6BD
330
19A
100
AcDbEntity
  8
-01
100
AcDbVertex
100
AcDb2dVertex
 10
16.12085100000002
 20
-53.87357900000003
 30
0.0
  0
SEQEND
  5
6E1
330
19A
100
AcDbEntity
  8
-01
  0
POLYLINE
  5
19B
330
190
100
AcDbEntity
  8
-01
100
AcDb2dPolyline
 66
     1
 10
0.0
 20
0.0
 30
0.0
  0
VERTEX
  5
6BE
330
19B
100
AcDbEntity
  8
-01
100
AcDbVertex
100
AcDb2dVertex
 10
16.12085100000002
 20
-53.87357900000003
 30
0.0
  0
VERTEX
  5
6BF
330
19B
100
AcDbEntity
  8
-01
100
AcDbVertex
100
AcDb2dVertex
 10
15.14852499999995
 20
-47.95297399999995
 30
0.0
  0
SEQEND
  5
6E2
330
19B
100
AcDbEntity
  8
-01
  0
POLYLINE
  5
19C
330
190
100
AcDbEntity
  8
-01
100
AcDb2dPolyline
 66
     1
 10
0.0
 20
0.0
 30
0.0
  0
VERTEX
  5
6C0
330
19C
100
AcDbEntity
  8
-01
100
AcDbVertex
100
AcDb2dVertex
 10
11.78334300000006
 20
0.0
 30
0.0
  0
VERTEX
  5
6C1
330
19C
100
AcDbEntity
  8
-01
100
AcDbVertex
100
AcDb2dVertex
 10
9.000157000000058
 20
0.0
 30
0.0
  0
VERTEX
  5
6C2
330
19C
100
AcDbEntity
  8
-01
100
AcDbVertex
100
AcDb2dVertex
 10
9.000157000000058
 20
5.999977999999999
 30
0.0
  0
VERTEX
  5
6C3
330
19C
100
AcDbEntity
  8
-01
100
AcDbVertex
100
AcDb2dVertex
 10
0.0
 20
5.999977999999999
 30
0.0
  0
VERTEX
  5
6C4
330
19C
100
AcDbEntity
  8
-01
100
AcDbVertex
100
AcDb2dVertex
 10
0.0
 20
0.0
 30
0.0
  0
VERTEX
  5
6C5
330
19C
100
AcDbEntity
  8
-01
100
AcDbVertex
100
AcDb2dVertex
 10
-10.99959200000001
 20
0.0
 30
0.0
  0
VERTEX
  5
6C6
330
19C
100
AcDbEntity
  8
-01
100
AcDbVertex
100
AcDb2dVertex
 10
-10.99959200000001
 20
5.999977999999999
 30
0.0
  0
VERTEX
  5
6C7
330
19C
100
AcDbEntity
  8
-01
100
AcDbVertex
100
AcDb2dVertex
 10
-16.99956499999996
 20
5.999977999999999
 30
0.0
  0
VERTEX
  5
6C8
330
19C
100
AcDbEntity
  8
-01
100
AcDbVertex
100
AcDb2dVertex
 10
-16.99956499999996
 20
0.0
 30
0.0
  0
VERTEX
  5
6C9
330
19C
100
AcDbEntity
  8
-01
100
AcDbVertex
100
AcDb2dVertex
 10
-21.675972
 20
0.0
 30
0.0
  0
SEQEND
  5
6E3
330
19C
100
AcDbEntity
  8
-01
  0
ENDBLK
  5
19D
330
190
100
AcDbEntity
  8
0
100
AcDbBlockEnd
  0
BLOCK
  5
1A0
330
19F
100
AcDbEntity
  8
0
100
AcDbBlockBegin
  2
CH3
 70
     0
 10
0.0
 20
0.0
 30
0.0
  3
CH3
  1
CH3
  0
LINE
  5
1A1
330
19F
100
AcDbEntity
  8
-01
100
AcDbLine
 10
-37.57580699999994
 20
-55.99631099999999
 30
0.0
 11
-37.37461799999994
 21
-46.46580799999998
 31
0.0
  0
SPLINE
  5
1A2
330
19F
100
AcDbEntity
  8
-01
100
AcDbSpline
210
0.0
220
0.0
230
1.0
 70
     8
 71
     3
 72
     8
 73
     4
 74
     0
 42
0.000000001
 43
0.0000001
 40
0.0
 40
0.0
 40
0.0
 40
0.0
 40
1.0
 40
1.0
 40
1.0
 40
1.0
 10
-37.37461799999994
 20
-46.46580799999998
 30
0.0
 10
-37.06441999999998
 20
-43.887496
 30
0.0
 10
-39.15134799999998
 20
-36.80026099999998
 30
0.0
 10
-37.59676199999996
 20
-29.37206600000002
 30
0.0
  0
SPLINE
  5
1A3
330
19F
100
AcDbEntity
  8
-01
100
AcDbSpline
210
0.0
220
0.0
230
1.0
 70
     8
 71
     3
 72
     8
 73
     4
 74
     0
 42
0.000000001
 43
0.0000001
 40
0.0
 40
0.0
 40
0.0
 40
0.0
 40
1.0
 40
1.0
 40
1.0
 40
1.0
 10
-37.59676199999996
 20
-29.37206600000002
 30
0.0
 10
-38.06489799999997
 20
-25.13922700000001
 30
0.0
 10
-38.995949
 20
-20.684102
 30
0.0
 10
-40.61795099999995
 20
-17.03475700000001
 30
0.0
  0
SPLINE
  5
1A4
330
19F
100
AcDbEntity
  8
-01
100
AcDbSpline
210
0.0
220
0.0
230
1.0
 70
     8
 71
     3
 72
     8
 73
     4
 74
     0
 42
0.000000001
 43
0.0000001
 40
0.0
 40
0.0
 40
0.0
 40
0.0
 40
1.0
 40
1.0
 40
1.0
 40
1.0
 10
-40.61795099999995
 20
-17.03475700000001
 30
0.0
 10
-45.87832599999996
 20
-5.199521000000004
 30
0.0
 10
-33.53794799999997
 20
-0.9137650000000122
 30
0.0
 10
-27.06137099999995
 20
-8.527838999999972
 30
0.0
  0
SPLINE
  5
1A5
330
19F
100
AcDbEntity
  8
-01
100
AcDbSpline
210
0.0
220
0.0
230
1.0
 70
     8
 71
     3
 72
     8
 73
     4
 74
     0
 42
0.000000001
 43
0.0000001
 40
0.0
 40
0.0
 40
0.0
 40
0.0
 40
1.0
 40
1.0
 40
1.0
 40
1.0
 10
-27.06137099999995
 20
-8.527838999999972
 30
0.0
 10
-25.05745199999996
 20
-10.88372399999997
 30
0.0
 10
-24.13151599999998
 20
-13.11373800000001
 30
0.0
 10
-22.45486999999997
 20
-15.84028699999999
 30
0.0
  0
SPLINE
  5
1A6
330
19F
100
AcDbEntity
  8
-01
100
AcDbSpline
210
0.0
220
0.0
230
1.0
 70
     8
 71
     3
 72
     8
 73
     4
 74
     0
 42
0.000000001
 43
0.0000001
 40
0.0
 40
0.0
 40
0.0
 40
0.0
 40
1.0
 40
1.0
 40
1.0
 40
1.0
 10
-22.45486999999997
 20
-15.84028699999999
 30
0.0
 10
-18.17140599999993
 20
-22.80599000000001
 30
0.0
 10
-13.68195599999996
 20
-16.92186800000002
 30
0.0
 10
-13.28705699999995
 20
-15.03330799999998
 30
0.0
  0
SPLINE
  5
1A7
330
19F
100
AcDbEntity
  8
-01
100
AcDbSpline
210
0.0
220
0.0
230
1.0
 70
     8
 71
     3
 72
     8
 73
     4
 74
     0
 42
0.000000001
 43
0.0000001
 40
0.0
 40
0.0
 40
0.0
 40
0.0
 40
1.0
 40
1.0
 40
1.0
 40
1.0
 10
-13.28705699999995
 20
-15.03330799999998
 30
0.0
 10
-11.97003199999995
 20
-8.734636999999964
 30
0.0
 10
-9.667097999999953
 20
-1.597624999999994
 30
0.0
 10
-12.07988699999999
 20
10.36228299999999
 30
0.0
  0
SPLINE
  5
1A8
330
19F
100
AcDbEntity
  8
-01
100
AcDbSpline
210
0.0
220
0.0
230
1.0
 70
     8
 71
     3
 72
     8
 73
     4
 74
     0
 42
0.000000001
 43
0.0000001
 40
0.0
 40
0.0
 40
0.0
 40
0.0
 40
1.0
 40
1.0
 40
1.0
 40
1.0
 10
-12.07988699999999
 20
10.36228299999999
 30
0.0
 10
-13.44047999999998
 20
17.10654700000003
 30
0.0
 10
-27.625992
 20
32.42429900000003
 30
0.0
 10
-25.91484300000002
 20
54.82718
 30
0.0
  0
LINE
  5
1A9
330
19F
100
AcDbEntity
  8
-01
100
AcDbLine
 10
-25.91484299999996
 20
54.82718000000001
 30
0.0
 11
-23.04961799999995
 21
55.213581
 31
0.0
  0
LINE
  5
1AA
330
19F
100
AcDbEntity
  8
-01
100
AcDbLine
 10
-23.04961799999995
 20
55.213581
 30
0.0
 11
-23.85165799999999
 21
61.159541
 31
0.0
  0
LINE
  5
1AB
330
19F
100
AcDbEntity
  8
-01
100
AcDbLine
 10
-23.85165799999999
 20
61.159541
 30
0.0
 11
-17.90512999999999
 21
61.961561
 31
0.0
  0
LINE
  5
1AC
330
19F
100
AcDbEntity
  8
-01
100
AcDbLine
 10
-17.90512999999999
 20
61.961561
 30
0.0
 11
-17.10368899999997
 21
56.01504700000001
 31
0.0
  0
LINE
  5
1AD
330
19F
100
AcDbEntity
  8
-01
100
AcDbLine
 10
-17.10368899999997
 20
56.01504700000001
 30
0.0
 11
-14.48925299999996
 21
56.36727400000001
 31
0.0
  0
SPLINE
  5
1AE
330
19F
100
AcDbEntity
  8
-01
100
AcDbSpline
210
0.0
220
0.0
230
1.0
 70
     8
 71
     3
 72
     8
 73
     4
 74
     0
 42
0.000000001
 43
0.0000001
 40
0.0
 40
0.0
 40
0.0
 40
0.0
 40
1.0
 40
1.0
 40
1.0
 40
1.0
 10
-14.48925299999996
 20
56.36727400000001
 30
0.0
 10
-16.56443300000001
 20
33.76820600000002
 30
0.0
 10
6.118190000000027
 20
22.686645
 30
0.0
 10
10.85783000000004
 20
5.999974000000009
 30
0.0
  0
LINE
  5
1AF
330
19F
100
AcDbEntity
  8
-01
100
AcDbLine
 10
10.85783000000004
 20
5.999974000000009
 30
0.0
 11
0.0
 21
5.999974000000009
 31
0.0
  0
LINE
  5
1B0
330
19F
100
AcDbEntity
  8
-01
100
AcDbLine
 10
0.0
 20
5.999974000000009
 30
0.0
 11
0.0
 21
0.0
 31
0.0
  0
LINE
  5
1B1
330
19F
100
AcDbEntity
  8
-01
100
AcDbLine
 10
0.0
 20
0.0
 30
0.0
 11
8.971609460434365
 21
0.0
 31
0.0
  0
SPLINE
  5
1B2
330
19F
100
AcDbEntity
  8
-01
100
AcDbSpline
210
0.0
220
0.0
230
1.0
 70
     8
 71
     3
 72
     8
 73
     4
 74
     0
 42
0.000000001
 43
0.0000001
 40
0.0737160767862046
 40
0.0737160767862046
 40
0.0737160767862046
 40
0.0737160767862046
 40
1.0
 40
1.0
 40
1.0
 40
1.0
 10
11.40932832290082
 20
-5.999999999999915
 30
0.0
 10
9.368843212736579
 20
-28.67040354545701
 30
0.0
 10
-2.380341623534605
 20
-47.54178244233789
 30
0.0
 10
-23.11466999999993
 20
-50.44888099999997
 30
0.0
  0
SPLINE
  5
1B3
330
19F
100
AcDbEntity
  8
-01
100
AcDbSpline
210
0.0
220
0.0
230
1.0
 70
     8
 71
     3
 72
     8
 73
     4
 74
     0
 42
0.000000001
 43
0.0000001
 40
0.0
 40
0.0
 40
0.0
 40
0.0
 40
1.0
 40
1.0
 40
1.0
 40
1.0
 10
-23.11466999999993
 20
-50.44888099999997
 30
0.0
 10
-27.980886
 20
-52.89370099999996
 30
0.0
 10
-32.79115299999995
 20
-54.60643699999997
 30
0.0
 10
-37.57637099999999
 20
-55.99631099999999
 30
0.0
  0
LINE
  5
1B4
330
19F
100
AcDbEntity
  8
-01
100
AcDbLine
 10
-37.57637099999999
 20
-55.99631099999999
 30
0.0
 11
-37.57580699999994
 21
-55.99631099999999
 31
0.0
  0
POLYLINE
  5
1B5
330
19F
100
AcDbEntity
  8
-03
100
AcDb2dPolyline
 66
     1
 10
0.0
 20
0.0
 30
0.0
 70
     1
  0
VERTEX
  5
6CA
330
1B5
100
AcDbEntity
  8
-03
100
AcDbVertex
100
AcDb2dVertex
 10
-14.731290641393
 20
38.78716959301721
 30
0.0
  0
VERTEX
  5
6CB
330
1B5
100
AcDbEntity
  8
-03
100
AcDbVertex
100
AcDb2dVertex
 10
-20.35125655644936
 20
36.68574552500877
 30
0.0
  0
VERTEX
  5
6CC
330
1B5
100
AcDbEntity
  8
-03
100
AcDbVertex
100
AcDb2dVertex
 10
-18.24983248844092
 20
31.06577960995246
 30
0.0
  0
VERTEX
  5
6CD
330
1B5
100
AcDbEntity
  8
-03
100
AcDbVertex
100
AcDb2dVertex
 10
-12.62986657338445
 20
33.1672036779609
 30
0.0
  0
SEQEND
  5
6E4
330
1B5
100
AcDbEntity
  8
-03
  0
POLYLINE
  5
1B6
330
19F
100
AcDbEntity
  8
-03
100
AcDb2dPolyline
 66
     1
 10
0.0
 20
0.0
 30
0.0
 70
     1
  0
VERTEX
  5
6CE
330
1B6
100
AcDbEntity
  8
-03
100
AcDbVertex
100
AcDb2dVertex
 10
-30.71045383797082
 20
-36.95142731775603
 30
0.0
  0
VERTEX
  5
6CF
330
1B6
100
AcDbEntity
  8
-03
100
AcDbVertex
100
AcDb2dVertex
 10
-30.71045383797082
 20
-42.95142731775604
 30
0.0
  0
VERTEX
  5
6D0
330
1B6
100
AcDbEntity
  8
-03
100
AcDbVertex
100
AcDb2dVertex
 10
-24.71045383797082
 20
-42.95142731775603
 30
0.0
  0
VERTEX
  5
6D1
330
1B6
100
AcDbEntity
  8
-03
100
AcDbVertex
100
AcDb2dVertex
 10
-24.71045383797082
 20
-36.95142731775603
 30
0.0
  0
SEQEND
  5
6E5
330
1B6
100
AcDbEntity
  8
-03
  0
LINE
  5
1B7
330
19F
100
AcDbEntity
  8
-01
100
AcDbLine
 10
11.40932832290082
 20
-5.999999999999986
 30
0.0
 11
8.971609460434365
 21
-5.999999999999986
 31
0.0
  0
LINE
  5
1B8
330
19F
100
AcDbEntity
  8
-01
100
AcDbLine
 10
8.971609460434365
 20
-5.999999999999986
 30
0.0
 11
8.971609460434365
 21
0.0000000000000142
 31
0.0
  0
ENDBLK
  5
1B9
330
19F
100
AcDbEntity
  8
0
100
AcDbBlockEnd
  0
BLOCK
  5
1BC
330
1BB
100
AcDbEntity
  8
0
100
AcDbBlockBegin
  2
CH4
 70
     0
 10
0.0
 20
0.0
 30
0.0
  3
CH4
  1
CH4
  0
POLYLINE
  5
1BD
330
1BB
100
AcDbEntity
  8
-03
100
AcDb2dPolyline
 66
     1
 10
0.0
 20
0.0
 30
0.0
 70
     1
  0
VERTEX
  5
6D2
330
1BD
100
AcDbEntity
  8
-03
100
AcDbVertex
100
AcDb2dVertex
 10
-4.092632539518434
 20
-16.26488532578709
 30
0.0
  0
VERTEX
  5
6D3
330
1BD
100
AcDbEntity
  8
-03
100
AcDbVertex
100
AcDb2dVertex
 10
1.828037021776083
 20
-15.29258910207956
 30
0.0
  0
VERTEX
  5
6D4
330
1BD
100
AcDbEntity
  8
-03
100
AcDbVertex
100
AcDb2dVertex
 10
0.2075447200310236
 20
-5.424815052037133
 30
0.0
  0
VERTEX
  5
6D5
330
1BD
100
AcDbEntity
  8
-03
100
AcDbVertex
100
AcDb2dVertex
 10
-5.71312484126355
 20
-6.397111275744663
 30
0.0
  0
SEQEND
  5
6E6
330
1BD
100
AcDbEntity
  8
-03
  0
POLYLINE
  5
1BE
330
1BB
100
AcDbEntity
  8
-01
100
AcDb2dPolyline
 66
     1
 10
0.0
 20
0.0
 30
0.0
 70
     1
  0
VERTEX
  5
6D6
330
1BE
100
AcDbEntity
  8
-01
100
AcDbVertex
100
AcDb2dVertex
 10
-1.480252410844741
 20
14.63182781966994
 30
0.0
 42
-0.1158725891870923
  0
VERTEX
  5
6D7
330
1BE
100
AcDbEntity
  8
-01
100
AcDbVertex
100
AcDb2dVertex
 10
0.5278228930241085
 20
-124.7965187044116
 30
0.0
 42
-0.9999999999999888
  0
VERTEX
  5
6D8
330
1BE
100
AcDbEntity
  8
-01
100
AcDbVertex
100
AcDb2dVertex
 10
-10.4170548968134
 20
-122.3913446211838
 30
0.0
 42
0.115872589187092
  0
VERTEX
  5
6D9
330
1BE
100
AcDbEntity
  8
-01
100
AcDbVertex
100
AcDb2dVertex
 10
-12.3513254518972
 20
11.91245599124814
 30
0.0
 42
-0.9999999999999999
  0
SEQEND
  5
6E7
330
1BE
100
AcDbEntity
  8
-01
  0
POLYLINE
  5
1BF
330
1BB
100
AcDbEntity
  8
-03
100
AcDb2dPolyline
 66
     1
 10
0.0
 20
0.0
 30
0.0
 70
     1
  0
VERTEX
  5
6DA
330
1BF
100
AcDbEntity
  8
-03
100
AcDbVertex
100
AcDb2dVertex
 10
-4.395675090414557
 20
-103.8819155466597
 30
0.0
  0
VERTEX
  5
6DB
330
1BF
100
AcDbEntity
  8
-03
100
AcDbVertex
100
AcDb2dVertex
 10
1.550533575034365
 20
-104.683345835342
 30
0.0
  0
VERTEX
  5
6DC
330
1BF
100
AcDbEntity
  8
-03
100
AcDbVertex
100
AcDb2dVertex
 10
2.886249565211699
 20
-94.77300664859926
 30
0.0
  0
VERTEX
  5
6DD
330
1BF
100
AcDbEntity
  8
-03
100
AcDbVertex
100
AcDb2dVertex
 10
-3.059959100237108
 20
-93.97157635991702
 30
0.0
  0
SEQEND
  5
6E8
330
1BF
100
AcDbEntity
  8
-03
  0
ENDBLK
  5
1C0
330
1BB
100
AcDbEntity
  8
0
100
AcDbBlockEnd
  0
BLOCK
  5
1C5
330
1C4
100
AcDbEntity
  8
0
100
AcDbBlockBegin
  2
CH6
 70
     0
 10
0.0
 20
0.0
 30
0.0
  3
CH6
  1
CH6
  0
LINE
  5
1C6
330
1C4
100
AcDbEntity
  8
-03
100
AcDbLine
 10
52.7171003977694
 20
-0.0000000000000124
 30
0.0
 11
58.71707439776935
 21
-0.0000000000000124
 31
0.0
  0
LINE
  5
1C7
330
1C4
100
AcDbEntity
  8
-03
100
AcDbLine
 10
58.71707439776935
 20
-0.0000000000000124
 30
0.0
 11
58.71707439776935
 21
5.999972999999999
 31
0.0
  0
LINE
  5
1C8
330
1C4
100
AcDbEntity
  8
-03
100
AcDbLine
 10
58.71707439776935
 20
5.999972999999999
 30
0.0
 11
52.71710039776951
 21
5.999972999999999
 31
0.0
  0
LINE
  5
1C9
330
1C4
100
AcDbEntity
  8
-03
100
AcDbLine
 10
52.71710039776951
 20
5.999972999999999
 30
0.0
 11
52.7171003977694
 21
-0.0000000000000124
 31
0.0
  0
LINE
  5
1CA
330
1C4
100
AcDbEntity
  8
-03
100
AcDbLine
 10
52.7171003977694
 20
-0.0000000000000124
 30
0.0
 11
52.7171003977694
 21
-0.0000000000000124
 31
0.0
  0
LINE
  5
1CB
330
1C4
100
AcDbEntity
  8
-01
100
AcDbLine
 10
-3.07210552789445
 20
5.999973000000013
 30
0.0
 11
0.0000237164074406
 21
5.999973000000013
 31
0.0
  0
LINE
  5
1CC
330
1C4
100
AcDbEntity
  8
-01
100
AcDbLine
 10
-3.072261499988713
 20
0.0
 30
0.0
 11
0.0
 21
0.0
 31
0.0
  0
LINE
  5
1CD
330
1C4
100
AcDbEntity
  8
-01
100
AcDbLine
 10
0.0000237164074406
 20
5.999973000000013
 30
0.0
 11
0.0
 21
0.0
 31
0.0
  0
SPLINE
  5
1CE
330
1C4
100
AcDbEntity
  8
-01
100
AcDbSpline
210
0.0
220
0.0
230
1.0
 70
  1064
 71
     3
 72
    36
 73
    32
 74
    30
 42
0.000000001
 43
0.0000000001
 44
0.0000000001
 12
0.0
 22
1.0
 32
0.0
 13
-0.9999766842862604
 23
-0.006828680974887039
 33
0.0
 40
0.0
 40
0.0
 40
0.0
 40
0.0
 40
1.998211328923834
 40
4.0034594985372
 40
6.000615827967799
 40
6.991653668831365
 40
7.975252846742674
 40
8.949709141991029
 40
9.913383332530312
 40
10.8647128237096
 40
11.8022254391979
 40
12.72455588023965
 40
13.63046547075158
 40
14.51886593028887
 40
15.38884804618805
 40
16.23971622910978
 40
17.07102999188549
 40
17.88265331865211
 40
18.67481257624169
 40
19.44816290086964
 40
20.20386167352178
 40
20.94364560186617
 40
21.6699050288193
 40
22.38574571511042
 40
23.09502539088
 40
23.80235134260121
 40
24.51302790005047
 40
25.23294984485541
 40
25.96844848657847
 40
26.7261081638669
 40
27.51257789105425
 40
27.51257789105425
 40
27.51257789105425
 40
27.51257789105425
 10
64.02836739776933
 20
2.99946999999999
 30
0.0
 10
64.02836739776933
 20
3.665540442974601
 30
0.0
 10
63.99772509704928
 20
5.000234040511621
 30
0.0
 10
63.85943086176972
 20
6.996328123197705
 30
0.0
 10
63.66505875061378
 20
8.650174079122705
 30
0.0
 10
63.46060132714557
 20
9.95834730999968
 30
0.0
 10
63.28334262503478
 20
10.92538873841593
 30
0.0
 10
63.08164060663802
 20
11.87831072269194
 30
0.0
 10
62.85535888221497
 20
12.81464686458884
 30
0.0
 10
62.60439110540474
 20
13.73192202600409
 30
0.0
 10
62.32865908284906
 20
14.62766557226281
 30
0.0
 10
62.0281182742618
 20
15.49941192747402
 30
0.0
 10
61.70276156893485
 20
16.3447064889006
 30
0.0
 10
61.35262331786834
 20
17.16111275452644
 30
0.0
 10
60.97778239236316
 20
17.94622244914611
 30
0.0
 10
60.57836347499384
 20
18.69766889794852
 30
0.0
 10
60.15453513676778
 20
19.41314417421815
 30
0.0
 10
59.70650278055146
 20
20.09042008556642
 30
0.0
 10
59.2344940041841
 20
20.72737237101235
 30
0.0
 10
58.73873364672473
 20
21.32200626003746
 30
0.0
 10
58.21940605733232
 20
21.87247978430561
 30
0.0
 10
57.67660347242671
 20
22.37711908856575
 30
0.0
 10
57.11026225367124
 20
22.83441803525063
 30
0.0
 10
56.52009337332763
 20
23.24301372987726
 30
0.0
 10
55.90551879140493
 20
23.60163165291959
 30
0.0
 10
55.26563078016652
 20
23.90899993163604
 30
0.0
 10
54.59918830736339
 20
24.16374154483842
 30
0.0
 10
53.90467164172245
 20
24.3642629185147
 30
0.0
 10
53.18035508391466
 20
24.508663542275
 30
0.0
 10
52.42453158145869
 20
24.5946870728549
 30
0.0
 10
51.90943054210563
 20
24.61103149933485
 30
0.0
 10
51.64728007874419
 20
24.60924131571372
 30
0.0
 11
64.02836739776933
 21
2.99946999999999
 31
0.0
 11
63.98242703611879
 21
4.997153157613072
 31
0.0
 11
63.84329171683999
 21
6.99756851065027
 31
0.0
 11
63.60914089274945
 21
8.980951175635125
 31
0.0
 11
63.45592655742928
 21
9.960073930694938
 31
0.0
 11
63.27838131250496
 21
10.92751645032728
 31
0.0
 11
63.07635077454233
 21
11.8807995840707
 31
0.0
 11
62.84970351864206
 21
12.81744197415585
 31
0.0
 11
62.59833461077585
 21
13.73496116902077
 31
0.0
 11
62.3221696632329
 21
14.6308756883519
 31
0.0
 11
62.02116933824288
 21
15.50270838263915
 31
0.0
 11
61.69533412179112
 21
16.34799152922456
 31
0.0
 11
61.3447090237903
 21
17.1642742113623
 31
0.0
 11
60.96938760787714
 21
17.94913261689884
 31
0.0
 11
60.56951438912733
 21
18.70018392915067
 31
0.0
 11
60.14528414503559
 21
19.41510439478175
 31
0.0
 11
59.69693607832187
 21
20.09165183260543
 31
0.0
 11
59.22474013044916
 21
20.72769214280399
 31
0.0
 11
58.72897227340013
 21
21.32122812024695
 31
0.0
 11
58.20987568220676
 21
21.87042695855541
 31
0.0
 11
57.66760588074715
 21
22.37364035569584
 31
0.0
 11
57.10216089988523
 21
22.82940863986704
 31
0.0
 11
56.51330254168738
 21
23.23643900990137
 31
0.0
 11
55.90048143669924
 21
23.59354956944967
 31
0.0
 11
55.26278459487298
 21
23.89957692101019
 31
0.0
 11
54.59892599135753
 21
24.15325570184619
 31
0.0
 11
53.90729487596161
 21
24.3530906508114
 31
0.0
 11
53.18606233921059
 21
24.4972498680268
 31
0.0
 11
52.43332863812066
 21
24.58350624073196
 31
0.0
 11
51.64728007874419
 21
24.60924131571372
 31
0.0
  0
SPLINE
  5
1CF
330
1C4
100
AcDbEntity
  8
-01
100
AcDbSpline
210
0.0
220
0.0
230
1.0
 70
  1064
 71
     3
 72
    36
 73
    32
 74
    30
 42
0.000000001
 43
0.0000000001
 44
0.0000000001
 12
0.0
 22
-1.0
 32
0.0
 13
-0.9999766842862604
 23
0.006828680974887039
 33
0.0
 40
0.0
 40
0.0
 40
0.0
 40
0.0
 40
1.998211328923834
 40
4.0034594985372
 40
6.000615827967799
 40
6.991653668831366
 40
7.975252846742674
 40
8.94970914199103
 40
9.913383332530312
 40
10.8647128237096
 40
11.8022254391979
 40
12.72455588023964
 40
13.63046547075158
 40
14.51886593028888
 40
15.38884804618806
 40
16.23971622910978
 40
17.07102999188549
 40
17.88265331865211
 40
18.67481257624169
 40
19.44816290086965
 40
20.20386167352178
 40
20.94364560186617
 40
21.6699050288193
 40
22.38574571511043
 40
23.09502539088
 40
23.80235134260122
 40
24.51302790005047
 40
25.23294984485542
 40
25.96844848657848
 40
26.72610816386691
 40
27.51257789105425
 40
27.51257789105425
 40
27.51257789105425
 40
27.51257789105425
 10
64.02836739776933
 20
2.99946999999999
 30
0.0
 10
64.02836739776933
 20
2.333399557025378
 30
0.0
 10
63.99772509704928
 20
0.9987059594883592
 30
0.0
 10
63.85943086176972
 20
-0.9973881231977265
 30
0.0
 10
63.66505875061379
 20
-2.651234079122726
 30
0.0
 10
63.46060132714557
 20
-3.9594073099997
 30
0.0
 10
63.28334262503476
 20
-4.926448738415952
 30
0.0
 10
63.08164060663803
 20
-5.879370722691958
 30
0.0
 10
62.85535888221497
 20
-6.815706864588865
 30
0.0
 10
62.60439110540476
 20
-7.732982026004111
 30
0.0
 10
62.32865908284907
 20
-8.628725572262832
 30
0.0
 10
62.0281182742618
 20
-9.500471927474035
 30
0.0
 10
61.70276156893486
 20
-10.34576648890062
 30
0.0
 10
61.35262331786833
 20
-11.16217275452646
 30
0.0
 10
60.97778239236315
 20
-11.94728244914612
 30
0.0
 10
60.57836347499384
 20
-12.69872889794855
 30
0.0
 10
60.15453513676776
 20
-13.41420417421817
 30
0.0
 10
59.70650278055147
 20
-14.09148008556644
 30
0.0
 10
59.23449400418409
 20
-14.72843237101236
 30
0.0
 10
58.73873364672475
 20
-15.32306626003749
 30
0.0
 10
58.21940605733231
 20
-15.87353978430562
 30
0.0
 10
57.67660347242671
 20
-16.37817908856578
 30
0.0
 10
57.11026225367124
 20
-16.83547803525065
 30
0.0
 10
56.52009337332763
 20
-17.24407372987728
 30
0.0
 10
55.90551879140492
 20
-17.60269165291962
 30
0.0
 10
55.26563078016653
 20
-17.91005993163606
 30
0.0
 10
54.59918830736341
 20
-18.16480154483845
 30
0.0
 10
53.90467164172244
 20
-18.36532291851474
 30
0.0
 10
53.18035508391468
 20
-18.50972354227501
 30
0.0
 10
52.42453158145869
 20
-18.59574707285493
 30
0.0
 10
51.90943054210563
 20
-18.61209149933487
 30
0.0
 10
51.64728007874419
 20
-18.61030131571375
 30
0.0
 11
64.02836739776933
 21
2.99946999999999
 31
0.0
 11
63.98242703611879
 21
1.001786842386908
 31
0.0
 11
63.84329171683999
 21
-0.9986285106502901
 31
0.0
 11
63.60914089274945
 21
-2.982011175635146
 31
0.0
 11
63.45592655742928
 21
-3.961133930694959
 31
0.0
 11
63.27838131250496
 21
-4.928576450327297
 31
0.0
 11
63.07635077454233
 21
-5.881859584070721
 31
0.0
 11
62.84970351864206
 21
-6.818501974155867
 31
0.0
 11
62.59833461077585
 21
-7.736021169020795
 31
0.0
 11
62.3221696632329
 21
-8.63193568835192
 31
0.0
 11
62.02116933824288
 21
-9.503768382639166
 31
0.0
 11
61.69533412179112
 21
-10.34905152922458
 31
0.0
 11
61.3447090237903
 21
-11.16533421136232
 31
0.0
 11
60.96938760787714
 21
-11.95019261689886
 31
0.0
 11
60.56951438912733
 21
-12.70124392915069
 31
0.0
 11
60.14528414503559
 21
-13.41616439478177
 31
0.0
 11
59.69693607832187
 21
-14.09271183260545
 31
0.0
 11
59.22474013044916
 21
-14.72875214280401
 31
0.0
 11
58.72897227340013
 21
-15.32228812024697
 31
0.0
 11
58.20987568220676
 21
-15.87148695855543
 31
0.0
 11
57.66760588074715
 21
-16.37470035569586
 31
0.0
 11
57.10216089988523
 21
-16.83046863986706
 31
0.0
 11
56.51330254168738
 21
-17.23749900990139
 31
0.0
 11
55.90048143669924
 21
-17.59460956944969
 31
0.0
 11
55.26278459487298
 21
-17.90063692101021
 31
0.0
 11
54.59892599135753
 21
-18.15431570184622
 31
0.0
 11
53.90729487596161
 21
-18.35415065081142
 31
0.0
 11
53.18606233921059
 21
-18.49830986802682
 31
0.0
 11
52.43332863812066
 21
-18.58456624073198
 31
0.0
 11
51.64728007874419
 21
-18.61030131571375
 31
0.0
  0
SPLINE
  5
1D0
330
1C4
100
AcDbEntity
  8
-01
100
AcDbSpline
210
0.0
220
0.0
230
1.0
 70
  1064
 71
     3
 72
    32
 73
    28
 74
    26
 42
0.000000001
 43
0.0000000001
 44
0.0000000001
 12
-0.9999766503140648
 22
0.006833653975921855
 32
0.0
 13
-0.9864730578985333
 23
0.1639234761720141
 33
0.0
 40
0.0
 40
0.0
 40
0.0
 40
0.0
 40
0.2073438104222063
 40
0.4500643162777657
 40
0.7259820562609891
 40
1.0335052011915
 40
1.371375320478142
 40
1.7385341157556
 40
2.134049105024752
 40
2.557070008819318
 40
3.006802034146219
 40
3.482488902092547
 40
3.983401722040229
 40
4.508831496890847
 40
5.058083952062376
 40
5.630475891492548
 40
6.225332580892526
 40
6.84198583668343
 40
7.479772608923156
 40
8.138033915970555
 40
9.513358944016225
 40
10.96274494382087
 40
12.48100375625
 40
14.06296714663811
 40
15.70348101711953
 40
17.39740156857546
 40
19.13959269460776
 40
19.13959269460776
 40
19.13959269460776
 40
19.13959269460776
 10
51.64728505174526
 20
-18.61030134968594
 30
0.0
 10
51.57817206207547
 20
-18.60982904440112
 30
0.0
 10
51.42816729085845
 20
-18.606742711904
 30
0.0
 10
51.18635271840861
 20
-18.59717972055568
 30
0.0
 10
50.9113664819576
 20
-18.58216290241082
 30
0.0
 10
50.6049402877814
 20
-18.56168483828934
 30
0.0
 10
50.26841358691649
 20
-18.53578096489415
 30
0.0
 10
49.90289698043824
 20
-18.50451125015599
 30
0.0
 10
49.50935741966658
 20
-18.46794619198481
 30
0.0
 10
49.08866894727044
 20
-18.42616197633009
 30
0.0
 10
48.64164304009665
 20
-18.37923748419453
 30
0.0
 10
48.16904789009741
 20
-18.32725293813746
 30
0.0
 10
47.67162093908971
 20
-18.27028914259553
 30
0.0
 10
47.15007730703093
 20
-18.20842710181108
 30
0.0
 10
46.60511559017757
 20
-18.14174782008318
 30
0.0
 10
46.0374219456614
 20
-18.07033219516824
 30
0.0
 10
45.44767301415699
 20
-17.99426100574632
 30
0.0
 10
44.83653809123776
 20
-17.9136147710906
 30
0.0
 10
44.20468059664585
 20
-17.8284742472853
 30
0.0
 10
43.32250696363532
 20
-17.70728818082863
 30
0.0
 10
42.17290614518507
 20
-17.54502820729783
 30
0.0
 10
40.74035905900234
 20
-17.33638865074325
 30
0.0
 10
39.24055435086028
 20
-17.11171219642383
 30
0.0
 10
37.67864869674878
 20
-16.87163405185039
 30
0.0
 10
36.0597824506089
 20
-16.61678791249916
 30
0.0
 10
34.38908494202195
 20
-16.34780793025384
 30
0.0
 10
33.25889774312165
 20
-16.16191428394657
 30
0.0
 10
32.6860228739414
 20
-16.06671894210149
 30
0.0
 11
51.64728505174526
 21
-18.61030134968594
 31
0.0
 11
51.43997828607291
 21
-18.60638208612344
 31
0.0
 11
51.19743730056712
 21
-18.5970485812804
 31
0.0
 11
50.92191891332732
 21
-18.58220885317542
 31
0.0
 11
50.61506924293917
 21
-18.56186765235939
 31
0.0
 11
50.27818528462842
 21
-18.53607199110309
 31
0.0
 11
49.91235314733524
 21
-18.50488820889026
 31
0.0
 11
49.51852563347154
 21
-18.46839168767912
 31
0.0
 11
49.09756801091874
 21
-18.42666202123111
 31
0.0
 11
48.65028618270048
 21
-18.3797806736569
 31
0.0
 11
48.1774446598497
 21
-18.32782982568751
 31
0.0
 11
47.67977839092134
 21
-18.27089180711585
 31
0.0
 11
47.15800076211792
 21
-18.20904882546189
 31
0.0
 11
46.61280913824839
 21
-18.14238284632365
 31
0.0
 11
46.04488878242068
 21
-18.07097555145009
 31
0.0
 11
45.45491568163368
 21
-17.99490833596492
 31
0.0
 11
44.84355861845665
 21
-17.9142623244015
 31
0.0
 11
44.21148071337188
 21
-17.82911839480217
 31
0.0
 11
43.55934058910088
 21
-17.73955720526364
 31
0.0
 11
42.19749082458998
 21
-17.54750473412513
 31
0.0
 11
40.76321753508182
 21
-17.33874672246293
 31
0.0
 11
39.26169694589146
 21
-17.11392292088456
 31
0.0
 11
37.69808336050141
 21
-16.87367154396461
 31
0.0
 11
36.07751574259964
 21
-16.61862967475464
 31
0.0
 11
34.40512215980334
 21
-16.349433577334
 31
0.0
 11
32.6860228739414
 21
-16.06671894210149
 31
0.0
  0
SPLINE
  5
1D1
330
1C4
100
AcDbEntity
  8
-01
100
AcDbSpline
210
0.0
220
0.0
230
1.0
 70
  1064
 71
     3
 72
    11
 73
     7
 74
     5
 42
0.000000001
 43
0.0000000001
 44
0.0000000001
 12
-0.9864730807987759
 22
0.1639233383608686
 32
0.0
 13
-0.9853641802249011
 23
0.1704624073797755
 33
0.0
 40
0.0
 40
0.0
 40
0.0
 40
0.0
 40
0.8875056816783342
 40
1.78514969827921
 40
2.692333839076269
 40
3.608460138585323
 40
3.608460138585323
 40
3.608460138585323
 40
3.608460138585323
 10
32.68602273613021
 20
-16.06671891920125
 30
0.0
 10
32.39418924811967
 20
-16.0182246211496
 30
0.0
 10
31.80727376151394
 20
-15.9201684837665
 30
0.0
 10
30.92234929640359
 20
-15.77078225504299
 30
0.0
 10
30.02826872012775
 20
-15.61832866814014
 30
0.0
 10
29.42931181851517
 20
-15.51519985126786
 30
0.0
 10
29.1284058051491
 20
-15.46314481977511
 30
0.0
 11
32.68602273613021
 21
-16.06671891920125
 31
0.0
 11
31.81064830116657
 21
-15.92047961660649
 31
0.0
 11
30.92552615713282
 21
-15.77106887174367
 31
0.0
 11
30.03124815416322
 21
-15.618589631457
 31
0.0
 11
29.1284058051491
 21
-15.46314481977511
 31
0.0
  0
SPLINE
  5
1D2
330
1C4
100
AcDbEntity
  8
-01
100
AcDbSpline
210
0.0
220
0.0
230
1.0
 70
  1064
 71
     3
 72
    11
 73
     7
 74
     5
 42
0.000000001
 43
0.0000000001
 44
0.0000000001
 12
-0.9853640435895301
 22
0.1704631972036506
 32
0.0
 13
-0.9835977278347604
 23
0.1803760233464987
 33
0.0
 40
0.0
 40
0.0
 40
0.0
 40
0.0
 40
0.925415358046139
 40
1.857073100055839
 40
2.794385200220655
 40
3.736767246635827
 40
3.736767246635827
 40
3.736767246635827
 40
3.736767246635827
 10
29.12840659497294
 20
-15.46314495641048
 30
0.0
 10
28.82444958857155
 20
-15.41056186951918
 30
0.0
 10
28.21447959014253
 20
-15.30507362205386
 30
0.0
 10
27.29683760101654
 20
-15.14521374074397
 30
0.0
 10
26.37403414534739
 20
-14.98204169173744
 30
0.0
 10
25.75745936765125
 20
-14.8705873141671
 30
0.0
 10
25.44848442111584
 20
-14.81392627216526
 30
0.0
 11
29.12840659497294
 21
-15.46314495641048
 31
0.0
 11
28.21656219680528
 21
-15.30524188982239
 31
0.0
 11
27.29876218377194
 21
-15.14515040247029
 31
0.0
 11
26.37580264411292
 21
-14.98175009259363
 31
0.0
 11
25.44848442111584
 21
-14.81392627216526
 31
0.0
  0
LINE
  5
1D3
330
1C4
100
AcDbEntity
  8
-01
100
AcDbLine
 10
25.448485229928
 20
-14.81392642048877
 30
0.0
 11
21.67321022992803
 21
-14.12159842048876
 31
0.0
  0
LINE
  5
1D4
330
1C4
100
AcDbEntity
  8
-01
100
AcDbLine
 10
21.68040787252664
 20
-14.12294561622838
 30
0.0
 11
17.86158887252668
 21
-13.39368861622838
 31
0.0
  0
LINE
  5
1D5
330
1C4
100
AcDbEntity
  8
-01
100
AcDbLine
 10
17.86901550243044
 20
-13.39513597737979
 30
0.0
 11
14.04578650243036
 21
-12.63500997737979
 31
0.0
  0
LINE
  5
1D6
330
1C4
100
AcDbEntity
  8
-01
100
AcDbLine
 10
14.0542158073406
 20
-12.63672359220231
 30
0.0
 11
6.620555324709471
 21
-11.04466212653532
 31
0.0
  0
LINE
  5
1D7
330
1C4
100
AcDbEntity
  8
-01
100
AcDbLine
 10
14.0542158073406
 20
18.63566359220228
 30
0.0
 11
6.620555324709471
 21
17.0436021265353
 31
0.0
  0
LINE
  5
1D8
330
1C4
100
AcDbEntity
  8
-01
100
AcDbLine
 10
17.86901550243044
 20
19.39407597737977
 30
0.0
 11
14.04578650243036
 21
18.63394997737977
 31
0.0
  0
LINE
  5
1D9
330
1C4
100
AcDbEntity
  8
-01
100
AcDbLine
 10
25.448485229928
 20
20.81286642048875
 30
0.0
 11
21.67321022992803
 21
20.12053842048874
 31
0.0
  0
LINE
  5
1DA
330
1C4
100
AcDbEntity
  8
-01
100
AcDbLine
 10
21.68040787252664
 20
20.12188561622836
 30
0.0
 11
17.86158887252668
 21
19.39262861622836
 31
0.0
  0
SPLINE
  5
1DB
330
1C4
100
AcDbEntity
  8
-01
100
AcDbSpline
210
0.0
220
0.0
230
1.0
 70
  1064
 71
     3
 72
    32
 73
    28
 74
    26
 42
0.000000001
 43
0.0000000001
 44
0.0000000001
 12
-0.9999766503140648
 22
-0.006833653975921855
 32
0.0
 13
-0.9864730578985333
 23
-0.1639234761720141
 33
0.0
 40
0.0
 40
0.0
 40
0.0
 40
0.0
 40
0.2073438104222063
 40
0.4500643162777656
 40
0.7259820562609891
 40
1.0335052011915
 40
1.371375320478142
 40
1.7385341157556
 40
2.134049105024751
 40
2.557070008819318
 40
3.006802034146219
 40
3.482488902092547
 40
3.983401722040228
 40
4.508831496890846
 40
5.058083952062375
 40
5.630475891492546
 40
6.225332580892525
 40
6.841985836683429
 40
7.479772608923156
 40
8.138033915970555
 40
9.513358944016225
 40
10.96274494382087
 40
12.48100375625
 40
14.06296714663811
 40
15.70348101711953
 40
17.39740156857546
 40
19.13959269460776
 40
19.13959269460776
 40
19.13959269460776
 40
19.13959269460776
 10
51.64728505174526
 20
24.60924134968592
 30
0.0
 10
51.57817206207547
 20
24.60876904440109
 30
0.0
 10
51.42816729085846
 20
24.60568271190399
 30
0.0
 10
51.18635271840861
 20
24.59611972055566
 30
0.0
 10
50.91136648195761
 20
24.5811029024108
 30
0.0
 10
50.6049402877814
 20
24.56062483828932
 30
0.0
 10
50.26841358691649
 20
24.53472096489413
 30
0.0
 10
49.90289698043823
 20
24.50345125015597
 30
0.0
 10
49.50935741966657
 20
24.46688619198478
 30
0.0
 10
49.08866894727044
 20
24.42510197633007
 30
0.0
 10
48.64164304009667
 20
24.37817748419452
 30
0.0
 10
48.16904789009741
 20
24.32619293813744
 30
0.0
 10
47.67162093908971
 20
24.26922914259552
 30
0.0
 10
47.15007730703095
 20
24.20736710181106
 30
0.0
 10
46.60511559017758
 20
24.14068782008316
 30
0.0
 10
46.03742194566142
 20
24.06927219516823
 30
0.0
 10
45.44767301415698
 20
23.99320100574629
 30
0.0
 10
44.83653809123776
 20
23.91255477109057
 30
0.0
 10
44.20468059664584
 20
23.82741424728528
 30
0.0
 10
43.32250696363533
 20
23.70622818082862
 30
0.0
 10
42.17290614518507
 20
23.54396820729781
 30
0.0
 10
40.74035905900234
 20
23.33532865074324
 30
0.0
 10
39.24055435086028
 20
23.11065219642381
 30
0.0
 10
37.67864869674878
 20
22.87057405185037
 30
0.0
 10
36.0597824506089
 20
22.61572791249913
 30
0.0
 10
34.38908494202195
 20
22.34674793025383
 30
0.0
 10
33.25889774312165
 20
22.16085428394655
 30
0.0
 10
32.6860228739414
 20
22.06565894210146
 30
0.0
 11
51.64728505174526
 21
24.60924134968592
 31
0.0
 11
51.43997828607291
 21
24.60532208612342
 31
0.0
 11
51.19743730056712
 21
24.59598858128038
 31
0.0
 11
50.92191891332732
 21
24.5811488531754
 31
0.0
 11
50.61506924293917
 21
24.56080765235937
 31
0.0
 11
50.27818528462842
 21
24.53501199110306
 31
0.0
 11
49.91235314733524
 21
24.50382820889024
 31
0.0
 11
49.51852563347154
 21
24.4673316876791
 31
0.0
 11
49.09756801091874
 21
24.42560202123109
 31
0.0
 11
48.65028618270048
 21
24.37872067365687
 31
0.0
 11
48.1774446598497
 21
24.32676982568749
 31
0.0
 11
47.67977839092134
 21
24.26983180711582
 31
0.0
 11
47.15800076211792
 21
24.20798882546187
 31
0.0
 11
46.61280913824839
 21
24.14132284632363
 31
0.0
 11
46.04488878242068
 21
24.06991555145007
 31
0.0
 11
45.45491568163368
 21
23.99384833596489
 31
0.0
 11
44.84355861845665
 21
23.91320232440147
 31
0.0
 11
44.21148071337188
 21
23.82805839480214
 31
0.0
 11
43.55934058910088
 21
23.73849720526363
 31
0.0
 11
42.19749082458998
 21
23.5464447341251
 31
0.0
 11
40.76321753508182
 21
23.33768672246291
 31
0.0
 11
39.26169694589146
 21
23.11286292088454
 31
0.0
 11
37.69808336050141
 21
22.87261154396459
 31
0.0
 11
36.07751574259964
 21
22.61756967475461
 31
0.0
 11
34.40512215980334
 21
22.34837357733397
 31
0.0
 11
32.6860228739414
 21
22.06565894210146
 31
0.0
  0
SPLINE
  5
1DC
330
1C4
100
AcDbEntity
  8
-01
100
AcDbSpline
210
0.0
220
0.0
230
1.0
 70
  1064
 71
     3
 72
    11
 73
     7
 74
     5
 42
0.000000001
 43
0.0000000001
 44
0.0000000001
 12
-0.9853640435895301
 22
-0.1704631972036506
 32
0.0
 13
-0.9835977278347604
 23
-0.1803760233464987
 33
0.0
 40
0.0
 40
0.0
 40
0.0
 40
0.0
 40
0.925415358046139
 40
1.857073100055839
 40
2.794385200220655
 40
3.736767246635827
 40
3.736767246635827
 40
3.736767246635827
 40
3.736767246635827
 10
29.12840659497294
 20
21.46208495641046
 30
0.0
 10
28.82444958857155
 20
21.40950186951916
 30
0.0
 10
28.21447959014252
 20
21.30401362205384
 30
0.0
 10
27.29683760101654
 20
21.14415374074394
 30
0.0
 10
26.37403414534739
 20
20.98098169173742
 30
0.0
 10
25.75745936765125
 20
20.86952731416707
 30
0.0
 10
25.44848442111584
 20
20.81286627216524
 30
0.0
 11
29.12840659497294
 21
21.46208495641046
 31
0.0
 11
28.21656219680528
 21
21.30418188982237
 31
0.0
 11
27.29876218377194
 21
21.14409040247027
 31
0.0
 11
26.37580264411292
 21
20.9806900925936
 31
0.0
 11
25.44848442111584
 21
20.81286627216524
 31
0.0
  0
SPLINE
  5
1DD
330
1C4
100
AcDbEntity
  8
-01
100
AcDbSpline
210
0.0
220
0.0
230
1.0
 70
  1064
 71
     3
 72
    11
 73
     7
 74
     5
 42
0.000000001
 43
0.0000000001
 44
0.0000000001
 12
-0.9864730807987759
 22
-0.1639233383608686
 32
0.0
 13
-0.9853641802249011
 23
-0.1704624073797755
 33
0.0
 40
0.0
 40
0.0
 40
0.0
 40
0.0
 40
0.8875056816783351
 40
1.78514969827921
 40
2.692333839076269
 40
3.608460138585323
 40
3.608460138585323
 40
3.608460138585323
 40
3.608460138585323
 10
32.68602273613021
 20
22.06565891920123
 30
0.0
 10
32.39418924811967
 20
22.01716462114958
 30
0.0
 10
31.80727376151395
 20
21.91910848376647
 30
0.0
 10
30.9223492964036
 20
21.76972225504297
 30
0.0
 10
30.02826872012774
 20
21.61726866814012
 30
0.0
 10
29.42931181851517
 20
21.51413985126784
 30
0.0
 10
29.1284058051491
 20
21.46208481977509
 30
0.0
 11
32.68602273613021
 21
22.06565891920123
 31
0.0
 11
31.81064830116657
 21
21.91941961660646
 31
0.0
 11
30.92552615713282
 21
21.77000887174365
 31
0.0
 11
30.03124815416322
 21
21.61752963145697
 31
0.0
 11
29.1284058051491
 21
21.46208481977509
 31
0.0
  0
SPLINE
  5
1DE
330
1C4
100
AcDbEntity
  8
-01
100
AcDbSpline
210
0.0
220
0.0
230
1.0
 70
     8
 71
     3
 72
    34
 73
    30
 74
     0
 42
0.000000001
 43
0.0000000001
 40
0.0
 40
0.0
 40
0.0
 40
0.0
 40
0.6431018768372836
 40
1.272071055483647
 40
1.888437806085567
 40
2.493698289596495
 40
3.08930364129532
 40
3.676649237870379
 40
4.257064566384608
 40
4.831804088087771
 40
5.402039431699223
 40
5.968853166598132
 40
6.533234306835964
 40
7.096075593817968
 40
7.658172509903283
 40
8.220223895558975
 40
8.782833984201096
 40
9.34651563308721
 40
9.91169451421204
 40
10.47871403270773
 40
11.04784075726383
 40
11.61927017292723
 40
12.19313259709478
 40
12.76949913118289
 40
13.34838755087054
 40
13.92976806537924
 40
14.5135689001353
 40
15.09968167707626
 40
15.67195377499002
 40
15.67195377499002
 40
15.67195377499002
 40
15.67195377499002
 10
6.620555324709471
 20
17.0436021265353
 30
0.0
 10
6.411228906433394
 20
16.99738755512366
 30
0.0
 10
5.999282223486489
 20
16.89607847745616
 30
0.0
 10
5.395879812071144
 20
16.71592365245653
 30
0.0
 10
4.814021535999018
 20
16.51029744662438
 30
0.0
 10
4.253452682746115
 20
16.28009135539902
 30
0.0
 10
3.713900638867699
 20
16.02615559959284
 30
0.0
 10
3.19511151054644
 20
15.74930763346856
 30
0.0
 10
2.696849307520552
 20
15.45033395901907
 30
0.0
 10
2.21890367348874
 20
15.12999542079196
 30
0.0
 10
1.761093733292569
 20
14.78903290323204
 30
0.0
 10
1.323271035889775
 20
14.42817371956621
 30
0.0
 10
0.9053207174021054
 20
14.04813807045953
 30
0.0
 10
0.5071611934019984
 20
13.64964522198779
 30
0.0
 10
0.1287425204767487
 20
13.2334190628347
 30
0.0
 10
-0.2299562882980126
 20
12.80019281179062
 30
0.0
 10
-0.5689306958555562
 20
12.3507127435337
 30
0.0
 10
-0.8881545202447114
 20
11.88574089616016
 30
0.0
 10
-1.187583989108475
 20
11.4060568015583
 30
0.0
 10
-1.467161743956467
 20
10.91245833655874
 30
0.0
 10
-1.726820622725199
 20
10.40576182754519
 30
0.0
 10
-1.966487103289296
 20
9.886801556305693
 30
0.0
 10
-2.186084339674721
 20
9.356428814345426
 30
0.0
 10
-2.385534763421219
 20
8.815510640984145
 30
0.0
 10
-2.564762253802314
 20
8.264928362917138
 30
0.0
 10
-2.723693902438299
 20
7.705576028517333
 30
0.0
 10
-2.862261411810437
 20
7.138358819268392
 30
0.0
 10
-2.979326205123471
 20
6.569420693418222
 30
0.0
 10
-3.043618483629871
 20
6.188601617405608
 30
0.0
 10
-3.072105527892745
 20
5.999973000011169
 30
0.0
  0
SPLINE
  5
1DF
330
1C4
100
AcDbEntity
  8
-01
100
AcDbSpline
210
0.0
220
0.0
230
1.0
 70
     8
 71
     3
 72
    34
 73
    30
 74
     0
 42
0.000000001
 43
0.0000000001
 40
0.0
 40
0.0
 40
0.0
 40
0.0
 40
0.6431018768372834
 40
1.272071055483647
 40
1.888437806085567
 40
2.493698289596495
 40
3.08930364129532
 40
3.676649237870379
 40
4.257064566384609
 40
4.83180408808777
 40
5.402039431699222
 40
5.968853166598131
 40
6.533234306835964
 40
7.096075593817966
 40
7.658172509903281
 40
8.220223895558973
 40
8.782833984201094
 40
9.34651563308721
 40
9.911694514212039
 40
10.47871403270773
 40
11.04784075726382
 40
11.61927017292723
 40
12.19313259709478
 40
12.76949913118289
 40
13.34838755087054
 40
13.92976806537924
 40
14.5135689001353
 40
15.09968167707626
 40
15.6729984278249
 40
15.6729984278249
 40
15.6729984278249
 40
15.6729984278249
 10
6.620555324709471
 20
-11.04466212653532
 30
0.0
 10
6.411228906433394
 20
-10.99844755512368
 30
0.0
 10
5.999282223486375
 20
-10.89713847745617
 30
0.0
 10
5.395879812071485
 20
-10.71698365245655
 30
0.0
 10
4.814021535998904
 20
-10.5113574466244
 30
0.0
 10
4.253452682745888
 20
-10.28115135539903
 30
0.0
 10
3.71390063886804
 20
-10.02721559959287
 30
0.0
 10
3.195111510546212
 20
-9.750367633468572
 30
0.0
 10
2.696849307520438
 20
-9.451393959019091
 30
0.0
 10
2.21890367348874
 20
-9.131055420791986
 30
0.0
 10
1.761093733292682
 20
-8.790092903232052
 30
0.0
 10
1.323271035889775
 20
-8.429233719566243
 30
0.0
 10
0.9053207174019917
 20
-8.049198070459546
 30
0.0
 10
0.5071611934021121
 20
-7.650705221987822
 30
0.0
 10
0.1287425204768624
 20
-7.234479062834724
 30
0.0
 10
-0.2299562882981263
 20
-6.801252811790636
 30
0.0
 10
-0.5689306958553288
 20
-6.351772743533729
 30
0.0
 10
-0.8881545202447114
 20
-5.88680089616018
 30
0.0
 10
-1.187583989108248
 20
-5.407116801558322
 30
0.0
 10
-1.467161743956808
 20
-4.913518336558759
 30
0.0
 10
-1.726820622725313
 20
-4.40682182754521
 30
0.0
 10
-1.966487103289182
 20
-3.887861556305714
 30
0.0
 10
-2.186084339674721
 20
-3.357488814345439
 30
0.0
 10
-2.385534763421333
 20
-2.816570640984169
 30
0.0
 10
-2.564762253802542
 20
-2.265988362917149
 30
0.0
 10
-2.723693902438299
 20
-1.706636028517361
 30
0.0
 10
-2.862261411810209
 20
-1.139418819268409
 30
0.0
 10
-2.979396399746065
 20
-0.5701395456159446
 30
0.0
 10
-3.043734432538372
 20
-0.1889747560215724
 30
0.0
 10
-3.072261499989395
 20
0.0000000000046221
 30
0.0
  0
ENDBLK
  5
1E0
330
1C4
100
AcDbEntity
  8
0
100
AcDbBlockEnd
  0
BLOCK
  5
1E4
330
1E3
100
AcDbEntity
  8
0
100
AcDbBlockBegin
  2
CH5
 70
     0
 10
0.0
 20
0.0
 30
0.0
  3
CH5
  1
CH5
  0
SPLINE
  5
1E5
330
1E3
100
AcDbEntity
  8
-01
100
AcDbSpline
210
0.0
220
0.0
230
1.0
 70
     8
 71
     3
 72
     8
 73
     4
 74
     0
 42
0.000000001
 43
0.0000001
 40
0.0
 40
0.0
 40
0.0
 40
0.0
 40
1.0
 40
1.0
 40
1.0
 40
1.0
 10
-15.00787299999996
 20
21.35929400000003
 30
0.0
 10
-15.12157299999996
 20
21.04978000000006
 30
0.0
 10
-15.23188699999997
 20
20.73112300000003
 30
0.0
 10
-15.33595600000001
 20
20.40284600000001
 30
0.0
  0
SPLINE
  5
1E6
330
1E3
100
AcDbEntity
  8
-01
100
AcDbSpline
210
0.0
220
0.0
230
1.0
 70
     8
 71
     3
 72
     8
 73
     4
 74
     0
 42
0.000000001
 43
0.0000001
 40
0.0
 40
0.0
 40
0.0
 40
0.0
 40
1.0
 40
1.0
 40
1.0
 40
1.0
 10
-15.33595600000001
 20
20.40284600000001
 30
0.0
 10
-18.87128299999995
 20
9.232505000000003
 30
0.0
 10
-5.52220699999998
 20
1.034383000000048
 30
0.0
 10
-0.5759809999999561
 20
-1.567733999999973
 30
0.0
  0
LINE
  5
1E7
330
1E3
100
AcDbEntity
  8
-01
100
AcDbLine
 10
-0.5759809999999561
 20
-1.567733999999973
 30
0.0
 11
0.0
 21
0.0
 31
0.0
  0
LINE
  5
1E8
330
1E3
100
AcDbEntity
  8
-01
100
AcDbLine
 10
0.0
 20
0.0
 30
0.0
 11
11.26384676773353
 21
-4.138305630008972
 31
0.0
  0
LINE
  5
1E9
330
1E3
100
AcDbEntity
  8
-01
100
AcDbLine
 10
11.26384676773353
 20
-4.138305630008972
 30
0.0
 11
13.33299476773345
 21
1.493600369990986
 31
0.0
  0
LINE
  5
1EA
330
1E3
100
AcDbEntity
  8
-01
100
AcDbLine
 10
13.33299476773345
 20
1.493600369990986
 30
0.0
 11
2.0691470000001
 21
5.631906000000072
 31
0.0
  0
LINE
  5
1EB
330
1E3
100
AcDbEntity
  8
-01
100
AcDbLine
 10
2.069147000000044
 20
5.631906000000015
 30
0.0
 11
2.605192999999986
 21
7.090960000000052
 31
0.0
  0
SPLINE
  5
1EC
330
1E3
100
AcDbEntity
  8
-01
100
AcDbSpline
210
0.0
220
0.0
230
1.0
 70
     8
 71
     3
 72
     8
 73
     4
 74
     0
 42
0.000000001
 43
0.0000001
 40
0.0
 40
0.0
 40
0.0
 40
0.0
 40
1.0
 40
1.0
 40
1.0
 40
1.0
 10
2.605192999999986
 20
7.090960000000052
 30
0.0
 10
2.205637000000024
 20
7.808189000000027
 30
0.0
 10
1.905211000000008
 20
8.542376000000047
 30
0.0
 10
1.877306000000033
 20
9.160044000000028
 30
0.0
  0
SPLINE
  5
1ED
330
1E3
100
AcDbEntity
  8
-01
100
AcDbSpline
210
0.0
220
0.0
230
1.0
 70
     8
 71
     3
 72
     8
 73
     4
 74
     0
 42
0.000000001
 43
0.0000001
 40
0.0
 40
0.0
 40
0.0
 40
0.0
 40
1.0
 40
1.0
 40
1.0
 40
1.0
 10
1.877306000000033
 20
9.160044000000028
 30
0.0
 10
1.784032000000025
 20
11.22566400000005
 30
0.0
 10
4.655643000000055
 20
12.73401100000001
 30
0.0
 10
4.47385700000001
 20
14.79373600000002
 30
0.0
  0
SPLINE
  5
1EE
330
1E3
100
AcDbEntity
  8
-01
100
AcDbSpline
210
0.0
220
0.0
230
1.0
 70
     8
 71
     3
 72
     8
 73
     4
 74
     0
 42
0.000000001
 43
0.0000001
 40
0.0
 40
0.0
 40
0.0
 40
0.0
 40
1.0
 40
1.0
 40
1.0
 40
1.0
 10
4.47385700000001
 20
14.79373600000002
 30
0.0
 10
4.267411000000038
 20
17.13285000000002
 30
0.0
 10
1.100031000000001
 20
18.31960100000003
 30
0.0
 10
0.44982600000003
 20
20.57603200000005
 30
0.0
  0
SPLINE
  5
1EF
330
1E3
100
AcDbEntity
  8
-01
100
AcDbSpline
210
0.0
220
0.0
230
1.0
 70
     8
 71
     3
 72
     8
 73
     4
 74
     0
 42
0.000000001
 43
0.0000001
 40
0.0
 40
0.0
 40
0.0
 40
0.0
 40
1.0
 40
1.0
 40
1.0
 40
1.0
 10
0.44982600000003
 20
20.57603200000005
 30
0.0
 10
-0.1325739999999769
 20
22.59716300000002
 30
0.0
 10
2.063537999999994
 20
25.24013100000002
 30
0.0
 10
0.7455600000000118
 20
26.87943300000001
 30
0.0
  0
SPLINE
  5
1F0
330
1E3
100
AcDbEntity
  8
-01
100
AcDbSpline
210
0.0
220
0.0
230
1.0
 70
     8
 71
     3
 72
     8
 73
     4
 74
     0
 42
0.000000001
 43
0.0000001
 40
0.0
 40
0.0
 40
0.0
 40
0.0
 40
1.0
 40
1.0
 40
1.0
 40
1.0
 10
0.7455600000000118
 20
26.87943300000001
 30
0.0
 10
-2.88349999999997
 20
31.39333800000003
 30
0.0
 10
-11.45289600000001
 20
30.94369400000005
 30
0.0
 10
-15.008014
 20
21.35935700000005
 30
0.0
  0
LINE
  5
1F1
330
1E3
100
AcDbEntity
  8
-01
100
AcDbLine
 10
-15.008014
 20
21.35935700000005
 30
0.0
 11
-15.00787299999996
 21
21.35929400000003
 31
0.0
  0
ENDBLK
  5
1F2
330
1E3
100
AcDbEntity
  8
0
100
AcDbBlockEnd
  0
ENDSEC
  0
SECTION
  2
ENTITIES
  0
LINE
  5
2D6
330
1F
100
AcDbEntity
  8
0
100
AcDbLine
 10
167.7701554404143
 20
150.2339379108366
 30
0.0
 11
167.7701554404143
 21
0.2339299108366788
 31
0.0
  0
LINE
  5
2D7
330
1F
100
AcDbEntity
  8
-01
100
AcDbLine
 10
168.5201424404145
 20
109.7834709108367
 30
0.0
 11
168.5201424404145
 21
109.7834709108367
 31
0.0
  0
LINE
  5
2D8
330
1F
100
AcDbEntity
  8
0
100
AcDbLine
 10
124.9999999999995
 20
150.2339379108366
 30
0.0
 11
0.0
 21
150.2339379108366
 31
0.0
  0
LINE
  5
2D9
330
1F
100
AcDbEntity
  8
0
100
AcDbLine
 10
124.9999999999995
 20
150.2339379108366
 30
0.0
 11
0.0
 21
150.2339379108366
 31
0.0
  0
LINE
  5
2DA
330
1F
100
AcDbEntity
  8
0
100
AcDbLine
 10
0.0
 20
150.2339379108366
 30
0.0
 11
0.0
 21
0.2339299108366788
 31
0.0
  0
LINE
  5
2DB
330
1F
100
AcDbEntity
  8
0
100
AcDbLine
 10
0.0
 20
0.2339299108366788
 30
0.0
 11
167.7701554404143
 21
0.2339299108366788
 31
0.0
  0
LINE
  5
2DC
330
1F
100
AcDbEntity
  8
0
100
AcDbLine
 10
0.0
 20
150.2339379108366
 30
0.0
 11
167.7701554404143
 21
150.2339379108366
 31
0.0
  0
LINE
  5
2DD
330
1F
100
AcDbEntity
  8
-01
100
AcDbLine
 10
66.84276199999977
 20
136.5960209108366
 30
0.0
 11
66.84276199999977
 21
136.5960209108366
 31
0.0
  0
LINE
  5
2DE
330
1F
100
AcDbEntity
  8
-01
100
AcDbLine
 10
0.7499869999996918
 20
103.7834709108368
 30
0.0
 11
0.7499869999996918
 21
41.78390791083669
 31
0.0
  0
LINE
  5
2DF
330
1F
100
AcDbEntity
  8
-01
100
AcDbLine
 10
1.749986999999692
 20
35.78390791083669
 30
0.0
 11
11.74993399999994
 21
35.78390791083669
 31
0.0
  0
LINE
  5
2E0
330
1F
100
AcDbEntity
  8
-01
100
AcDbLine
 10
12.74993399999994
 20
41.78390791083669
 30
0.0
 11
12.74993399999994
 21
103.7834709108368
 31
0.0
  0
LINE
  5
2E1
330
1F
100
AcDbEntity
  8
-01
100
AcDbLine
 10
11.74993399999994
 20
109.7834709108367
 30
0.0
 11
1.749986999999692
 21
109.7834709108367
 31
0.0
  0
LINE
  5
2E2
330
1F
100
AcDbEntity
  8
-03
100
AcDbLine
 10
3.750255999999808
 20
75.78338291083676
 30
0.0
 11
9.750229999999647
 21
75.78338291083676
 31
0.0
  0
LINE
  5
2E3
330
1F
100
AcDbEntity
  8
-03
100
AcDbLine
 10
9.750229999999647
 20
75.78338291083676
 30
0.0
 11
9.750229999999647
 21
69.7834099108367
 31
0.0
  0
LINE
  5
2E4
330
1F
100
AcDbEntity
  8
-03
100
AcDbLine
 10
9.750229999999647
 20
69.7834099108367
 30
0.0
 11
3.750255999999808
 21
69.7834099108367
 31
0.0
  0
LINE
  5
2E5
330
1F
100
AcDbEntity
  8
-03
100
AcDbLine
 10
3.750255999999808
 20
69.7834099108367
 30
0.0
 11
3.750255999999808
 21
75.78338291083676
 31
0.0
  0
LINE
  5
2E6
330
1F
100
AcDbEntity
  8
-03
100
AcDbLine
 10
3.750255999999808
 20
75.78338291083676
 30
0.0
 11
3.750255999999808
 21
75.78338291083676
 31
0.0
  0
LINE
  5
2E7
330
1F
100
AcDbEntity
  8
-01
100
AcDbLine
 10
13.74993399999994
 20
35.78390791083669
 30
0.0
 11
23.74988200000007
 21
35.78390791083669
 31
0.0
  0
LINE
  5
2E8
330
1F
100
AcDbEntity
  8
-01
100
AcDbLine
 10
24.74988200000007
 20
41.78390791083669
 30
0.0
 11
24.74988200000007
 21
103.7834709108368
 31
0.0
  0
LINE
  5
2E9
330
1F
100
AcDbEntity
  8
-01
100
AcDbLine
 10
23.74988200000007
 20
109.7834709108367
 30
0.0
 11
13.74993399999994
 21
109.7834709108367
 31
0.0
  0
LINE
  5
2EA
330
1F
100
AcDbEntity
  8
-03
100
AcDbLine
 10
15.75020399999994
 20
88.00106591083673
 30
0.0
 11
21.75017699999989
 21
88.00106591083673
 31
0.0
  0
LINE
  5
2EB
330
1F
100
AcDbEntity
  8
-03
100
AcDbLine
 10
21.75017699999989
 20
88.00106591083673
 30
0.0
 11
21.75017699999989
 21
82.00109191083666
 31
0.0
  0
LINE
  5
2EC
330
1F
100
AcDbEntity
  8
-03
100
AcDbLine
 10
21.75017699999989
 20
82.00109191083666
 30
0.0
 11
15.75020399999994
 21
82.00109191083666
 31
0.0
  0
LINE
  5
2ED
330
1F
100
AcDbEntity
  8
-03
100
AcDbLine
 10
15.75020399999994
 20
82.00109191083666
 30
0.0
 11
15.75020399999994
 21
88.00106591083673
 31
0.0
  0
LINE
  5
2EE
330
1F
100
AcDbEntity
  8
-03
100
AcDbLine
 10
15.75020399999994
 20
63.56626591083673
 30
0.0
 11
21.75017699999989
 21
63.56626591083673
 31
0.0
  0
LINE
  5
2EF
330
1F
100
AcDbEntity
  8
-03
100
AcDbLine
 10
21.75017699999989
 20
63.56626591083673
 30
0.0
 11
21.75017699999989
 21
57.56629191083667
 31
0.0
  0
LINE
  5
2F0
330
1F
100
AcDbEntity
  8
-03
100
AcDbLine
 10
21.75017699999989
 20
57.56629191083667
 30
0.0
 11
15.75020399999994
 21
57.56629191083667
 31
0.0
  0
LINE
  5
2F1
330
1F
100
AcDbEntity
  8
-03
100
AcDbLine
 10
15.75020399999994
 20
57.56629191083667
 30
0.0
 11
15.75020399999994
 21
63.56626591083673
 31
0.0
  0
LINE
  5
2F9
330
1F
100
AcDbEntity
  8
0
100
AcDbLine
 10
167.7701554404143
 20
150.2339379108366
 30
0.0
 11
167.7701554404143
 21
0.2339299108366788
 31
0.0
  0
ARC
  5
2FB
330
1F
100
AcDbEntity
  8
-01
100
AcDbCircle
 10
140.1894593358679
 20
121.0020895494827
 30
0.0
 40
3.0
100
AcDbArc
 50
0.0
 51
180.0
  0
ARC
  5
2FC
330
1F
100
AcDbEntity
  8
-01
100
AcDbCircle
 10
140.1894593358679
 20
77.00208954948269
 30
0.0
 40
3.0
100
AcDbArc
 50
180.0
 51
0.0
  0
ARC
  5
2FF
330
1F
100
AcDbEntity
  8
-01
100
AcDbCircle
 10
146.1894593358679
 20
77.00208954948269
 30
0.0
 40
3.0
100
AcDbArc
 50
180.0
 51
0.0
  0
ARC
  5
301
330
1F
100
AcDbEntity
  8
-01
100
AcDbCircle
 10
146.1894593358679
 20
121.0020895494827
 30
0.0
 40
3.0
100
AcDbArc
 50
0.0
 51
180.0
  0
ARC
  5
302
330
1F
100
AcDbEntity
  8
-01
100
AcDbCircle
 10
154.3167580792215
 20
121.5375899934368
 30
0.0
 40
3.0
100
AcDbArc
 50
0.0
 51
180.0
  0
ARC
  5
303
330
1F
100
AcDbEntity
  8
-01
100
AcDbCircle
 10
154.3167580792215
 20
77.5375899934368
 30
0.0
 40
3.0
100
AcDbArc
 50
180.0
 51
0.0
  0
LINE
  5
304
330
1F
100
AcDbEntity
  8
-01
100
AcDbLine
 10
157.3167580792215
 20
96.5375899934368
 30
0.0
 11
157.7167580792216
 21
96.5375899934368
 31
0.0
  0
LINE
  5
305
330
1F
100
AcDbEntity
  8
-01
100
AcDbLine
 10
157.7167580792216
 20
96.5375899934368
 30
0.0
 11
157.3167580792215
 21
90.5375899934368
 31
0.0
  0
LINE
  5
306
330
1F
100
AcDbEntity
  8
-01
100
AcDbLine
 10
151.3167580792215
 20
96.5375899934368
 30
0.0
 11
150.9167580792214
 21
96.5375899934368
 31
0.0
  0
LINE
  5
307
330
1F
100
AcDbEntity
  8
-01
100
AcDbLine
 10
150.9167580792214
 20
96.5375899934368
 30
0.0
 11
151.3167580792215
 21
90.5375899934368
 31
0.0
  0
ARC
  5
30C
330
1F
100
AcDbEntity
  8
-01
100
AcDbCircle
 10
161.1167580792217
 20
71.5375899934368
 30
0.0
 40
3.0
100
AcDbArc
 50
180.0
 51
0.0
  0
ARC
  5
30D
330
1F
100
AcDbEntity
  8
-01
100
AcDbCircle
 10
161.1167580792217
 20
115.5375899934368
 30
0.0
 40
3.0
100
AcDbArc
 50
0.0
 51
180.0
  0
LINE
  5
30E
330
1F
100
AcDbEntity
  8
-01
100
AcDbLine
 10
164.1167580792217
 20
96.5375899934368
 30
0.0
 11
164.5167580792217
 21
96.5375899934368
 31
0.0
  0
LINE
  5
30F
330
1F
100
AcDbEntity
  8
-01
100
AcDbLine
 10
164.5167580792217
 20
96.5375899934368
 30
0.0
 11
164.1167580792217
 21
102.5375899934368
 31
0.0
  0
LINE
  5
310
330
1F
100
AcDbEntity
  8
-01
100
AcDbLine
 10
158.1167580792217
 20
96.5375899934368
 30
0.0
 11
157.7167580792216
 21
96.5375899934368
 31
0.0
  0
LINE
  5
311
330
1F
100
AcDbEntity
  8
-01
100
AcDbLine
 10
157.7167580792216
 20
96.5375899934368
 30
0.0
 11
158.1167580792217
 21
102.5375899934368
 31
0.0
  0
LINE
  5
316
330
1F
100
AcDbEntity
  8
-01
100
AcDbLine
 10
1.749986999999692
 20
35.78390791083669
 30
0.0
 11
1.749986999999692
 21
41.78390791083669
 31
0.0
  0
LINE
  5
317
330
1F
100
AcDbEntity
  8
-01
100
AcDbLine
 10
1.749986999999692
 20
41.78390791083669
 30
0.0
 11
0.7499869999996918
 21
41.78390791083669
 31
0.0
  0
LINE
  5
318
330
1F
100
AcDbEntity
  8
-01
100
AcDbLine
 10
11.74993399999994
 20
35.78390791083669
 30
0.0
 11
11.74993399999994
 21
41.78390791083669
 31
0.0
  0
LINE
  5
319
330
1F
100
AcDbEntity
  8
-01
100
AcDbLine
 10
13.74993399999994
 20
35.78390791083669
 30
0.0
 11
13.74993399999994
 21
41.78390791083669
 31
0.0
  0
LINE
  5
31A
330
1F
100
AcDbEntity
  8
-01
100
AcDbLine
 10
13.74993399999994
 20
41.78390791083669
 30
0.0
 11
11.74993399999994
 21
41.78390791083669
 31
0.0
  0
LINE
  5
31B
330
1F
100
AcDbEntity
  8
-01
100
AcDbLine
 10
23.74988200000007
 20
35.78390791083669
 30
0.0
 11
23.74988200000007
 21
41.78390791083669
 31
0.0
  0
LINE
  5
31C
330
1F
100
AcDbEntity
  8
-01
100
AcDbLine
 10
23.74988200000007
 20
41.78390791083669
 30
0.0
 11
24.74988200000007
 21
41.78390791083669
 31
0.0
  0
LINE
  5
31D
330
1F
100
AcDbEntity
  8
-01
100
AcDbLine
 10
1.749986999999692
 20
103.7834709108368
 30
0.0
 11
0.7499869999996918
 21
103.7834709108368
 31
0.0
  0
LINE
  5
31E
330
1F
100
AcDbEntity
  8
-01
100
AcDbLine
 10
13.74993399999994
 20
103.7834709108368
 30
0.0
 11
11.74993399999994
 21
103.7834709108368
 31
0.0
  0
LINE
  5
31F
330
1F
100
AcDbEntity
  8
-01
100
AcDbLine
 10
23.74988200000007
 20
103.7834709108368
 30
0.0
 11
24.74988200000007
 21
103.7834709108368
 31
0.0
  0
LINE
  5
320
330
1F
100
AcDbEntity
  8
-01
100
AcDbLine
 10
1.749986999999692
 20
109.7834709108367
 30
0.0
 11
1.749986999999692
 21
103.7834709108368
 31
0.0
  0
LINE
  5
321
330
1F
100
AcDbEntity
  8
-01
100
AcDbLine
 10
13.74993399999994
 20
109.7834709108367
 30
0.0
 11
13.74993399999994
 21
103.7834709108368
 31
0.0
  0
LINE
  5
322
330
1F
100
AcDbEntity
  8
-01
100
AcDbLine
 10
11.74993399999994
 20
109.7834709108367
 30
0.0
 11
11.74993399999994
 21
103.7834709108368
 31
0.0
  0
LINE
  5
323
330
1F
100
AcDbEntity
  8
-01
100
AcDbLine
 10
23.74988200000007
 20
109.7834709108367
 30
0.0
 11
23.74988200000007
 21
103.7834709108368
 31
0.0
  0
SPLINE
  5
4F2
330
1F
100
AcDbEntity
  8
0
 62
     7
100
AcDbSpline
210
0.0
220
0.0
230
1.0
 70
     8
 71
     3
 72
     8
 73
     4
 74
     0
 42
0.000000001
 43
0.0000001
 40
0.0
 40
0.0
 40
0.0
 40
0.0
 40
1.0
 40
1.0
 40
1.0
 40
1.0
 10
92.8187181381282
 20
-11.57620783191742
 30
0.0
 10
95.3553321381282
 20
-11.57620783191742
 30
0.0
 10
97.4951411381282
 20
-12.44686283191741
 30
0.0
 10
99.2370161381282
 20
-14.18873883191742
 30
0.0
  0
SPLINE
  5
4F3
330
1F
100
AcDbEntity
  8
0
 62
     7
100
AcDbSpline
210
0.0
220
0.0
230
1.0
 70
     8
 71
     3
 72
     8
 73
     4
 74
     0
 42
0.000000001
 43
0.0000001
 40
0.0
 40
0.0
 40
0.0
 40
0.0
 40
1.0
 40
1.0
 40
1.0
 40
1.0
 10
99.2370161381282
 20
-14.18873883191742
 30
0.0
 10
100.9890521381282
 20
-15.94133883191742
 30
0.0
 10
101.8659161381282
 20
-18.08086583191742
 30
0.0
 10
101.8659161381282
 20
-20.60731883191742
 30
0.0
  0
SPLINE
  5
4F4
330
1F
100
AcDbEntity
  8
0
 62
     7
100
AcDbSpline
210
0.0
220
0.0
230
1.0
 70
     8
 71
     3
 72
     8
 73
     4
 74
     0
 42
0.000000001
 43
0.0000001
 40
0.0
 40
0.0
 40
0.0
 40
0.0
 40
1.0
 40
1.0
 40
1.0
 40
1.0
 10
101.8659161381282
 20
-20.60731883191742
 30
0.0
 10
101.8659161381282
 20
-23.14477883191742
 30
0.0
 10
101.0054211381282
 20
-25.25721183191742
 30
0.0
 10
99.2849941381282
 20
-26.94490083191742
 30
0.0
  0
SPLINE
  5
4F5
330
1F
100
AcDbEntity
  8
0
 62
     7
100
AcDbSpline
210
0.0
220
0.0
230
1.0
 70
     8
 71
     3
 72
     8
 73
     4
 74
     0
 42
0.000000001
 43
0.0000001
 40
0.0
 40
0.0
 40
0.0
 40
0.0
 40
1.0
 40
1.0
 40
1.0
 40
1.0
 10
99.2849941381282
 20
-26.94490083191742
 30
0.0
 10
97.4573231381282
 20
-28.74068083191742
 30
0.0
 10
95.3019921381282
 20
-29.63842983191742
 30
0.0
 10
92.8187181381282
 20
-29.63842983191742
 30
0.0
  0
SPLINE
  5
4F6
330
1F
100
AcDbEntity
  8
0
 62
     7
100
AcDbSpline
210
0.0
220
0.0
230
1.0
 70
     8
 71
     3
 72
     8
 73
     4
 74
     0
 42
0.000000001
 43
0.0000001
 40
0.0
 40
0.0
 40
0.0
 40
0.0
 40
1.0
 40
1.0
 40
1.0
 40
1.0
 10
92.8187181381282
 20
-29.63842983191742
 30
0.0
 10
90.37777813812819
 20
-29.63842983191742
 30
0.0
 10
88.25998313812819
 20
-28.75112283191741
 30
0.0
 10
86.4647671381282
 20
-26.97707483191742
 30
0.0
  0
SPLINE
  5
4F7
330
1F
100
AcDbEntity
  8
0
 62
     7
100
AcDbSpline
210
0.0
220
0.0
230
1.0
 70
     8
 71
     3
 72
     8
 73
     4
 74
     0
 42
0.000000001
 43
0.0000001
 40
0.0
 40
0.0
 40
0.0
 40
0.0
 40
1.0
 40
1.0
 40
1.0
 40
1.0
 10
86.4647671381282
 20
-26.97707483191742
 30
0.0
 10
84.6910011381282
 20
-25.20302583191742
 30
0.0
 10
83.8036941381282
 20
-23.08014983191742
 30
0.0
 10
83.8036941381282
 20
-20.60731883191742
 30
0.0
  0
SPLINE
  5
4F8
330
1F
100
AcDbEntity
  8
0
 62
     7
100
AcDbSpline
210
0.0
220
0.0
230
1.0
 70
     8
 71
     3
 72
     8
 73
     4
 74
     0
 42
0.000000001
 43
0.0000001
 40
0.0
 40
0.0
 40
0.0
 40
0.0
 40
1.0
 40
1.0
 40
1.0
 40
1.0
 10
83.8036941381282
 20
-20.60731883191742
 30
0.0
 10
83.8036941381282
 20
-18.13476983191742
 30
0.0
 10
84.6910011381282
 20
-15.99524283191742
 30
0.0
 10
86.4647671381282
 20
-14.18902083191742
 30
0.0
  0
SPLINE
  5
4F9
330
1F
100
AcDbEntity
  8
0
 62
     7
100
AcDbSpline
210
0.0
220
0.0
230
1.0
 70
     8
 71
     3
 72
     8
 73
     4
 74
     0
 42
0.000000001
 43
0.0000001
 40
0.0
 40
0.0
 40
0.0
 40
0.0
 40
1.0
 40
1.0
 40
1.0
 40
1.0
 10
86.4647671381282
 20
-14.18902083191742
 30
0.0
 10
88.2066431381282
 20
-12.44686283191741
 30
0.0
 10
90.3241561381282
 20
-11.57620783191742
 30
0.0
 10
92.8187181381282
 20
-11.57620783191742
 30
0.0
  0
LINE
  5
4FA
330
1F
100
AcDbEntity
  8
0
 62
     7
100
AcDbLine
 10
92.8187181381282
 20
-11.57620783191742
 30
0.0
 11
92.8187181381282
 21
-11.57620783191742
 31
0.0
  0
SPLINE
  5
4FB
330
1F
100
AcDbEntity
  8
0
 62
     7
100
AcDbSpline
210
0.0
220
0.0
230
1.0
 70
     8
 71
     3
 72
     8
 73
     4
 74
     0
 42
0.000000001
 43
0.0000001
 40
0.0
 40
0.0
 40
0.0
 40
0.0
 40
1.0
 40
1.0
 40
1.0
 40
1.0
 10
92.8508921381282
 20
-13.20519483191742
 30
0.0
 10
90.7974431381282
 20
-13.20519483191742
 30
0.0
 10
89.0612121381282
 20
-13.92570783191742
 30
0.0
 10
87.6419161381282
 20
-15.36616983191742
 30
0.0
  0
SPLINE
  5
4FC
330
1F
100
AcDbEntity
  8
0
 62
     7
100
AcDbSpline
210
0.0
220
0.0
230
1.0
 70
     8
 71
     3
 72
     8
 73
     4
 74
     0
 42
0.000000001
 43
0.0000001
 40
0.0
 40
0.0
 40
0.0
 40
0.0
 40
1.0
 40
1.0
 40
1.0
 40
1.0
 10
87.6419161381282
 20
-15.36616983191742
 30
0.0
 10
86.1687161381282
 20
-16.87154283191742
 30
0.0
 10
85.43239813812819
 20
-18.61878083191742
 30
0.0
 10
85.43239813812819
 20
-20.60760083191742
 30
0.0
  0
SPLINE
  5
4FD
330
1F
100
AcDbEntity
  8
0
 62
     7
100
AcDbSpline
210
0.0
220
0.0
230
1.0
 70
     8
 71
     3
 72
     8
 73
     4
 74
     0
 42
0.000000001
 43
0.0000001
 40
0.0
 40
0.0
 40
0.0
 40
0.0
 40
1.0
 40
1.0
 40
1.0
 40
1.0
 10
85.43239813812819
 20
-20.60760083191742
 30
0.0
 10
85.43239813812819
 20
-22.60742783191742
 30
0.0
 10
86.1633541381282
 20
-24.33857883191742
 30
0.0
 10
87.6252651381282
 20
-25.79992583191742
 30
0.0
  0
SPLINE
  5
4FE
330
1F
100
AcDbEntity
  8
0
 62
     7
100
AcDbSpline
210
0.0
220
0.0
230
1.0
 70
     8
 71
     3
 72
     8
 73
     4
 74
     0
 42
0.000000001
 43
0.0000001
 40
0.0
 40
0.0
 40
0.0
 40
0.0
 40
1.0
 40
1.0
 40
1.0
 40
1.0
 10
87.6252651381282
 20
-25.79992583191742
 30
0.0
 10
89.0874581381282
 20
-27.26240083191742
 30
0.0
 10
90.82905213812819
 20
-27.99307483191741
 30
0.0
 10
92.8503271381282
 20
-27.99307483191741
 30
0.0
  0
SPLINE
  5
4FF
330
1F
100
AcDbEntity
  8
0
 62
     7
100
AcDbSpline
210
0.0
220
0.0
230
1.0
 70
     8
 71
     3
 72
     8
 73
     4
 74
     0
 42
0.000000001
 43
0.0000001
 40
0.0
 40
0.0
 40
0.0
 40
0.0
 40
1.0
 40
1.0
 40
1.0
 40
1.0
 10
92.8503271381282
 20
-27.99307483191741
 30
0.0
 10
94.8605961381282
 20
-27.99307483191741
 30
0.0
 10
96.6134781381282
 20
-27.25732083191741
 30
0.0
 10
98.1078451381282
 20
-25.78383883191742
 30
0.0
  0
SPLINE
  5
500
330
1F
100
AcDbEntity
  8
0
 62
     7
100
AcDbSpline
210
0.0
220
0.0
230
1.0
 70
     8
 71
     3
 72
     8
 73
     4
 74
     0
 42
0.000000001
 43
0.0000001
 40
0.0
 40
0.0
 40
0.0
 40
0.0
 40
1.0
 40
1.0
 40
1.0
 40
1.0
 10
98.1078451381282
 20
-25.78383883191742
 30
0.0
 10
99.5271411381282
 20
-24.41844783191742
 30
0.0
 10
100.2366471381282
 20
-22.69294083191741
 30
0.0
 10
100.2366471381282
 20
-20.60703683191741
 30
0.0
  0
SPLINE
  5
501
330
1F
100
AcDbEntity
  8
0
 62
     7
100
AcDbSpline
210
0.0
220
0.0
230
1.0
 70
     8
 71
     3
 72
     8
 73
     4
 74
     0
 42
0.000000001
 43
0.0000001
 40
0.0
 40
0.0
 40
0.0
 40
0.0
 40
1.0
 40
1.0
 40
1.0
 40
1.0
 10
100.2366471381282
 20
-20.60703683191741
 30
0.0
 10
100.2366471381282
 20
-18.55358783191741
 30
0.0
 10
99.5161341381282
 20
-16.80691483191742
 30
0.0
 10
98.0759541381282
 20
-15.36588783191742
 30
0.0
  0
SPLINE
  5
502
330
1F
100
AcDbEntity
  8
0
 62
     7
100
AcDbSpline
210
0.0
220
0.0
230
1.0
 70
     8
 71
     3
 72
     8
 73
     4
 74
     0
 42
0.000000001
 43
0.0000001
 40
0.0
 40
0.0
 40
0.0
 40
0.0
 40
1.0
 40
1.0
 40
1.0
 40
1.0
 10
98.0759541381282
 20
-15.36588783191742
 30
0.0
 10
96.6354921381282
 20
-13.92542583191742
 30
0.0
 10
94.8936161381282
 20
-13.20519483191742
 30
0.0
 10
92.8508921381282
 20
-13.20519483191742
 30
0.0
  0
LINE
  5
503
330
1F
100
AcDbEntity
  8
0
 62
     7
100
AcDbLine
 10
92.8508921381282
 20
-13.20519483191742
 30
0.0
 11
92.8508921381282
 21
-13.20519483191742
 31
0.0
  0
LINE
  5
504
330
1F
100
AcDbEntity
  8
0
 62
     7
100
AcDbLine
 10
95.2701011381282
 20
-18.36562783191742
 30
0.0
 11
95.2701011381282
 21
-22.05850583191742
 31
0.0
  0
LINE
  5
505
330
1F
100
AcDbEntity
  8
0
 62
     7
100
AcDbLine
 10
95.2701011381282
 20
-22.05850583191742
 30
0.0
 11
94.23829613812819
 21
-22.05850583191742
 31
0.0
  0
LINE
  5
506
330
1F
100
AcDbEntity
  8
0
 62
     7
100
AcDbLine
 10
94.23829613812819
 20
-22.05850583191742
 30
0.0
 11
94.23829613812819
 21
-26.44480283191741
 31
0.0
  0
LINE
  5
507
330
1F
100
AcDbEntity
  8
0
 62
     7
100
AcDbLine
 10
94.23829613812819
 20
-26.44480283191741
 30
0.0
 11
91.4318781381282
 21
-26.44480283191741
 31
0.0
  0
LINE
  5
508
330
1F
100
AcDbEntity
  8
0
 62
     7
100
AcDbLine
 10
91.4318781381282
 20
-26.44480283191741
 30
0.0
 11
91.4318781381282
 21
-22.05878783191741
 31
0.0
  0
LINE
  5
509
330
1F
100
AcDbEntity
  8
0
 62
     7
100
AcDbLine
 10
91.4318781381282
 20
-22.05878783191741
 30
0.0
 11
90.4000741381282
 21
-22.05878783191741
 31
0.0
  0
LINE
  5
50A
330
1F
100
AcDbEntity
  8
0
 62
     7
100
AcDbLine
 10
90.4000741381282
 20
-22.05878783191741
 30
0.0
 11
90.4000741381282
 21
-18.36562783191742
 31
0.0
  0
SPLINE
  5
50B
330
1F
100
AcDbEntity
  8
0
 62
     7
100
AcDbSpline
210
0.0
220
0.0
230
1.0
 70
     8
 71
     3
 72
     8
 73
     4
 74
     0
 42
0.000000001
 43
0.0000001
 40
0.0
 40
0.0
 40
0.0
 40
0.0
 40
1.0
 40
1.0
 40
1.0
 40
1.0
 10
90.4000741381282
 20
-18.36562783191742
 30
0.0
 10
90.4000741381282
 20
-18.20419683191741
 30
0.0
 10
90.4565181381282
 20
-18.06731883191742
 30
0.0
 10
90.5691251381282
 20
-17.95442983191742
 30
0.0
  0
SPLINE
  5
50C
330
1F
100
AcDbEntity
  8
0
 62
     7
100
AcDbSpline
210
0.0
220
0.0
230
1.0
 70
     8
 71
     3
 72
     8
 73
     4
 74
     0
 42
0.000000001
 43
0.0000001
 40
0.0
 40
0.0
 40
0.0
 40
0.0
 40
1.0
 40
1.0
 40
1.0
 40
1.0
 10
90.5691251381282
 20
-17.95442983191742
 30
0.0
 10
90.6822961381282
 20
-17.84182283191741
 30
0.0
 10
90.8194561381282
 20
-17.78509683191741
 30
0.0
 10
90.9803231381282
 20
-17.78509683191741
 30
0.0
  0
LINE
  5
50D
330
1F
100
AcDbEntity
  8
0
 62
     7
100
AcDbLine
 10
90.9803231381282
 20
-17.78509683191741
 30
0.0
 11
94.6898521381282
 21
-17.78509683191741
 31
0.0
  0
SPLINE
  5
50E
330
1F
100
AcDbEntity
  8
0
 62
     7
100
AcDbSpline
210
0.0
220
0.0
230
1.0
 70
     8
 71
     3
 72
     8
 73
     4
 74
     0
 42
0.000000001
 43
0.0000001
 40
0.0
 40
0.0
 40
0.0
 40
0.0
 40
1.0
 40
1.0
 40
1.0
 40
1.0
 10
94.6898521381282
 20
-17.78509683191741
 30
0.0
 10
94.8402761381282
 20
-17.78509683191741
 30
0.0
 10
94.9748961381282
 20
-17.84154083191741
 30
0.0
 10
95.0928651381282
 20
-17.95442983191742
 30
0.0
  0
SPLINE
  5
50F
330
1F
100
AcDbEntity
  8
0
 62
     7
100
AcDbSpline
210
0.0
220
0.0
230
1.0
 70
     8
 71
     3
 72
     8
 73
     4
 74
     0
 42
0.000000001
 43
0.0000001
 40
0.0
 40
0.0
 40
0.0
 40
0.0
 40
1.0
 40
1.0
 40
1.0
 40
1.0
 10
95.0928651381282
 20
-17.95442983191742
 30
0.0
 10
95.2105521381282
 20
-18.06731883191742
 30
0.0
 10
95.2701011381282
 20
-18.20447883191741
 30
0.0
 10
95.2701011381282
 20
-18.36562783191742
 30
0.0
  0
LINE
  5
510
330
1F
100
AcDbEntity
  8
0
 62
     7
100
AcDbLine
 10
95.2701011381282
 20
-18.36562783191742
 30
0.0
 11
95.2701011381282
 21
-18.36562783191742
 31
0.0
  0
SPLINE
  5
511
330
1F
100
AcDbEntity
  8
0
 62
     7
100
AcDbSpline
210
0.0
220
0.0
230
1.0
 70
     8
 71
     3
 72
     8
 73
     4
 74
     0
 42
0.000000001
 43
0.0000001
 40
0.0
 40
0.0
 40
0.0
 40
0.0
 40
1.0
 40
1.0
 40
1.0
 40
1.0
 10
91.5766581381282
 20
-16.04350283191742
 30
0.0
 10
91.5766581381282
 20
-15.19457883191741
 30
0.0
 10
91.9957581381282
 20
-14.76955183191741
 30
0.0
 10
92.8348051381282
 20
-14.76955183191741
 30
0.0
  0
SPLINE
  5
512
330
1F
100
AcDbEntity
  8
0
 62
     7
100
AcDbSpline
210
0.0
220
0.0
230
1.0
 70
     8
 71
     3
 72
     8
 73
     4
 74
     0
 42
0.000000001
 43
0.0000001
 40
0.0
 40
0.0
 40
0.0
 40
0.0
 40
1.0
 40
1.0
 40
1.0
 40
1.0
 10
92.8348051381282
 20
-14.76955183191741
 30
0.0
 10
93.6738521381282
 20
-14.76955183191741
 30
0.0
 10
94.0926691381282
 20
-15.19401483191741
 30
0.0
 10
94.0926691381282
 20
-16.04350283191742
 30
0.0
  0
SPLINE
  5
513
330
1F
100
AcDbEntity
  8
0
 62
     7
100
AcDbSpline
210
0.0
220
0.0
230
1.0
 70
     8
 71
     3
 72
     8
 73
     4
 74
     0
 42
0.000000001
 43
0.0000001
 40
0.0
 40
0.0
 40
0.0
 40
0.0
 40
1.0
 40
1.0
 40
1.0
 40
1.0
 10
94.0926691381282
 20
-16.04350283191742
 30
0.0
 10
94.0926691381282
 20
-16.88198583191742
 30
0.0
 10
93.6732871381282
 20
-17.30136783191742
 30
0.0
 10
92.8348051381282
 20
-17.30136783191742
 30
0.0
  0
SPLINE
  5
514
330
1F
100
AcDbEntity
  8
0
 62
     7
100
AcDbSpline
210
0.0
220
0.0
230
1.0
 70
     8
 71
     3
 72
     8
 73
     4
 74
     0
 42
0.000000001
 43
0.0000001
 40
0.0
 40
0.0
 40
0.0
 40
0.0
 40
1.0
 40
1.0
 40
1.0
 40
1.0
 10
92.8348051381282
 20
-17.30136783191742
 30
0.0
 10
91.9963231381282
 20
-17.30136783191742
 30
0.0
 10
91.5766581381282
 20
-16.88198583191742
 30
0.0
 10
91.5766581381282
 20
-16.04350283191742
 30
0.0
  0
LINE
  5
515
330
1F
100
AcDbEntity
  8
0
 62
     7
100
AcDbLine
 10
91.5766581381282
 20
-16.04350283191742
 30
0.0
 11
91.5766581381282
 21
-16.04350283191742
 31
0.0
  0
SPLINE
  5
516
330
1F
100
AcDbEntity
  8
0
 62
     7
100
AcDbSpline
210
0.0
220
0.0
230
1.0
 70
     8
 71
     3
 72
     8
 73
     4
 74
     0
 42
0.000000001
 43
0.0000001
 40
0.0
 40
0.0
 40
0.0
 40
0.0
 40
1.0
 40
1.0
 40
1.0
 40
1.0
 10
73.8539891381282
 20
-11.57619883191742
 30
0.0
 10
76.3801601381282
 20
-11.57619883191742
 30
0.0
 10
78.5309761381282
 20
-12.45814383191743
 30
0.0
 10
80.30474213812819
 20
-14.22118583191742
 30
0.0
  0
SPLINE
  5
517
330
1F
100
AcDbEntity
  8
0
 62
     7
100
AcDbSpline
210
0.0
220
0.0
230
1.0
 70
     8
 71
     3
 72
     8
 73
     4
 74
     0
 42
0.000000001
 43
0.0000001
 40
0.0
 40
0.0
 40
0.0
 40
0.0
 40
1.0
 40
1.0
 40
1.0
 40
1.0
 10
80.30474213812819
 20
-14.22118583191742
 30
0.0
 10
81.1536671381282
 20
-15.07039283191742
 30
0.0
 10
81.7991091381282
 20
-16.04095483191742
 30
0.0
 10
82.2399401381282
 20
-17.13202583191742
 30
0.0
  0
SPLINE
  5
518
330
1F
100
AcDbEntity
  8
0
 62
     7
100
AcDbSpline
210
0.0
220
0.0
230
1.0
 70
     8
 71
     3
 72
     8
 73
     4
 74
     0
 42
0.000000001
 43
0.0000001
 40
0.0
 40
0.0
 40
0.0
 40
0.0
 40
1.0
 40
1.0
 40
1.0
 40
1.0
 10
82.2399401381282
 20
-17.13202583191742
 30
0.0
 10
82.6804891381282
 20
-18.22337883191742
 30
0.0
 10
82.90146913812819
 20
-19.38161883191742
 30
0.0
 10
82.90146913812819
 20
-20.60731083191742
 30
0.0
  0
SPLINE
  5
519
330
1F
100
AcDbEntity
  8
0
 62
     7
100
AcDbSpline
210
0.0
220
0.0
230
1.0
 70
     8
 71
     3
 72
     8
 73
     4
 74
     0
 42
0.000000001
 43
0.0000001
 40
0.0
 40
0.0
 40
0.0
 40
0.0
 40
1.0
 40
1.0
 40
1.0
 40
1.0
 10
82.90146913812819
 20
-20.60731083191742
 30
0.0
 10
82.90146913812819
 20
-21.84372583191742
 30
0.0
 10
82.6833111381282
 20
-23.00224783191742
 30
0.0
 10
82.2484071381282
 20
-24.08231283191742
 30
0.0
  0
SPLINE
  5
51A
330
1F
100
AcDbEntity
  8
0
 62
     7
100
AcDbSpline
210
0.0
220
0.0
230
1.0
 70
     8
 71
     3
 72
     8
 73
     4
 74
     0
 42
0.000000001
 43
0.0000001
 40
0.0
 40
0.0
 40
0.0
 40
0.0
 40
1.0
 40
1.0
 40
1.0
 40
1.0
 10
82.2484071381282
 20
-24.08231283191742
 30
0.0
 10
81.8129381381282
 20
-25.16265883191741
 30
0.0
 10
81.1703181381282
 20
-26.11713483191741
 30
0.0
 10
80.3213931381282
 20
-26.94489283191741
 30
0.0
  0
SPLINE
  5
51B
330
1F
100
AcDbEntity
  8
0
 62
     7
100
AcDbSpline
210
0.0
220
0.0
230
1.0
 70
     8
 71
     3
 72
     8
 73
     4
 74
     0
 42
0.000000001
 43
0.0000001
 40
0.0
 40
0.0
 40
0.0
 40
0.0
 40
1.0
 40
1.0
 40
1.0
 40
1.0
 10
80.3213931381282
 20
-26.94489283191741
 30
0.0
 10
79.4400131381282
 20
-27.81554783191741
 30
0.0
 10
78.4401001381282
 20
-28.48243883191742
 30
0.0
 10
77.3216531381282
 20
-28.94471883191741
 30
0.0
  0
SPLINE
  5
51C
330
1F
100
AcDbEntity
  8
0
 62
     7
100
AcDbSpline
210
0.0
220
0.0
230
1.0
 70
     8
 71
     3
 72
     8
 73
     4
 74
     0
 42
0.000000001
 43
0.0000001
 40
0.0
 40
0.0
 40
0.0
 40
0.0
 40
1.0
 40
1.0
 40
1.0
 40
1.0
 10
77.3216531381282
 20
-28.94471883191741
 30
0.0
 10
76.2037711381282
 20
-29.40699883191742
 30
0.0
 10
75.0477891381282
 20
-29.63813883191742
 30
0.0
 10
73.8545531381282
 20
-29.63813883191742
 30
0.0
  0
SPLINE
  5
51D
330
1F
100
AcDbEntity
  8
0
 62
     7
100
AcDbSpline
210
0.0
220
0.0
230
1.0
 70
     8
 71
     3
 72
     8
 73
     4
 74
     0
 42
0.000000001
 43
0.0000001
 40
0.0
 40
0.0
 40
0.0
 40
0.0
 40
1.0
 40
1.0
 40
1.0
 40
1.0
 10
73.8545531381282
 20
-29.63813883191742
 30
0.0
 10
72.6613181381282
 20
-29.63813883191742
 30
0.0
 10
71.51888213812819
 20
-29.41010383191743
 30
0.0
 10
70.4275291381282
 20
-28.95262183191741
 30
0.0
  0
SPLINE
  5
51E
330
1F
100
AcDbEntity
  8
0
 62
     7
100
AcDbSpline
210
0.0
220
0.0
230
1.0
 70
     8
 71
     3
 72
     8
 73
     4
 74
     0
 42
0.000000001
 43
0.0000001
 40
0.0
 40
0.0
 40
0.0
 40
0.0
 40
1.0
 40
1.0
 40
1.0
 40
1.0
 10
70.4275291381282
 20
-28.95262183191741
 30
0.0
 10
69.3364581381282
 20
-28.49598583191742
 30
0.0
 10
68.3579931381282
 20
-27.83473883191742
 30
0.0
 10
67.4924181381282
 20
-26.96944583191741
 30
0.0
  0
SPLINE
  5
51F
330
1F
100
AcDbEntity
  8
0
 62
     7
100
AcDbSpline
210
0.0
220
0.0
230
1.0
 70
     8
 71
     3
 72
     8
 73
     4
 74
     0
 42
0.000000001
 43
0.0000001
 40
0.0
 40
0.0
 40
0.0
 40
0.0
 40
1.0
 40
1.0
 40
1.0
 40
1.0
 10
67.4924181381282
 20
-26.96944583191741
 30
0.0
 10
66.6268421381282
 20
-26.10415283191742
 30
0.0
 10
65.9684181381282
 20
-25.12822783191741
 30
0.0
 10
65.5168621381282
 20
-24.04223683191742
 30
0.0
  0
SPLINE
  5
520
330
1F
100
AcDbEntity
  8
0
 62
     7
100
AcDbSpline
210
0.0
220
0.0
230
1.0
 70
     8
 71
     3
 72
     8
 73
     4
 74
     0
 42
0.000000001
 43
0.0000001
 40
0.0
 40
0.0
 40
0.0
 40
0.0
 40
1.0
 40
1.0
 40
1.0
 40
1.0
 10
65.5168621381282
 20
-24.04223683191742
 30
0.0
 10
65.06530713812819
 20
-22.95624583191741
 30
0.0
 10
64.8395291381282
 20
-21.81155283191742
 30
0.0
 10
64.8395291381282
 20
-20.60731083191742
 30
0.0
  0
SPLINE
  5
521
330
1F
100
AcDbEntity
  8
0
 62
     7
100
AcDbSpline
210
0.0
220
0.0
230
1.0
 70
     8
 71
     3
 72
     8
 73
     4
 74
     0
 42
0.000000001
 43
0.0000001
 40
0.0
 40
0.0
 40
0.0
 40
0.0
 40
1.0
 40
1.0
 40
1.0
 40
1.0
 10
64.8395291381282
 20
-20.60731083191742
 30
0.0
 10
64.8395291381282
 20
-19.41379283191742
 30
0.0
 10
65.0678471381282
 20
-18.26627683191742
 30
0.0
 10
65.5247651381282
 20
-17.16419883191742
 30
0.0
  0
SPLINE
  5
522
330
1F
100
AcDbEntity
  8
0
 62
     7
100
AcDbSpline
210
0.0
220
0.0
230
1.0
 70
     8
 71
     3
 72
     8
 73
     4
 74
     0
 42
0.000000001
 43
0.0000001
 40
0.0
 40
0.0
 40
0.0
 40
0.0
 40
1.0
 40
1.0
 40
1.0
 40
1.0
 10
65.5247651381282
 20
-17.16419883191742
 30
0.0
 10
65.98168213812819
 20
-16.06212183191742
 30
0.0
 10
66.6457511381282
 20
-15.07575483191742
 30
0.0
 10
67.5164071381282
 20
-14.20481683191741
 30
0.0
  0
SPLINE
  5
523
330
1F
100
AcDbEntity
  8
0
 62
     7
100
AcDbSpline
210
0.0
220
0.0
230
1.0
 70
     8
 71
     3
 72
     8
 73
     4
 74
     0
 42
0.000000001
 43
0.0000001
 40
0.0
 40
0.0
 40
0.0
 40
0.0
 40
1.0
 40
1.0
 40
1.0
 40
1.0
 10
67.5164071381282
 20
-14.20481683191741
 30
0.0
 10
69.23655113812819
 20
-12.45278183191742
 30
0.0
 10
71.3489851381282
 20
-11.57619883191742
 30
0.0
 10
73.8539891381282
 20
-11.57619883191742
 30
0.0
  0
LINE
  5
524
330
1F
100
AcDbEntity
  8
0
 62
     7
100
AcDbLine
 10
73.8539891381282
 20
-11.57619883191742
 30
0.0
 11
73.8539891381282
 21
-11.57619883191742
 31
0.0
  0
SPLINE
  5
525
330
1F
100
AcDbEntity
  8
0
 62
     7
100
AcDbSpline
210
0.0
220
0.0
230
1.0
 70
     8
 71
     3
 72
     8
 73
     4
 74
     0
 42
0.000000001
 43
0.0000001
 40
0.0
 40
0.0
 40
0.0
 40
0.0
 40
1.0
 40
1.0
 40
1.0
 40
1.0
 10
73.8867271381282
 20
-13.20518583191742
 30
0.0
 10
71.8225531381282
 20
-13.20518583191742
 30
0.0
 10
70.0860401381282
 20
-13.92569883191742
 30
0.0
 10
68.6774691381282
 20
-15.36616183191742
 30
0.0
  0
SPLINE
  5
526
330
1F
100
AcDbEntity
  8
0
 62
     7
100
AcDbSpline
210
0.0
220
0.0
230
1.0
 70
     8
 71
     3
 72
     8
 73
     4
 74
     0
 42
0.000000001
 43
0.0000001
 40
0.0
 40
0.0
 40
0.0
 40
0.0
 40
1.0
 40
1.0
 40
1.0
 40
1.0
 10
68.6774691381282
 20
-15.36616183191742
 30
0.0
 10
67.9676801381282
 20
-16.08667483191742
 30
0.0
 10
67.4221451381282
 20
-16.89552383191742
 30
0.0
 10
67.04058013812819
 20
-17.79327283191742
 30
0.0
  0
SPLINE
  5
527
330
1F
100
AcDbEntity
  8
0
 62
     7
100
AcDbSpline
210
0.0
220
0.0
230
1.0
 70
     8
 71
     3
 72
     8
 73
     4
 74
     0
 42
0.000000001
 43
0.0000001
 40
0.0
 40
0.0
 40
0.0
 40
0.0
 40
1.0
 40
1.0
 40
1.0
 40
1.0
 10
67.04058013812819
 20
-17.79327283191742
 30
0.0
 10
66.6584511381282
 20
-18.69102183191742
 30
0.0
 10
66.4679511381282
 20
-19.62912783191742
 30
0.0
 10
66.4679511381282
 20
-20.60759283191742
 30
0.0
  0
SPLINE
  5
528
330
1F
100
AcDbEntity
  8
0
 62
     7
100
AcDbSpline
210
0.0
220
0.0
230
1.0
 70
     8
 71
     3
 72
     8
 73
     4
 74
     0
 42
0.000000001
 43
0.0000001
 40
0.0
 40
0.0
 40
0.0
 40
0.0
 40
1.0
 40
1.0
 40
1.0
 40
1.0
 10
66.4679511381282
 20
-20.60759283191742
 30
0.0
 10
66.4679511381282
 20
-21.57533283191742
 30
0.0
 10
66.6584511381282
 20
-22.50807683191742
 30
0.0
 10
67.04058013812819
 20
-23.40526183191741
 30
0.0
  0
SPLINE
  5
529
330
1F
100
AcDbEntity
  8
0
 62
     7
100
AcDbSpline
210
0.0
220
0.0
230
1.0
 70
     8
 71
     3
 72
     8
 73
     4
 74
     0
 42
0.000000001
 43
0.0000001
 40
0.0
 40
0.0
 40
0.0
 40
0.0
 40
1.0
 40
1.0
 40
1.0
 40
1.0
 10
67.04058013812819
 20
-23.40526183191741
 30
0.0
 10
67.4224271381282
 20
-24.30357483191742
 30
0.0
 10
67.9676801381282
 20
-25.10452183191742
 30
0.0
 10
68.6774691381282
 20
-25.80866583191742
 30
0.0
  0
SPLINE
  5
52A
330
1F
100
AcDbEntity
  8
0
 62
     7
100
AcDbSpline
210
0.0
220
0.0
230
1.0
 70
     8
 71
     3
 72
     8
 73
     4
 74
     0
 42
0.000000001
 43
0.0000001
 40
0.0
 40
0.0
 40
0.0
 40
0.0
 40
1.0
 40
1.0
 40
1.0
 40
1.0
 10
68.6774691381282
 20
-25.80866583191742
 30
0.0
 10
69.3869761381282
 20
-26.51309283191742
 30
0.0
 10
70.1876401381282
 20
-27.05016183191742
 30
0.0
 10
71.0805911381282
 20
-27.42156583191742
 30
0.0
  0
SPLINE
  5
52B
330
1F
100
AcDbEntity
  8
0
 62
     7
100
AcDbSpline
210
0.0
220
0.0
230
1.0
 70
     8
 71
     3
 72
     8
 73
     4
 74
     0
 42
0.000000001
 43
0.0000001
 40
0.0
 40
0.0
 40
0.0
 40
0.0
 40
1.0
 40
1.0
 40
1.0
 40
1.0
 10
71.0805911381282
 20
-27.42156583191742
 30
0.0
 10
71.9726961381282
 20
-27.79240583191742
 30
0.0
 10
72.9082621381282
 20
-27.97782583191741
 30
0.0
 10
73.8867271381282
 20
-27.97782583191741
 30
0.0
  0
SPLINE
  5
52C
330
1F
100
AcDbEntity
  8
0
 62
     7
100
AcDbSpline
210
0.0
220
0.0
230
1.0
 70
     8
 71
     3
 72
     8
 73
     4
 74
     0
 42
0.000000001
 43
0.0000001
 40
0.0
 40
0.0
 40
0.0
 40
0.0
 40
1.0
 40
1.0
 40
1.0
 40
1.0
 10
73.8867271381282
 20
-27.97782583191741
 30
0.0
 10
74.8541851381282
 20
-27.97782583191741
 30
0.0
 10
75.7917271381282
 20
-27.79014783191742
 30
0.0
 10
76.7013291381282
 20
-27.41366383191742
 30
0.0
  0
SPLINE
  5
52D
330
1F
100
AcDbEntity
  8
0
 62
     7
100
AcDbSpline
210
0.0
220
0.0
230
1.0
 70
     8
 71
     3
 72
     8
 73
     4
 74
     0
 42
0.000000001
 43
0.0000001
 40
0.0
 40
0.0
 40
0.0
 40
0.0
 40
1.0
 40
1.0
 40
1.0
 40
1.0
 10
76.7013291381282
 20
-27.41366383191742
 30
0.0
 10
77.6098021381282
 20
-27.03689683191742
 30
0.0
 10
78.4288111381282
 20
-26.49446583191742
 30
0.0
 10
79.1603311381282
 20
-25.78495883191742
 30
0.0
  0
SPLINE
  5
52E
330
1F
100
AcDbEntity
  8
0
 62
     7
100
AcDbSpline
210
0.0
220
0.0
230
1.0
 70
     8
 71
     3
 72
     8
 73
     4
 74
     0
 42
0.000000001
 43
0.0000001
 40
0.0
 40
0.0
 40
0.0
 40
0.0
 40
1.0
 40
1.0
 40
1.0
 40
1.0
 10
79.1603311381282
 20
-25.78495883191742
 30
0.0
 10
80.5686201381282
 20
-24.40884383191742
 30
0.0
 10
81.2724821381282
 20
-22.68333683191742
 30
0.0
 10
81.2724821381282
 20
-20.60787483191741
 30
0.0
  0
SPLINE
  5
52F
330
1F
100
AcDbEntity
  8
0
 62
     7
100
AcDbSpline
210
0.0
220
0.0
230
1.0
 70
     8
 71
     3
 72
     8
 73
     4
 74
     0
 42
0.000000001
 43
0.0000001
 40
0.0
 40
0.0
 40
0.0
 40
0.0
 40
1.0
 40
1.0
 40
1.0
 40
1.0
 10
81.2724821381282
 20
-20.60787483191741
 30
0.0
 10
81.2724821381282
 20
-19.60796183191742
 30
0.0
 10
81.0896021381282
 20
-18.66195283191742
 30
0.0
 10
80.7241251381282
 20
-17.76956583191742
 30
0.0
  0
SPLINE
  5
530
330
1F
100
AcDbEntity
  8
0
 62
     7
100
AcDbSpline
210
0.0
220
0.0
230
1.0
 70
     8
 71
     3
 72
     8
 73
     4
 74
     0
 42
0.000000001
 43
0.0000001
 40
0.0
 40
0.0
 40
0.0
 40
0.0
 40
1.0
 40
1.0
 40
1.0
 40
1.0
 10
80.7241251381282
 20
-17.76956583191742
 30
0.0
 10
80.3592111381282
 20
-16.87717883191742
 30
0.0
 10
79.8266581381282
 20
-16.08187683191741
 30
0.0
 10
79.1284401381282
 20
-15.38253083191742
 30
0.0
  0
SPLINE
  5
531
330
1F
100
AcDbEntity
  8
0
 62
     7
100
AcDbSpline
210
0.0
220
0.0
230
1.0
 70
     8
 71
     3
 72
     8
 73
     4
 74
     0
 42
0.000000001
 43
0.0000001
 40
0.0
 40
0.0
 40
0.0
 40
0.0
 40
1.0
 40
1.0
 40
1.0
 40
1.0
 10
79.1284401381282
 20
-15.38253083191742
 30
0.0
 10
77.6761251381282
 20
-13.93106183191742
 30
0.0
 10
75.9294511381282
 20
-13.20518583191742
 30
0.0
 10
73.8867271381282
 20
-13.20518583191742
 30
0.0
  0
LINE
  5
532
330
1F
100
AcDbEntity
  8
0
 62
     7
100
AcDbLine
 10
73.8867271381282
 20
-13.20518583191742
 30
0.0
 11
73.8867271381282
 21
-13.20518583191742
 31
0.0
  0
LINE
  5
533
330
1F
100
AcDbEntity
  8
0
 62
     7
100
AcDbLine
 10
73.7735561381282
 20
-19.10786383191741
 30
0.0
 11
72.56366913812819
 21
-19.73693683191742
 31
0.0
  0
SPLINE
  5
534
330
1F
100
AcDbEntity
  8
0
 62
     7
100
AcDbSpline
210
0.0
220
0.0
230
1.0
 70
     8
 71
     3
 72
     8
 73
     4
 74
     0
 42
0.000000001
 43
0.0000001
 40
0.0
 40
0.0
 40
0.0
 40
0.0
 40
1.0
 40
1.0
 40
1.0
 40
1.0
 10
72.56366913812819
 20
-19.73693683191742
 30
0.0
 10
72.4344111381282
 20
-19.46854383191742
 30
0.0
 10
72.2760851381282
 20
-19.28001883191742
 30
0.0
 10
72.08812513812819
 20
-19.17249283191742
 30
0.0
  0
SPLINE
  5
535
330
1F
100
AcDbEntity
  8
0
 62
     7
100
AcDbSpline
210
0.0
220
0.0
230
1.0
 70
     8
 71
     3
 72
     8
 73
     4
 74
     0
 42
0.000000001
 43
0.0000001
 40
0.0
 40
0.0
 40
0.0
 40
0.0
 40
1.0
 40
1.0
 40
1.0
 40
1.0
 10
72.08812513812819
 20
-19.17249283191742
 30
0.0
 10
71.89988213812819
 20
-19.06524783191742
 30
0.0
 10
71.72518713812819
 20
-19.01134383191742
 30
0.0
 10
71.5637561381282
 20
-19.01134383191742
 30
0.0
  0
SPLINE
  5
536
330
1F
100
AcDbEntity
  8
0
 62
     7
100
AcDbSpline
210
0.0
220
0.0
230
1.0
 70
     8
 71
     3
 72
     8
 73
     4
 74
     0
 42
0.000000001
 43
0.0000001
 40
0.0
 40
0.0
 40
0.0
 40
0.0
 40
1.0
 40
1.0
 40
1.0
 40
1.0
 10
71.5637561381282
 20
-19.01134383191742
 30
0.0
 10
70.7577291381282
 20
-19.01134383191742
 30
0.0
 10
70.3541511381282
 20
-19.54333283191743
 30
0.0
 10
70.3541511381282
 20
-20.60787483191741
 30
0.0
  0
SPLINE
  5
537
330
1F
100
AcDbEntity
  8
0
 62
     7
100
AcDbSpline
210
0.0
220
0.0
230
1.0
 70
     8
 71
     3
 72
     8
 73
     4
 74
     0
 42
0.000000001
 43
0.0000001
 40
0.0
 40
0.0
 40
0.0
 40
0.0
 40
1.0
 40
1.0
 40
1.0
 40
1.0
 10
70.3541511381282
 20
-20.60787483191741
 30
0.0
 10
70.3541511381282
 20
-21.09160383191742
 30
0.0
 10
70.4563161381282
 20
-21.47824783191741
 30
0.0
 10
70.66036213812819
 20
-21.76865483191742
 30
0.0
  0
SPLINE
  5
538
330
1F
100
AcDbEntity
  8
0
 62
     7
100
AcDbSpline
210
0.0
220
0.0
230
1.0
 70
     8
 71
     3
 72
     8
 73
     4
 74
     0
 42
0.000000001
 43
0.0000001
 40
0.0
 40
0.0
 40
0.0
 40
0.0
 40
1.0
 40
1.0
 40
1.0
 40
1.0
 10
70.66036213812819
 20
-21.76865483191742
 30
0.0
 10
70.8646911381282
 20
-22.05906183191742
 30
0.0
 10
71.16582213812819
 20
-22.20440583191741
 30
0.0
 10
71.5637561381282
 20
-22.20440583191741
 30
0.0
  0
SPLINE
  5
539
330
1F
100
AcDbEntity
  8
0
 62
     7
100
AcDbSpline
210
0.0
220
0.0
230
1.0
 70
     8
 71
     3
 72
     8
 73
     4
 74
     0
 42
0.000000001
 43
0.0000001
 40
0.0
 40
0.0
 40
0.0
 40
0.0
 40
1.0
 40
1.0
 40
1.0
 40
1.0
 10
71.5637561381282
 20
-22.20440583191741
 30
0.0
 10
72.0906651381282
 20
-22.20440583191741
 30
0.0
 10
72.4615051381282
 20
-21.94617283191742
 30
0.0
 10
72.6768401381282
 20
-21.43027083191741
 30
0.0
  0
LINE
  5
53A
330
1F
100
AcDbEntity
  8
0
 62
     7
100
AcDbLine
 10
72.6768401381282
 20
-21.43027083191741
 30
0.0
 11
73.7893601381282
 21
-21.99471483191742
 31
0.0
  0
SPLINE
  5
53B
330
1F
100
AcDbEntity
  8
0
 62
     7
100
AcDbSpline
210
0.0
220
0.0
230
1.0
 70
     8
 71
     3
 72
     8
 73
     4
 74
     0
 42
0.000000001
 43
0.0000001
 40
0.0
 40
0.0
 40
0.0
 40
0.0
 40
1.0
 40
1.0
 40
1.0
 40
1.0
 10
73.7893601381282
 20
-21.99471483191742
 30
0.0
 10
73.5528581381282
 20
-22.43582783191742
 30
0.0
 10
73.2249161381282
 20
-22.78239683191742
 30
0.0
 10
72.8055331381282
 20
-23.03498583191742
 30
0.0
  0
SPLINE
  5
53C
330
1F
100
AcDbEntity
  8
0
 62
     7
100
AcDbSpline
210
0.0
220
0.0
230
1.0
 70
     8
 71
     3
 72
     8
 73
     4
 74
     0
 42
0.000000001
 43
0.0000001
 40
0.0
 40
0.0
 40
0.0
 40
0.0
 40
1.0
 40
1.0
 40
1.0
 40
1.0
 10
72.8055331381282
 20
-23.03498583191742
 30
0.0
 10
72.3867161381282
 20
-23.28785683191742
 30
0.0
 10
71.9241531381282
 20
-23.41401083191742
 30
0.0
 10
71.41869313812819
 20
-23.41401083191742
 30
0.0
  0
SPLINE
  5
53D
330
1F
100
AcDbEntity
  8
0
 62
     7
100
AcDbSpline
210
0.0
220
0.0
230
1.0
 70
     8
 71
     3
 72
     8
 73
     4
 74
     0
 42
0.000000001
 43
0.0000001
 40
0.0
 40
0.0
 40
0.0
 40
0.0
 40
1.0
 40
1.0
 40
1.0
 40
1.0
 10
71.41869313812819
 20
-23.41401083191742
 30
0.0
 10
70.6123851381282
 20
-23.41401083191742
 30
0.0
 10
69.9615801381282
 20
-23.16706583191741
 30
0.0
 10
69.46712713812819
 20
-22.67204783191742
 30
0.0
  0
SPLINE
  5
53E
330
1F
100
AcDbEntity
  8
0
 62
     7
100
AcDbSpline
210
0.0
220
0.0
230
1.0
 70
     8
 71
     3
 72
     8
 73
     4
 74
     0
 42
0.000000001
 43
0.0000001
 40
0.0
 40
0.0
 40
0.0
 40
0.0
 40
1.0
 40
1.0
 40
1.0
 40
1.0
 10
69.46712713812819
 20
-22.67204783191742
 30
0.0
 10
68.9726731381282
 20
-22.17759483191742
 30
0.0
 10
68.7254471381282
 20
-21.48953683191742
 30
0.0
 10
68.7254471381282
 20
-20.60815683191741
 30
0.0
  0
SPLINE
  5
53F
330
1F
100
AcDbEntity
  8
0
 62
     7
100
AcDbSpline
210
0.0
220
0.0
230
1.0
 70
     8
 71
     3
 72
     8
 73
     4
 74
     0
 42
0.000000001
 43
0.0000001
 40
0.0
 40
0.0
 40
0.0
 40
0.0
 40
1.0
 40
1.0
 40
1.0
 40
1.0
 10
68.7254471381282
 20
-20.60815683191741
 30
0.0
 10
68.7254471381282
 20
-19.74794383191742
 30
0.0
 10
68.9754961381282
 20
-19.06553083191741
 30
0.0
 10
69.47531113812819
 20
-18.56007083191741
 30
0.0
  0
SPLINE
  5
540
330
1F
100
AcDbEntity
  8
0
 62
     7
100
AcDbSpline
210
0.0
220
0.0
230
1.0
 70
     8
 71
     3
 72
     8
 73
     4
 74
     0
 42
0.000000001
 43
0.0000001
 40
0.0
 40
0.0
 40
0.0
 40
0.0
 40
1.0
 40
1.0
 40
1.0
 40
1.0
 10
69.47531113812819
 20
-18.56007083191741
 30
0.0
 10
69.9751271381282
 20
-18.05489283191741
 30
0.0
 10
70.6067401381282
 20
-17.80202183191741
 30
0.0
 10
71.37043313812819
 20
-17.80202183191741
 30
0.0
  0
SPLINE
  5
541
330
1F
100
AcDbEntity
  8
0
 62
     7
100
AcDbSpline
210
0.0
220
0.0
230
1.0
 70
     8
 71
     3
 72
     8
 73
     4
 74
     0
 42
0.000000001
 43
0.0000001
 40
0.0
 40
0.0
 40
0.0
 40
0.0
 40
1.0
 40
1.0
 40
1.0
 40
1.0
 10
71.37043313812819
 20
-17.80202183191741
 30
0.0
 10
72.4888801381282
 20
-17.80145683191742
 30
0.0
 10
73.2895451381282
 20
-18.23692583191742
 30
0.0
 10
73.7735561381282
 20
-19.10786383191741
 30
0.0
  0
LINE
  5
542
330
1F
100
AcDbEntity
  8
0
 62
     7
100
AcDbLine
 10
73.7735561381282
 20
-19.10786383191741
 30
0.0
 11
73.7735561381282
 21
-19.10786383191741
 31
0.0
  0
LINE
  5
543
330
1F
100
AcDbEntity
  8
0
 62
     7
100
AcDbLine
 10
78.9825311381282
 20
-19.10786383191741
 30
0.0
 11
77.7890131381282
 21
-19.73693683191742
 31
0.0
  0
SPLINE
  5
544
330
1F
100
AcDbEntity
  8
0
 62
     7
100
AcDbSpline
210
0.0
220
0.0
230
1.0
 70
     8
 71
     3
 72
     8
 73
     4
 74
     0
 42
0.000000001
 43
0.0000001
 40
0.0
 40
0.0
 40
0.0
 40
0.0
 40
1.0
 40
1.0
 40
1.0
 40
1.0
 10
77.7890131381282
 20
-19.73693683191742
 30
0.0
 10
77.6600381381282
 20
-19.46854383191742
 30
0.0
 10
77.5011471381282
 20
-19.28001883191742
 30
0.0
 10
77.3131871381282
 20
-19.17249283191742
 30
0.0
  0
SPLINE
  5
545
330
1F
100
AcDbEntity
  8
0
 62
     7
100
AcDbSpline
210
0.0
220
0.0
230
1.0
 70
     8
 71
     3
 72
     8
 73
     4
 74
     0
 42
0.000000001
 43
0.0000001
 40
0.0
 40
0.0
 40
0.0
 40
0.0
 40
1.0
 40
1.0
 40
1.0
 40
1.0
 10
77.3131871381282
 20
-19.17249283191742
 30
0.0
 10
77.1246621381282
 20
-19.06524783191742
 30
0.0
 10
76.9443221381282
 20
-19.01134383191742
 30
0.0
 10
76.77301313812819
 20
-19.01134383191742
 30
0.0
  0
SPLINE
  5
546
330
1F
100
AcDbEntity
  8
0
 62
     7
100
AcDbSpline
210
0.0
220
0.0
230
1.0
 70
     8
 71
     3
 72
     8
 73
     4
 74
     0
 42
0.000000001
 43
0.0000001
 40
0.0
 40
0.0
 40
0.0
 40
0.0
 40
1.0
 40
1.0
 40
1.0
 40
1.0
 10
76.77301313812819
 20
-19.01134383191742
 30
0.0
 10
75.96670513812819
 20
-19.01134383191742
 30
0.0
 10
75.5631271381282
 20
-19.54333283191743
 30
0.0
 10
75.5631271381282
 20
-20.60787483191741
 30
0.0
  0
SPLINE
  5
547
330
1F
100
AcDbEntity
  8
0
 62
     7
100
AcDbSpline
210
0.0
220
0.0
230
1.0
 70
     8
 71
     3
 72
     8
 73
     4
 74
     0
 42
0.000000001
 43
0.0000001
 40
0.0
 40
0.0
 40
0.0
 40
0.0
 40
1.0
 40
1.0
 40
1.0
 40
1.0
 10
75.5631271381282
 20
-20.60787483191741
 30
0.0
 10
75.5631271381282
 20
-21.09160383191742
 30
0.0
 10
75.6655731381282
 20
-21.47824783191741
 30
0.0
 10
75.8696201381282
 20
-21.76865483191742
 30
0.0
  0
SPLINE
  5
548
330
1F
100
AcDbEntity
  8
0
 62
     7
100
AcDbSpline
210
0.0
220
0.0
230
1.0
 70
     8
 71
     3
 72
     8
 73
     4
 74
     0
 42
0.000000001
 43
0.0000001
 40
0.0
 40
0.0
 40
0.0
 40
0.0
 40
1.0
 40
1.0
 40
1.0
 40
1.0
 10
75.8696201381282
 20
-21.76865483191742
 30
0.0
 10
76.0736671381282
 20
-22.05906183191742
 30
0.0
 10
76.3745161381282
 20
-22.20440583191741
 30
0.0
 10
76.77301313812819
 20
-22.20440583191741
 30
0.0
  0
SPLINE
  5
549
330
1F
100
AcDbEntity
  8
0
 62
     7
100
AcDbSpline
210
0.0
220
0.0
230
1.0
 70
     8
 71
     3
 72
     8
 73
     4
 74
     0
 42
0.000000001
 43
0.0000001
 40
0.0
 40
0.0
 40
0.0
 40
0.0
 40
1.0
 40
1.0
 40
1.0
 40
1.0
 10
76.77301313812819
 20
-22.20440583191741
 30
0.0
 10
77.2993581381282
 20
-22.20440583191741
 30
0.0
 10
77.6704801381282
 20
-21.94617283191742
 30
0.0
 10
77.8852511381282
 20
-21.43027083191741
 30
0.0
  0
LINE
  5
54A
330
1F
100
AcDbEntity
  8
0
 62
     7
100
AcDbLine
 10
77.8852511381282
 20
-21.43027083191741
 30
0.0
 11
79.0141401381282
 21
-21.99471483191742
 31
0.0
  0
SPLINE
  5
54B
330
1F
100
AcDbEntity
  8
0
 62
     7
100
AcDbSpline
210
0.0
220
0.0
230
1.0
 70
     8
 71
     3
 72
     8
 73
     4
 74
     0
 42
0.000000001
 43
0.0000001
 40
0.0
 40
0.0
 40
0.0
 40
0.0
 40
1.0
 40
1.0
 40
1.0
 40
1.0
 10
79.0141401381282
 20
-21.99471483191742
 30
0.0
 10
78.7671961381282
 20
-22.43582783191742
 30
0.0
 10
78.4336091381282
 20
-22.78239683191742
 30
0.0
 10
78.0147911381282
 20
-23.03498583191742
 30
0.0
  0
SPLINE
  5
54C
330
1F
100
AcDbEntity
  8
0
 62
     7
100
AcDbSpline
210
0.0
220
0.0
230
1.0
 70
     8
 71
     3
 72
     8
 73
     4
 74
     0
 42
0.000000001
 43
0.0000001
 40
0.0
 40
0.0
 40
0.0
 40
0.0
 40
1.0
 40
1.0
 40
1.0
 40
1.0
 10
78.0147911381282
 20
-23.03498583191742
 30
0.0
 10
77.5954091381282
 20
-23.28785683191742
 30
0.0
 10
77.1384911381282
 20
-23.41401083191742
 30
0.0
 10
76.6440381381282
 20
-23.41401083191742
 30
0.0
  0
SPLINE
  5
54D
330
1F
100
AcDbEntity
  8
0
 62
     7
100
AcDbSpline
210
0.0
220
0.0
230
1.0
 70
     8
 71
     3
 72
     8
 73
     4
 74
     0
 42
0.000000001
 43
0.0000001
 40
0.0
 40
0.0
 40
0.0
 40
0.0
 40
1.0
 40
1.0
 40
1.0
 40
1.0
 10
76.6440381381282
 20
-23.41401083191742
 30
0.0
 10
75.8267221381282
 20
-23.41401083191742
 30
0.0
 10
75.1739421381282
 20
-23.16706583191741
 30
0.0
 10
74.6851331381282
 20
-22.67204783191742
 30
0.0
  0
SPLINE
  5
54E
330
1F
100
AcDbEntity
  8
0
 62
     7
100
AcDbSpline
210
0.0
220
0.0
230
1.0
 70
     8
 71
     3
 72
     8
 73
     4
 74
     0
 42
0.000000001
 43
0.0000001
 40
0.0
 40
0.0
 40
0.0
 40
0.0
 40
1.0
 40
1.0
 40
1.0
 40
1.0
 10
74.6851331381282
 20
-22.67204783191742
 30
0.0
 10
74.1951961381282
 20
-22.17759483191742
 30
0.0
 10
73.9507911381282
 20
-21.48953683191742
 30
0.0
 10
73.9507911381282
 20
-20.60815683191741
 30
0.0
  0
SPLINE
  5
54F
330
1F
100
AcDbEntity
  8
0
 62
     7
100
AcDbSpline
210
0.0
220
0.0
230
1.0
 70
     8
 71
     3
 72
     8
 73
     4
 74
     0
 42
0.000000001
 43
0.0000001
 40
0.0
 40
0.0
 40
0.0
 40
0.0
 40
1.0
 40
1.0
 40
1.0
 40
1.0
 10
73.9507911381282
 20
-20.60815683191741
 30
0.0
 10
73.9507911381282
 20
-19.74794383191742
 30
0.0
 10
74.2005581381282
 20
-19.06553083191741
 30
0.0
 10
74.7009381381282
 20
-18.56007083191741
 30
0.0
  0
SPLINE
  5
550
330
1F
100
AcDbEntity
  8
0
 62
     7
100
AcDbSpline
210
0.0
220
0.0
230
1.0
 70
     8
 71
     3
 72
     8
 73
     4
 74
     0
 42
0.000000001
 43
0.0000001
 40
0.0
 40
0.0
 40
0.0
 40
0.0
 40
1.0
 40
1.0
 40
1.0
 40
1.0
 10
74.7009381381282
 20
-18.56007083191741
 30
0.0
 10
75.2004711381282
 20
-18.05489283191741
 30
0.0
 10
75.83208513812819
 20
-17.80202183191741
 30
0.0
 10
76.5954961381282
 20
-17.80202183191741
 30
0.0
  0
SPLINE
  5
551
330
1F
100
AcDbEntity
  8
0
 62
     7
100
AcDbSpline
210
0.0
220
0.0
230
1.0
 70
     8
 71
     3
 72
     8
 73
     4
 74
     0
 42
0.000000001
 43
0.0000001
 40
0.0
 40
0.0
 40
0.0
 40
0.0
 40
1.0
 40
1.0
 40
1.0
 40
1.0
 10
76.5954961381282
 20
-17.80202183191741
 30
0.0
 10
77.71366013812819
 20
-17.80145683191742
 30
0.0
 10
78.5098091381282
 20
-18.23692583191742
 30
0.0
 10
78.9825311381282
 20
-19.10786383191741
 30
0.0
  0
LINE
  5
552
330
1F
100
AcDbEntity
  8
0
 62
     7
100
AcDbLine
 10
78.9825311381282
 20
-19.10786383191741
 30
0.0
 11
78.9825311381282
 21
-19.10786383191741
 31
0.0
  0
SPLINE
  5
553
330
1F
100
AcDbEntity
  8
0
 62
     7
100
AcDbSpline
210
0.0
220
0.0
230
1.0
 70
     8
 71
     3
 72
     8
 73
     4
 74
     0
 42
0.000000001
 43
0.0000001
 40
0.0
 40
0.0
 40
0.0
 40
0.0
 40
1.0
 40
1.0
 40
1.0
 40
1.0
 10
111.7828661381282
 20
-11.57622783191742
 30
0.0
 10
114.3200441381282
 20
-11.57622783191742
 30
0.0
 10
116.4595711381282
 20
-12.44688283191742
 30
0.0
 10
118.2014461381282
 20
-14.18847683191741
 30
0.0
  0
SPLINE
  5
554
330
1F
100
AcDbEntity
  8
0
 62
     7
100
AcDbSpline
210
0.0
220
0.0
230
1.0
 70
     8
 71
     3
 72
     8
 73
     4
 74
     0
 42
0.000000001
 43
0.0000001
 40
0.0
 40
0.0
 40
0.0
 40
0.0
 40
1.0
 40
1.0
 40
1.0
 40
1.0
 10
118.2014461381282
 20
-14.18847683191741
 30
0.0
 10
119.9534821381282
 20
-15.93035183191742
 30
0.0
 10
120.8303461381282
 20
-18.06987883191742
 30
0.0
 10
120.8303461381282
 20
-20.60733883191742
 30
0.0
  0
SPLINE
  5
555
330
1F
100
AcDbEntity
  8
0
 62
     7
100
AcDbSpline
210
0.0
220
0.0
230
1.0
 70
     8
 71
     3
 72
     8
 73
     4
 74
     0
 42
0.000000001
 43
0.0000001
 40
0.0
 40
0.0
 40
0.0
 40
0.0
 40
1.0
 40
1.0
 40
1.0
 40
1.0
 10
120.8303461381282
 20
-20.60733883191742
 30
0.0
 10
120.8303461381282
 20
-23.14508083191741
 30
0.0
 10
119.9701331381282
 20
-25.25723183191742
 30
0.0
 10
118.2494241381282
 20
-26.94548483191741
 30
0.0
  0
SPLINE
  5
556
330
1F
100
AcDbEntity
  8
0
 62
     7
100
AcDbSpline
210
0.0
220
0.0
230
1.0
 70
     8
 71
     3
 72
     8
 73
     4
 74
     0
 42
0.000000001
 43
0.0000001
 40
0.0
 40
0.0
 40
0.0
 40
0.0
 40
1.0
 40
1.0
 40
1.0
 40
1.0
 10
118.2494241381282
 20
-26.94548483191741
 30
0.0
 10
116.4220351381282
 20
-28.74098283191742
 30
0.0
 10
114.2661401381282
 20
-29.63844983191741
 30
0.0
 10
111.7828661381282
 20
-29.63844983191741
 30
0.0
  0
SPLINE
  5
557
330
1F
100
AcDbEntity
  8
0
 62
     7
100
AcDbSpline
210
0.0
220
0.0
230
1.0
 70
     8
 71
     3
 72
     8
 73
     4
 74
     0
 42
0.000000001
 43
0.0000001
 40
0.0
 40
0.0
 40
0.0
 40
0.0
 40
1.0
 40
1.0
 40
1.0
 40
1.0
 10
111.7828661381282
 20
-29.63844983191741
 30
0.0
 10
109.3314841381282
 20
-29.63844983191741
 30
0.0
 10
107.2136891381282
 20
-28.74606283191741
 30
0.0
 10
105.4291971381282
 20
-26.96157183191742
 30
0.0
  0
SPLINE
  5
558
330
1F
100
AcDbEntity
  8
0
 62
     7
100
AcDbSpline
210
0.0
220
0.0
230
1.0
 70
     8
 71
     3
 72
     8
 73
     4
 74
     0
 42
0.000000001
 43
0.0000001
 40
0.0
 40
0.0
 40
0.0
 40
0.0
 40
1.0
 40
1.0
 40
1.0
 40
1.0
 10
105.4291971381282
 20
-26.96157183191742
 30
0.0
 10
103.6554311381282
 20
-25.18724083191742
 30
0.0
 10
102.7681241381282
 20
-23.06972783191742
 30
0.0
 10
102.7681241381282
 20
-20.60733883191742
 30
0.0
  0
SPLINE
  5
559
330
1F
100
AcDbEntity
  8
0
 62
     7
100
AcDbSpline
210
0.0
220
0.0
230
1.0
 70
     8
 71
     3
 72
     8
 73
     4
 74
     0
 42
0.000000001
 43
0.0000001
 40
0.0
 40
0.0
 40
0.0
 40
0.0
 40
1.0
 40
1.0
 40
1.0
 40
1.0
 10
102.7681241381282
 20
-20.60733883191742
 30
0.0
 10
102.7681241381282
 20
-18.13450783191742
 30
0.0
 10
103.6554311381282
 20
-15.99498083191742
 30
0.0
 10
105.4291971381282
 20
-14.18875883191741
 30
0.0
  0
SPLINE
  5
55A
330
1F
100
AcDbEntity
  8
0
 62
     7
100
AcDbSpline
210
0.0
220
0.0
230
1.0
 70
     8
 71
     3
 72
     8
 73
     4
 74
     0
 42
0.000000001
 43
0.0000001
 40
0.0
 40
0.0
 40
0.0
 40
0.0
 40
1.0
 40
1.0
 40
1.0
 40
1.0
 10
105.4291971381282
 20
-14.18875883191741
 30
0.0
 10
107.1707911381282
 20
-12.44716483191742
 30
0.0
 10
109.2885861381282
 20
-11.57622783191742
 30
0.0
 10
111.7828661381282
 20
-11.57622783191742
 30
0.0
  0
LINE
  5
55B
330
1F
100
AcDbEntity
  8
0
 62
     7
100
AcDbLine
 10
111.7828661381282
 20
-11.57622783191742
 30
0.0
 11
111.7828661381282
 21
-11.57622783191742
 31
0.0
  0
SPLINE
  5
55C
330
1F
100
AcDbEntity
  8
0
 62
     7
100
AcDbSpline
210
0.0
220
0.0
230
1.0
 70
     8
 71
     3
 72
     8
 73
     4
 74
     0
 42
0.000000001
 43
0.0000001
 40
0.0
 40
0.0
 40
0.0
 40
0.0
 40
1.0
 40
1.0
 40
1.0
 40
1.0
 10
104.8001241381282
 20
-18.17232483191742
 30
0.0
 10
104.5314491381282
 20
-18.91400483191742
 30
0.0
 10
104.3968291381282
 20
-19.72595883191742
 30
0.0
 10
104.3968291381282
 20
-20.60762083191742
 30
0.0
  0
SPLINE
  5
55D
330
1F
100
AcDbEntity
  8
0
 62
     7
100
AcDbSpline
210
0.0
220
0.0
230
1.0
 70
     8
 71
     3
 72
     8
 73
     4
 74
     0
 42
0.000000001
 43
0.0000001
 40
0.0
 40
0.0
 40
0.0
 40
0.0
 40
1.0
 40
1.0
 40
1.0
 40
1.0
 10
104.3968291381282
 20
-20.60762083191742
 30
0.0
 10
104.3968291381282
 20
-22.60744783191741
 30
0.0
 10
105.1277841381282
 20
-24.33859883191742
 30
0.0
 10
106.5896951381282
 20
-25.80050983191742
 30
0.0
  0
SPLINE
  5
55E
330
1F
100
AcDbEntity
  8
0
 62
     7
100
AcDbSpline
210
0.0
220
0.0
230
1.0
 70
     8
 71
     3
 72
     8
 73
     4
 74
     0
 42
0.000000001
 43
0.0000001
 40
0.0
 40
0.0
 40
0.0
 40
0.0
 40
1.0
 40
1.0
 40
1.0
 40
1.0
 10
106.5896951381282
 20
-25.80050983191742
 30
0.0
 10
108.0626131381282
 20
-27.25226083191743
 30
0.0
 10
109.8044891381282
 20
-27.97785383191741
 30
0.0
 10
111.8147571381282
 20
-27.97785383191741
 30
0.0
  0
SPLINE
  5
55F
330
1F
100
AcDbEntity
  8
0
 62
     7
100
AcDbSpline
210
0.0
220
0.0
230
1.0
 70
     8
 71
     3
 72
     8
 73
     4
 74
     0
 42
0.000000001
 43
0.0000001
 40
0.0
 40
0.0
 40
0.0
 40
0.0
 40
1.0
 40
1.0
 40
1.0
 40
1.0
 10
111.8147571381282
 20
-27.97785383191741
 30
0.0
 10
113.8470401381282
 20
-27.97785383191741
 30
0.0
 10
115.5990751381282
 20
-27.24181883191741
 30
0.0
 10
117.0725571381282
 20
-25.76833683191742
 30
0.0
  0
SPLINE
  5
560
330
1F
100
AcDbEntity
  8
0
 62
     7
100
AcDbSpline
210
0.0
220
0.0
230
1.0
 70
     8
 71
     3
 72
     8
 73
     4
 74
     0
 42
0.000000001
 43
0.0000001
 40
0.0
 40
0.0
 40
0.0
 40
0.0
 40
1.0
 40
1.0
 40
1.0
 40
1.0
 10
117.0725571381282
 20
-25.76833683191742
 30
0.0
 10
117.5994661381282
 20
-25.26315883191742
 30
0.0
 10
118.0129221381282
 20
-24.73624983191742
 30
0.0
 10
118.3137711381282
 20
-24.18732783191741
 30
0.0
  0
LINE
  5
561
330
1F
100
AcDbEntity
  8
0
 62
     7
100
AcDbLine
 10
118.3137711381282
 20
-24.18732783191741
 30
0.0
 11
114.9113001381282
 21
-22.67151183191741
 31
0.0
  0
SPLINE
  5
562
330
1F
100
AcDbEntity
  8
0
 62
     7
100
AcDbSpline
210
0.0
220
0.0
230
1.0
 70
     8
 71
     3
 72
     8
 73
     4
 74
     0
 42
0.000000001
 43
0.0000001
 40
0.0
 40
0.0
 40
0.0
 40
0.0
 40
1.0
 40
1.0
 40
1.0
 40
1.0
 10
114.9113001381282
 20
-22.67151183191741
 30
0.0
 10
114.7924841381282
 20
-23.24160083191742
 30
0.0
 10
114.5051821381282
 20
-23.70642083191741
 30
0.0
 10
114.0485461381282
 20
-24.06625383191742
 30
0.0
  0
SPLINE
  5
563
330
1F
100
AcDbEntity
  8
0
 62
     7
100
AcDbSpline
210
0.0
220
0.0
230
1.0
 70
     8
 71
     3
 72
     8
 73
     4
 74
     0
 42
0.000000001
 43
0.0000001
 40
0.0
 40
0.0
 40
0.0
 40
0.0
 40
1.0
 40
1.0
 40
1.0
 40
1.0
 10
114.0485461381282
 20
-24.06625383191742
 30
0.0
 10
113.5907821381282
 20
-24.42636983191741
 30
0.0
 10
113.0508911381282
 20
-24.63380283191742
 30
0.0
 10
112.4274621381282
 20
-24.68714283191741
 30
0.0
  0
LINE
  5
564
330
1F
100
AcDbEntity
  8
0
 62
     7
100
AcDbLine
 10
112.4274621381282
 20
-24.68714283191741
 30
0.0
 11
112.4274621381282
 21
-26.07426483191742
 31
0.0
  0
LINE
  5
565
330
1F
100
AcDbEntity
  8
0
 62
     7
100
AcDbLine
 10
112.4274621381282
 20
-26.07426483191742
 30
0.0
 11
111.3792891381282
 21
-26.07426483191742
 31
0.0
  0
LINE
  5
566
330
1F
100
AcDbEntity
  8
0
 62
     7
100
AcDbLine
 10
111.3792891381282
 20
-26.07426483191742
 30
0.0
 11
111.3792891381282
 21
-24.68714283191741
 31
0.0
  0
SPLINE
  5
567
330
1F
100
AcDbEntity
  8
0
 62
     7
100
AcDbSpline
210
0.0
220
0.0
230
1.0
 70
     8
 71
     3
 72
     8
 73
     4
 74
     0
 42
0.000000001
 43
0.0000001
 40
0.0
 40
0.0
 40
0.0
 40
0.0
 40
1.0
 40
1.0
 40
1.0
 40
1.0
 10
111.3792891381282
 20
-24.68714283191741
 30
0.0
 10
110.3793751381282
 20
-24.67698283191741
 30
0.0
 10
109.4652571381282
 20
-24.31686783191742
 30
0.0
 10
108.6377821381282
 20
-23.60707883191742
 30
0.0
  0
LINE
  5
568
330
1F
100
AcDbEntity
  8
0
 62
     7
100
AcDbLine
 10
108.6377821381282
 20
-23.60707883191742
 30
0.0
 11
109.8795601381282
 21
-22.34921383191742
 31
0.0
  0
SPLINE
  5
569
330
1F
100
AcDbEntity
  8
0
 62
     7
100
AcDbSpline
210
0.0
220
0.0
230
1.0
 70
     8
 71
     3
 72
     8
 73
     4
 74
     0
 42
0.000000001
 43
0.0000001
 40
0.0
 40
0.0
 40
0.0
 40
0.0
 40
1.0
 40
1.0
 40
1.0
 40
1.0
 10
109.8795601381282
 20
-22.34921383191742
 30
0.0
 10
110.4705331381282
 20
-22.89728983191742
 30
0.0
 10
111.1427861381282
 20
-23.17132783191742
 30
0.0
 10
111.8954731381282
 20
-23.17132783191742
 30
0.0
  0
SPLINE
  5
56A
330
1F
100
AcDbEntity
  8
0
 62
     7
100
AcDbSpline
210
0.0
220
0.0
230
1.0
 70
     8
 71
     3
 72
     8
 73
     4
 74
     0
 42
0.000000001
 43
0.0000001
 40
0.0
 40
0.0
 40
0.0
 40
0.0
 40
1.0
 40
1.0
 40
1.0
 40
1.0
 10
111.8954731381282
 20
-23.17132783191742
 30
0.0
 10
112.2070461381282
 20
-23.17132783191742
 30
0.0
 10
112.4734641381282
 20
-23.10190083191742
 30
0.0
 10
112.6941621381282
 20
-22.96163683191742
 30
0.0
  0
SPLINE
  5
56B
330
1F
100
AcDbEntity
  8
0
 62
     7
100
AcDbSpline
210
0.0
220
0.0
230
1.0
 70
     8
 71
     3
 72
     8
 73
     4
 74
     0
 42
0.000000001
 43
0.0000001
 40
0.0
 40
0.0
 40
0.0
 40
0.0
 40
1.0
 40
1.0
 40
1.0
 40
1.0
 10
112.6941621381282
 20
-22.96163683191742
 30
0.0
 10
112.9142951381282
 20
-22.82221883191743
 30
0.0
 10
113.0249261381282
 20
-22.59136083191741
 30
0.0
 10
113.0249261381282
 20
-22.26821683191741
 30
0.0
  0
SPLINE
  5
56C
330
1F
100
AcDbEntity
  8
0
 62
     7
100
AcDbSpline
210
0.0
220
0.0
230
1.0
 70
     8
 71
     3
 72
     8
 73
     4
 74
     0
 42
0.000000001
 43
0.0000001
 40
0.0
 40
0.0
 40
0.0
 40
0.0
 40
1.0
 40
1.0
 40
1.0
 40
1.0
 10
113.0249261381282
 20
-22.26821683191741
 30
0.0
 10
113.0249261381282
 20
-22.04215683191742
 30
0.0
 10
112.9439291381282
 20
-21.85955883191743
 30
0.0
 10
112.7827801381282
 20
-21.71985883191742
 30
0.0
  0
LINE
  5
56D
330
1F
100
AcDbEntity
  8
0
 62
     7
100
AcDbLine
 10
112.7827801381282
 20
-21.71985883191742
 30
0.0
 11
111.9121241381282
 21
-21.34873683191742
 31
0.0
  0
LINE
  5
56E
330
1F
100
AcDbEntity
  8
0
 62
     7
100
AcDbLine
 10
111.9121241381282
 20
-21.34873683191742
 30
0.0
 11
110.8478641381282
 21
-20.86472483191741
 31
0.0
  0
LINE
  5
56F
330
1F
100
AcDbEntity
  8
0
 62
     7
100
AcDbLine
 10
110.8478641381282
 20
-20.86472483191741
 30
0.0
 11
109.4124821381282
 21
-20.23565183191742
 31
0.0
  0
LINE
  5
570
330
1F
100
AcDbEntity
  8
0
 62
     7
100
AcDbLine
 10
109.4124821381282
 20
-20.23565183191742
 30
0.0
 11
104.8001241381282
 21
-18.17232483191742
 31
0.0
  0
LINE
  5
571
330
1F
100
AcDbEntity
  8
0
 62
     7
100
AcDbLine
 10
104.8001241381282
 20
-18.17232483191742
 30
0.0
 11
104.8001241381282
 21
-18.17232483191742
 31
0.0
  0
SPLINE
  5
572
330
1F
100
AcDbEntity
  8
0
 62
     7
100
AcDbSpline
210
0.0
220
0.0
230
1.0
 70
     8
 71
     3
 72
     8
 73
     4
 74
     0
 42
0.000000001
 43
0.0000001
 40
0.0
 40
0.0
 40
0.0
 40
0.0
 40
1.0
 40
1.0
 40
1.0
 40
1.0
 10
111.8153221381282
 20
-13.18884483191742
 30
0.0
 10
109.7618731381282
 20
-13.18884483191742
 30
0.0
 10
108.0256421381282
 20
-13.91443883191742
 30
0.0
 10
106.6063461381282
 20
-15.36590783191741
 30
0.0
  0
SPLINE
  5
573
330
1F
100
AcDbEntity
  8
0
 62
     7
100
AcDbSpline
210
0.0
220
0.0
230
1.0
 70
     8
 71
     3
 72
     8
 73
     4
 74
     0
 42
0.000000001
 43
0.0000001
 40
0.0
 40
0.0
 40
0.0
 40
0.0
 40
1.0
 40
1.0
 40
1.0
 40
1.0
 10
106.6063461381282
 20
-15.36590783191741
 30
0.0
 10
106.2513111381282
 20
-15.72094283191741
 30
0.0
 10
105.9180061381282
 20
-16.12395683191743
 30
0.0
 10
105.6064331381282
 20
-16.57579383191742
 30
0.0
  0
LINE
  5
574
330
1F
100
AcDbEntity
  8
0
 62
     7
100
AcDbLine
 10
105.6064331381282
 20
-16.57579383191742
 30
0.0
 11
109.0577291381282
 21
-18.12378283191742
 31
0.0
  0
SPLINE
  5
575
330
1F
100
AcDbEntity
  8
0
 62
     7
100
AcDbSpline
210
0.0
220
0.0
230
1.0
 70
     8
 71
     3
 72
     8
 73
     4
 74
     0
 42
0.000000001
 43
0.0000001
 40
0.0
 40
0.0
 40
0.0
 40
0.0
 40
1.0
 40
1.0
 40
1.0
 40
1.0
 10
109.0577291381282
 20
-18.12378283191742
 30
0.0
 10
109.2081531381282
 20
-17.65077883191742
 30
0.0
 10
109.4929151381282
 20
-17.27175383191742
 30
0.0
 10
109.9125801381282
 20
-16.98699183191742
 30
0.0
  0
SPLINE
  5
576
330
1F
100
AcDbEntity
  8
0
 62
     7
100
AcDbSpline
210
0.0
220
0.0
230
1.0
 70
     8
 71
     3
 72
     8
 73
     4
 74
     0
 42
0.000000001
 43
0.0000001
 40
0.0
 40
0.0
 40
0.0
 40
0.0
 40
1.0
 40
1.0
 40
1.0
 40
1.0
 10
109.9125801381282
 20
-16.98699183191742
 30
0.0
 10
110.3313971381282
 20
-16.70222983191742
 30
0.0
 10
110.8207711381282
 20
-16.54362083191742
 30
0.0
 10
111.3801351381282
 20
-16.51116483191741
 30
0.0
  0
LINE
  5
577
330
1F
100
AcDbEntity
  8
0
 62
     7
100
AcDbLine
 10
111.3801351381282
 20
-16.51116483191741
 30
0.0
 11
111.3801351381282
 21
-15.12404283191742
 31
0.0
  0
LINE
  5
578
330
1F
100
AcDbEntity
  8
0
 62
     7
100
AcDbLine
 10
111.3801351381282
 20
-15.12404283191742
 30
0.0
 11
112.4285911381282
 21
-15.12404283191742
 31
0.0
  0
LINE
  5
579
330
1F
100
AcDbEntity
  8
0
 62
     7
100
AcDbLine
 10
112.4285911381282
 20
-15.12404283191742
 30
0.0
 11
112.4285911381282
 21
-16.51116483191741
 31
0.0
  0
SPLINE
  5
57A
330
1F
100
AcDbEntity
  8
0
 62
     7
100
AcDbSpline
210
0.0
220
0.0
230
1.0
 70
     8
 71
     3
 72
     8
 73
     4
 74
     0
 42
0.000000001
 43
0.0000001
 40
0.0
 40
0.0
 40
0.0
 40
0.0
 40
1.0
 40
1.0
 40
1.0
 40
1.0
 10
112.4285911381282
 20
-16.51116483191741
 30
0.0
 10
113.2566311381282
 20
-16.55434483191742
 30
0.0
 10
114.0090351381282
 20
-16.83374483191741
 30
0.0
 10
114.6863691381282
 20
-17.34964783191742
 30
0.0
  0
LINE
  5
57B
330
1F
100
AcDbEntity
  8
0
 62
     7
100
AcDbLine
 10
114.6863691381282
 20
-17.34964783191742
 30
0.0
 11
113.5089371381282
 21
-18.55925183191742
 31
0.0
  0
SPLINE
  5
57C
330
1F
100
AcDbEntity
  8
0
 62
     7
100
AcDbSpline
210
0.0
220
0.0
230
1.0
 70
     8
 71
     3
 72
     8
 73
     4
 74
     0
 42
0.000000001
 43
0.0000001
 40
0.0
 40
0.0
 40
0.0
 40
0.0
 40
1.0
 40
1.0
 40
1.0
 40
1.0
 10
113.5089371381282
 20
-18.55925183191742
 30
0.0
 10
113.0029131381282
 20
-18.20449883191742
 30
0.0
 10
112.4875751381282
 20
-18.02726283191741
 30
0.0
 10
111.9606661381282
 20
-18.02726283191741
 30
0.0
  0
SPLINE
  5
57D
330
1F
100
AcDbEntity
  8
0
 62
     7
100
AcDbSpline
210
0.0
220
0.0
230
1.0
 70
     8
 71
     3
 72
     8
 73
     4
 74
     0
 42
0.000000001
 43
0.0000001
 40
0.0
 40
0.0
 40
0.0
 40
0.0
 40
1.0
 40
1.0
 40
1.0
 40
1.0
 10
111.9606661381282
 20
-18.02726283191741
 30
0.0
 10
111.6809841381282
 20
-18.02726283191741
 30
0.0
 10
111.4312171381282
 20
-18.08116783191741
 30
0.0
 10
111.2110841381282
 20
-18.18841183191742
 30
0.0
  0
SPLINE
  5
57E
330
1F
100
AcDbEntity
  8
0
 62
     7
100
AcDbSpline
210
0.0
220
0.0
230
1.0
 70
     8
 71
     3
 72
     8
 73
     4
 74
     0
 42
0.000000001
 43
0.0000001
 40
0.0
 40
0.0
 40
0.0
 40
0.0
 40
1.0
 40
1.0
 40
1.0
 40
1.0
 10
111.2110841381282
 20
-18.18841183191742
 30
0.0
 10
110.9906691381282
 20
-18.29593883191743
 30
0.0
 10
110.8803201381282
 20
-18.47881883191742
 30
0.0
 10
110.8803201381282
 20
-18.73676983191741
 30
0.0
  0
SPLINE
  5
57F
330
1F
100
AcDbEntity
  8
0
 62
     7
100
AcDbSpline
210
0.0
220
0.0
230
1.0
 70
     8
 71
     3
 72
     8
 73
     4
 74
     0
 42
0.000000001
 43
0.0000001
 40
0.0
 40
0.0
 40
0.0
 40
0.0
 40
1.0
 40
1.0
 40
1.0
 40
1.0
 10
110.8803201381282
 20
-18.73676983191741
 30
0.0
 10
110.8803201381282
 20
-18.81212283191742
 30
0.0
 10
110.9071311381282
 20
-18.88719383191741
 30
0.0
 10
110.9607531381282
 20
-18.96254783191742
 30
0.0
  0
LINE
  5
580
330
1F
100
AcDbEntity
  8
0
 62
     7
100
AcDbLine
 10
110.9607531381282
 20
-18.96254783191742
 30
0.0
 11
112.1057291381282
 21
-19.47901383191741
 31
0.0
  0
LINE
  5
581
330
1F
100
AcDbEntity
  8
0
 62
     7
100
AcDbLine
 10
112.1057291381282
 20
-19.47901383191741
 30
0.0
 11
112.8959511381282
 21
-19.83376783191741
 31
0.0
  0
LINE
  5
582
330
1F
100
AcDbEntity
  8
0
 62
     7
100
AcDbLine
 10
112.8959511381282
 20
-19.83376783191741
 30
0.0
 11
114.3477021381282
 21
-20.47864483191742
 31
0.0
  0
LINE
  5
583
330
1F
100
AcDbEntity
  8
0
 62
     7
100
AcDbLine
 10
114.3477021381282
 20
-20.47864483191742
 30
0.0
 11
118.9753001381282
 21
-22.54281883191742
 31
0.0
  0
SPLINE
  5
584
330
1F
100
AcDbEntity
  8
0
 62
     7
100
AcDbSpline
210
0.0
220
0.0
230
1.0
 70
     8
 71
     3
 72
     8
 73
     4
 74
     0
 42
0.000000001
 43
0.0000001
 40
0.0
 40
0.0
 40
0.0
 40
0.0
 40
1.0
 40
1.0
 40
1.0
 40
1.0
 10
118.9753001381282
 20
-22.54281883191742
 30
0.0
 10
119.1262891381282
 20
-21.90838283191742
 30
0.0
 10
119.2013601381282
 20
-21.26350483191742
 30
0.0
 10
119.2013601381282
 20
-20.60762083191742
 30
0.0
  0
SPLINE
  5
585
330
1F
100
AcDbEntity
  8
0
 62
     7
100
AcDbSpline
210
0.0
220
0.0
230
1.0
 70
     8
 71
     3
 72
     8
 73
     4
 74
     0
 42
0.000000001
 43
0.0000001
 40
0.0
 40
0.0
 40
0.0
 40
0.0
 40
1.0
 40
1.0
 40
1.0
 40
1.0
 10
119.2013601381282
 20
-20.60762083191742
 30
0.0
 10
119.2013601381282
 20
-18.53244083191741
 30
0.0
 10
118.4811291381282
 20
-16.78548483191742
 30
0.0
 10
117.0406661381282
 20
-15.36590783191741
 30
0.0
  0
SPLINE
  5
586
330
1F
100
AcDbEntity
  8
0
 62
     7
100
AcDbSpline
210
0.0
220
0.0
230
1.0
 70
     8
 71
     3
 72
     8
 73
     4
 74
     0
 42
0.000000001
 43
0.0000001
 40
0.0
 40
0.0
 40
0.0
 40
0.0
 40
1.0
 40
1.0
 40
1.0
 40
1.0
 10
117.0406661381282
 20
-15.36590783191741
 30
0.0
 10
115.6106461381282
 20
-13.91443883191742
 30
0.0
 10
113.8682061381282
 20
-13.18884483191742
 30
0.0
 10
111.8153221381282
 20
-13.18884483191742
 30
0.0
  0
LINE
  5
587
330
1F
100
AcDbEntity
  8
0
 62
     7
100
AcDbLine
 10
111.8153221381282
 20
-13.18884483191742
 30
0.0
 11
111.8153221381282
 21
-13.18884483191742
 31
0.0
  0
SPLINE
  5
588
330
1F
100
AcDbEntity
  8
0
 62
     7
100
AcDbSpline
210
0.0
220
0.0
230
1.0
 70
     8
 71
     3
 72
     8
 73
     4
 74
     0
 42
0.000000001
 43
0.0000001
 40
0.0
 40
0.0
 40
0.0
 40
0.0
 40
1.0
 40
1.0
 40
1.0
 40
1.0
 10
130.7475791381282
 20
-11.57619883191742
 30
0.0
 10
133.2737501381282
 20
-11.57619883191742
 30
0.0
 10
135.4129941381282
 20
-12.45249883191742
 30
0.0
 10
137.1658771381282
 20
-14.20509883191743
 30
0.0
  0
SPLINE
  5
589
330
1F
100
AcDbEntity
  8
0
 62
     7
100
AcDbSpline
210
0.0
220
0.0
230
1.0
 70
     8
 71
     3
 72
     8
 73
     4
 74
     0
 42
0.000000001
 43
0.0000001
 40
0.0
 40
0.0
 40
0.0
 40
0.0
 40
1.0
 40
1.0
 40
1.0
 40
1.0
 10
137.1658771381282
 20
-14.20509883191743
 30
0.0
 10
138.9179121381282
 20
-15.94697483191742
 30
0.0
 10
139.7947771381282
 20
-18.08085683191742
 30
0.0
 10
139.7947771381282
 20
-20.60731083191742
 30
0.0
  0
SPLINE
  5
58A
330
1F
100
AcDbEntity
  8
0
 62
     7
100
AcDbSpline
210
0.0
220
0.0
230
1.0
 70
     8
 71
     3
 72
     8
 73
     4
 74
     0
 42
0.000000001
 43
0.0000001
 40
0.0
 40
0.0
 40
0.0
 40
0.0
 40
1.0
 40
1.0
 40
1.0
 40
1.0
 10
139.7947771381282
 20
-20.60731083191742
 30
0.0
 10
139.7947771381282
 20
-23.13432783191742
 30
0.0
 10
138.9342811381282
 20
-25.25184183191742
 30
0.0
 10
137.2138541381282
 20
-26.96126183191741
 30
0.0
  0
SPLINE
  5
58B
330
1F
100
AcDbEntity
  8
0
 62
     7
100
AcDbSpline
210
0.0
220
0.0
230
1.0
 70
     8
 71
     3
 72
     8
 73
     4
 74
     0
 42
0.000000001
 43
0.0000001
 40
0.0
 40
0.0
 40
0.0
 40
0.0
 40
1.0
 40
1.0
 40
1.0
 40
1.0
 10
137.2138541381282
 20
-26.96126183191741
 30
0.0
 10
135.3971901381282
 20
-28.74603483191741
 30
0.0
 10
133.2412941381282
 20
-29.63842183191741
 30
0.0
 10
130.7475791381282
 20
-29.63842183191741
 30
0.0
  0
SPLINE
  5
58C
330
1F
100
AcDbEntity
  8
0
 62
     7
100
AcDbSpline
210
0.0
220
0.0
230
1.0
 70
     8
 71
     3
 72
     8
 73
     4
 74
     0
 42
0.000000001
 43
0.0000001
 40
0.0
 40
0.0
 40
0.0
 40
0.0
 40
1.0
 40
1.0
 40
1.0
 40
1.0
 10
130.7475791381282
 20
-29.63842183191741
 30
0.0
 10
128.3066391381282
 20
-29.63842183191741
 30
0.0
 10
126.1888431381282
 20
-28.75139683191742
 30
0.0
 10
124.3936281381282
 20
-26.97734783191741
 30
0.0
  0
SPLINE
  5
58D
330
1F
100
AcDbEntity
  8
0
 62
     7
100
AcDbSpline
210
0.0
220
0.0
230
1.0
 70
     8
 71
     3
 72
     8
 73
     4
 74
     0
 42
0.000000001
 43
0.0000001
 40
0.0
 40
0.0
 40
0.0
 40
0.0
 40
1.0
 40
1.0
 40
1.0
 40
1.0
 10
124.3936281381282
 20
-26.97734783191741
 30
0.0
 10
122.6198611381282
 20
-25.20358183191742
 30
0.0
 10
121.7325541381282
 20
-23.08070583191741
 30
0.0
 10
121.7325541381282
 20
-20.60759283191742
 30
0.0
  0
SPLINE
  5
58E
330
1F
100
AcDbEntity
  8
0
 62
     7
100
AcDbSpline
210
0.0
220
0.0
230
1.0
 70
     8
 71
     3
 72
     8
 73
     4
 74
     0
 42
0.000000001
 43
0.0000001
 40
0.0
 40
0.0
 40
0.0
 40
0.0
 40
1.0
 40
1.0
 40
1.0
 40
1.0
 10
121.7325541381282
 20
-20.60759283191742
 30
0.0
 10
121.7325541381282
 20
-18.14576783191742
 30
0.0
 10
122.6198611381282
 20
-16.01160383191741
 30
0.0
 10
124.3936281381282
 20
-14.20538183191742
 30
0.0
  0
SPLINE
  5
58F
330
1F
100
AcDbEntity
  8
0
 62
     7
100
AcDbSpline
210
0.0
220
0.0
230
1.0
 70
     8
 71
     3
 72
     8
 73
     4
 74
     0
 42
0.000000001
 43
0.0000001
 40
0.0
 40
0.0
 40
0.0
 40
0.0
 40
1.0
 40
1.0
 40
1.0
 40
1.0
 10
124.3936281381282
 20
-14.20538183191742
 30
0.0
 10
126.1459451381282
 20
-12.45249883191742
 30
0.0
 10
128.2640231381282
 20
-11.57619883191742
 30
0.0
 10
130.7475791381282
 20
-11.57619883191742
 30
0.0
  0
LINE
  5
590
330
1F
100
AcDbEntity
  8
0
 62
     7
100
AcDbLine
 10
130.7475791381282
 20
-11.57619883191742
 30
0.0
 11
130.7475791381282
 21
-11.57619883191742
 31
0.0
  0
SPLINE
  5
591
330
1F
100
AcDbEntity
  8
0
 62
     7
100
AcDbSpline
210
0.0
220
0.0
230
1.0
 70
     8
 71
     3
 72
     8
 73
     4
 74
     0
 42
0.000000001
 43
0.0000001
 40
0.0
 40
0.0
 40
0.0
 40
0.0
 40
1.0
 40
1.0
 40
1.0
 40
1.0
 10
130.7797521381282
 20
-13.20518583191742
 30
0.0
 10
128.7263031381282
 20
-13.20518583191742
 30
0.0
 10
126.9900721381282
 20
-13.93106183191742
 30
0.0
 10
125.5707771381282
 20
-15.38253083191742
 30
0.0
  0
SPLINE
  5
592
330
1F
100
AcDbEntity
  8
0
 62
     7
100
AcDbSpline
210
0.0
220
0.0
230
1.0
 70
     8
 71
     3
 72
     8
 73
     4
 74
     0
 42
0.000000001
 43
0.0000001
 40
0.0
 40
0.0
 40
0.0
 40
0.0
 40
1.0
 40
1.0
 40
1.0
 40
1.0
 10
125.5707771381282
 20
-15.38253083191742
 30
0.0
 10
124.0975771381282
 20
-16.87717883191742
 30
0.0
 10
123.3612591381282
 20
-18.61877283191741
 30
0.0
 10
123.3612591381282
 20
-20.60731083191742
 30
0.0
  0
SPLINE
  5
593
330
1F
100
AcDbEntity
  8
0
 62
     7
100
AcDbSpline
210
0.0
220
0.0
230
1.0
 70
     8
 71
     3
 72
     8
 73
     4
 74
     0
 42
0.000000001
 43
0.0000001
 40
0.0
 40
0.0
 40
0.0
 40
0.0
 40
1.0
 40
1.0
 40
1.0
 40
1.0
 10
123.3612591381282
 20
-20.60731083191742
 30
0.0
 10
123.3612591381282
 20
-22.61814383191742
 30
0.0
 10
124.0922141381282
 20
-24.34873083191742
 30
0.0
 10
125.5541251381282
 20
-25.80019883191741
 30
0.0
  0
SPLINE
  5
594
330
1F
100
AcDbEntity
  8
0
 62
     7
100
AcDbSpline
210
0.0
220
0.0
230
1.0
 70
     8
 71
     3
 72
     8
 73
     4
 74
     0
 42
0.000000001
 43
0.0000001
 40
0.0
 40
0.0
 40
0.0
 40
0.0
 40
1.0
 40
1.0
 40
1.0
 40
1.0
 10
125.5541251381282
 20
-25.80019883191741
 30
0.0
 10
127.0163191381282
 20
-27.26267483191742
 30
0.0
 10
128.7579121381282
 20
-27.99334783191742
 30
0.0
 10
130.7791881381282
 20
-27.99334783191742
 30
0.0
  0
SPLINE
  5
595
330
1F
100
AcDbEntity
  8
0
 62
     7
100
AcDbSpline
210
0.0
220
0.0
230
1.0
 70
     8
 71
     3
 72
     8
 73
     4
 74
     0
 42
0.000000001
 43
0.0000001
 40
0.0
 40
0.0
 40
0.0
 40
0.0
 40
1.0
 40
1.0
 40
1.0
 40
1.0
 10
130.7791881381282
 20
-27.99334783191742
 30
0.0
 10
132.7894571381282
 20
-27.99334783191742
 30
0.0
 10
134.5423391381282
 20
-27.25703083191742
 30
0.0
 10
136.0367051381282
 20
-25.78411283191741
 30
0.0
  0
SPLINE
  5
596
330
1F
100
AcDbEntity
  8
0
 62
     7
100
AcDbSpline
210
0.0
220
0.0
230
1.0
 70
     8
 71
     3
 72
     8
 73
     4
 74
     0
 42
0.000000001
 43
0.0000001
 40
0.0
 40
0.0
 40
0.0
 40
0.0
 40
1.0
 40
1.0
 40
1.0
 40
1.0
 10
136.0367051381282
 20
-25.78411283191741
 30
0.0
 10
137.4560011381282
 20
-24.40799683191742
 30
0.0
 10
138.1655081381282
 20
-22.68249083191742
 30
0.0
 10
138.1655081381282
 20
-20.60731083191742
 30
0.0
  0
SPLINE
  5
597
330
1F
100
AcDbEntity
  8
0
 62
     7
100
AcDbSpline
210
0.0
220
0.0
230
1.0
 70
     8
 71
     3
 72
     8
 73
     4
 74
     0
 42
0.000000001
 43
0.0000001
 40
0.0
 40
0.0
 40
0.0
 40
0.0
 40
1.0
 40
1.0
 40
1.0
 40
1.0
 10
138.1655081381282
 20
-20.60731083191742
 30
0.0
 10
138.1655081381282
 20
-18.54341883191742
 30
0.0
 10
137.4449941381282
 20
-16.80154383191741
 30
0.0
 10
136.0048141381282
 20
-15.38253083191742
 30
0.0
  0
SPLINE
  5
598
330
1F
100
AcDbEntity
  8
0
 62
     7
100
AcDbSpline
210
0.0
220
0.0
230
1.0
 70
     8
 71
     3
 72
     8
 73
     4
 74
     0
 42
0.000000001
 43
0.0000001
 40
0.0
 40
0.0
 40
0.0
 40
0.0
 40
1.0
 40
1.0
 40
1.0
 40
1.0
 10
136.0048141381282
 20
-15.38253083191742
 30
0.0
 10
134.5747941381282
 20
-13.93049683191742
 30
0.0
 10
132.8329191381282
 20
-13.20518583191742
 30
0.0
 10
130.7797521381282
 20
-13.20518583191742
 30
0.0
  0
LINE
  5
599
330
1F
100
AcDbEntity
  8
0
 62
     7
100
AcDbLine
 10
130.7797521381282
 20
-13.20518583191742
 30
0.0
 11
130.7797521381282
 21
-13.20518583191742
 31
0.0
  0
SPLINE
  5
59A
330
1F
100
AcDbEntity
  8
0
 62
     7
100
AcDbSpline
210
0.0
220
0.0
230
1.0
 70
     8
 71
     3
 72
     8
 73
     4
 74
     0
 42
0.000000001
 43
0.0000001
 40
0.0
 40
0.0
 40
0.0
 40
0.0
 40
1.0
 40
1.0
 40
1.0
 40
1.0
 10
126.7479251381282
 20
-19.33307683191742
 30
0.0
 10
126.9197991381282
 20
-18.22563683191741
 30
0.0
 10
127.3657101381282
 20
-17.36824583191742
 30
0.0
 10
128.0862231381282
 20
-16.76090383191742
 30
0.0
  0
SPLINE
  5
59B
330
1F
100
AcDbEntity
  8
0
 62
     7
100
AcDbSpline
210
0.0
220
0.0
230
1.0
 70
     8
 71
     3
 72
     8
 73
     4
 74
     0
 42
0.000000001
 43
0.0000001
 40
0.0
 40
0.0
 40
0.0
 40
0.0
 40
1.0
 40
1.0
 40
1.0
 40
1.0
 10
128.0862231381282
 20
-16.76090383191742
 30
0.0
 10
128.8064541381282
 20
-16.15356183191741
 30
0.0
 10
129.6824721381282
 20
-15.84989083191742
 30
0.0
 10
130.7148411381282
 20
-15.84989083191742
 30
0.0
  0
SPLINE
  5
59C
330
1F
100
AcDbEntity
  8
0
 62
     7
100
AcDbSpline
210
0.0
220
0.0
230
1.0
 70
     8
 71
     3
 72
     8
 73
     4
 74
     0
 42
0.000000001
 43
0.0000001
 40
0.0
 40
0.0
 40
0.0
 40
0.0
 40
1.0
 40
1.0
 40
1.0
 40
1.0
 10
130.7148411381282
 20
-15.84989083191742
 30
0.0
 10
132.1335721381282
 20
-15.84989083191742
 30
0.0
 10
133.2630251381282
 20
-16.30709083191742
 30
0.0
 10
134.1015081381282
 20
-17.22036183191742
 30
0.0
  0
SPLINE
  5
59D
330
1F
100
AcDbEntity
  8
0
 62
     7
100
AcDbSpline
210
0.0
220
0.0
230
1.0
 70
     8
 71
     3
 72
     8
 73
     4
 74
     0
 42
0.000000001
 43
0.0000001
 40
0.0
 40
0.0
 40
0.0
 40
0.0
 40
1.0
 40
1.0
 40
1.0
 40
1.0
 10
134.1015081381282
 20
-17.22036183191742
 30
0.0
 10
134.9399901381282
 20
-18.13419683191742
 30
0.0
 10
135.3593721381282
 20
-19.30626583191741
 30
0.0
 10
135.3593721381282
 20
-20.73600383191742
 30
0.0
  0
SPLINE
  5
59E
330
1F
100
AcDbEntity
  8
0
 62
     7
100
AcDbSpline
210
0.0
220
0.0
230
1.0
 70
     8
 71
     3
 72
     8
 73
     4
 74
     0
 42
0.000000001
 43
0.0000001
 40
0.0
 40
0.0
 40
0.0
 40
0.0
 40
1.0
 40
1.0
 40
1.0
 40
1.0
 10
135.3593721381282
 20
-20.73600383191742
 30
0.0
 10
135.3593721381282
 20
-22.12312583191742
 30
0.0
 10
134.9239031381282
 20
-23.27600383191742
 30
0.0
 10
134.0535301381282
 20
-24.19491883191742
 30
0.0
  0
SPLINE
  5
59F
330
1F
100
AcDbEntity
  8
0
 62
     7
100
AcDbSpline
210
0.0
220
0.0
230
1.0
 70
     8
 71
     3
 72
     8
 73
     4
 74
     0
 42
0.000000001
 43
0.0000001
 40
0.0
 40
0.0
 40
0.0
 40
0.0
 40
1.0
 40
1.0
 40
1.0
 40
1.0
 10
134.0535301381282
 20
-24.19491883191742
 30
0.0
 10
133.1820281381282
 20
-25.11383483191742
 30
0.0
 10
132.0537031381282
 20
-25.57385683191742
 30
0.0
 10
130.6662991381282
 20
-25.57385683191742
 30
0.0
  0
SPLINE
  5
5A0
330
1F
100
AcDbEntity
  8
0
 62
     7
100
AcDbSpline
210
0.0
220
0.0
230
1.0
 70
     8
 71
     3
 72
     8
 73
     4
 74
     0
 42
0.000000001
 43
0.0000001
 40
0.0
 40
0.0
 40
0.0
 40
0.0
 40
1.0
 40
1.0
 40
1.0
 40
1.0
 10
130.6662991381282
 20
-25.57385683191742
 30
0.0
 10
129.6449371381282
 20
-25.57385683191742
 30
0.0
 10
128.7632741381282
 20
-25.26764583191742
 30
0.0
 10
128.0215941381282
 20
-24.65465883191742
 30
0.0
  0
SPLINE
  5
5A1
330
1F
100
AcDbEntity
  8
0
 62
     7
100
AcDbSpline
210
0.0
220
0.0
230
1.0
 70
     8
 71
     3
 72
     8
 73
     4
 74
     0
 42
0.000000001
 43
0.0000001
 40
0.0
 40
0.0
 40
0.0
 40
0.0
 40
1.0
 40
1.0
 40
1.0
 40
1.0
 10
128.0215941381282
 20
-24.65465883191742
 30
0.0
 10
127.2796321381282
 20
-24.04167283191742
 30
0.0
 10
126.8337211381282
 20
-23.17101683191741
 30
0.0
 10
126.6830141381282
 20
-22.04212783191741
 30
0.0
  0
LINE
  5
5A2
330
1F
100
AcDbEntity
  8
0
 62
     7
100
AcDbLine
 10
126.6830141381282
 20
-22.04212783191741
 30
0.0
 11
128.9574431381282
 21
-22.04212783191741
 31
0.0
  0
SPLINE
  5
5A3
330
1F
100
AcDbEntity
  8
0
 62
     7
100
AcDbSpline
210
0.0
220
0.0
230
1.0
 70
     8
 71
     3
 72
     8
 73
     4
 74
     0
 42
0.000000001
 43
0.0000001
 40
0.0
 40
0.0
 40
0.0
 40
0.0
 40
1.0
 40
1.0
 40
1.0
 40
1.0
 10
128.9574431381282
 20
-22.04212783191741
 30
0.0
 10
129.0110651381282
 20
-23.13884383191741
 30
0.0
 10
129.6723121381282
 20
-23.68720183191742
 30
0.0
 10
130.9411831381282
 20
-23.68720183191742
 30
0.0
  0
SPLINE
  5
5A4
330
1F
100
AcDbEntity
  8
0
 62
     7
100
AcDbSpline
210
0.0
220
0.0
230
1.0
 70
     8
 71
     3
 72
     8
 73
     4
 74
     0
 42
0.000000001
 43
0.0000001
 40
0.0
 40
0.0
 40
0.0
 40
0.0
 40
1.0
 40
1.0
 40
1.0
 40
1.0
 10
130.9411831381282
 20
-23.68720183191742
 30
0.0
 10
131.5750541381282
 20
-23.68720183191742
 30
0.0
 10
132.0861591381282
 20
-23.41288183191742
 30
0.0
 10
132.4730851381282
 20
-22.86480583191742
 30
0.0
  0
SPLINE
  5
5A5
330
1F
100
AcDbEntity
  8
0
 62
     7
100
AcDbSpline
210
0.0
220
0.0
230
1.0
 70
     8
 71
     3
 72
     8
 73
     4
 74
     0
 42
0.000000001
 43
0.0000001
 40
0.0
 40
0.0
 40
0.0
 40
0.0
 40
1.0
 40
1.0
 40
1.0
 40
1.0
 10
132.4730851381282
 20
-22.86480583191742
 30
0.0
 10
132.8605771381282
 20
-22.31673083191743
 30
0.0
 10
133.0541811381282
 20
-21.58521083191742
 30
0.0
 10
133.0541811381282
 20
-20.67165683191742
 30
0.0
  0
SPLINE
  5
5A6
330
1F
100
AcDbEntity
  8
0
 62
     7
100
AcDbSpline
210
0.0
220
0.0
230
1.0
 70
     8
 71
     3
 72
     8
 73
     4
 74
     0
 42
0.000000001
 43
0.0000001
 40
0.0
 40
0.0
 40
0.0
 40
0.0
 40
1.0
 40
1.0
 40
1.0
 40
1.0
 10
133.0541811381282
 20
-20.67165683191742
 30
0.0
 10
133.0541811381282
 20
-19.71464183191742
 30
0.0
 10
132.8766631381282
 20
-18.98650783191742
 30
0.0
 10
132.5221921381282
 20
-18.48641083191742
 30
0.0
  0
SPLINE
  5
5A7
330
1F
100
AcDbEntity
  8
0
 62
     7
100
AcDbSpline
210
0.0
220
0.0
230
1.0
 70
     8
 71
     3
 72
     8
 73
     4
 74
     0
 42
0.000000001
 43
0.0000001
 40
0.0
 40
0.0
 40
0.0
 40
0.0
 40
1.0
 40
1.0
 40
1.0
 40
1.0
 10
132.5221921381282
 20
-18.48641083191742
 30
0.0
 10
132.1671571381282
 20
-17.98659483191742
 30
0.0
 10
131.6568991381282
 20
-17.73654583191743
 30
0.0
 10
130.9897251381282
 20
-17.73654583191743
 30
0.0
  0
SPLINE
  5
5A8
330
1F
100
AcDbEntity
  8
0
 62
     7
100
AcDbSpline
210
0.0
220
0.0
230
1.0
 70
     8
 71
     3
 72
     8
 73
     4
 74
     0
 42
0.000000001
 43
0.0000001
 40
0.0
 40
0.0
 40
0.0
 40
0.0
 40
1.0
 40
1.0
 40
1.0
 40
1.0
 10
130.9897251381282
 20
-17.73654583191743
 30
0.0
 10
129.7852011381282
 20
-17.73654583191743
 30
0.0
 10
129.1081501381282
 20
-18.26853483191742
 30
0.0
 10
128.9577251381282
 20
-19.33279483191743
 30
0.0
  0
LINE
  5
5A9
330
1F
100
AcDbEntity
  8
0
 62
     7
100
AcDbLine
 10
128.9577251381282
 20
-19.33279483191743
 30
0.0
 11
129.6189721381282
 21
-19.33279483191743
 31
0.0
  0
LINE
  5
5AA
330
1F
100
AcDbEntity
  8
0
 62
     7
100
AcDbLine
 10
129.6189721381282
 20
-19.33279483191743
 30
0.0
 11
127.8291191381282
 21
-21.12293083191742
 31
0.0
  0
LINE
  5
5AB
330
1F
100
AcDbEntity
  8
0
 62
     7
100
AcDbLine
 10
127.8291191381282
 20
-21.12293083191742
 30
0.0
 11
126.0389831381282
 21
-19.33279483191743
 31
0.0
  0
LINE
  5
5AC
330
1F
100
AcDbEntity
  8
0
 62
     7
100
AcDbLine
 10
126.0389831381282
 20
-19.33279483191743
 30
0.0
 11
126.7479251381282
 21
-19.33307683191742
 31
0.0
  0
LINE
  5
5AD
330
1F
100
AcDbEntity
  8
0
 62
     7
100
AcDbLine
 10
126.7479251381282
 20
-19.33307683191742
 30
0.0
 11
126.7479251381282
 21
-19.33307683191742
 31
0.0
  0
SPLINE
  5
5AE
330
1F
100
AcDbEntity
  8
0
 62
     7
100
AcDbSpline
210
0.0
220
0.0
230
1.0
 70
     8
 71
     3
 72
     8
 73
     4
 74
     0
 42
0.000000001
 43
0.0000001
 40
0.0
 40
0.0
 40
0.0
 40
0.0
 40
1.0
 40
1.0
 40
1.0
 40
1.0
 10
15.2932901381282
 20
-11.12786283191741
 30
0.0
 10
17.8194611381282
 20
-11.12786283191741
 30
0.0
 10
19.9587051381282
 20
-12.00416283191741
 30
0.0
 10
21.7115881381282
 20
-13.75676283191741
 30
0.0
  0
SPLINE
  5
5AF
330
1F
100
AcDbEntity
  8
0
 62
     7
100
AcDbSpline
210
0.0
220
0.0
230
1.0
 70
     8
 71
     3
 72
     8
 73
     4
 74
     0
 42
0.000000001
 43
0.0000001
 40
0.0
 40
0.0
 40
0.0
 40
0.0
 40
1.0
 40
1.0
 40
1.0
 40
1.0
 10
21.7115881381282
 20
-13.75676283191741
 30
0.0
 10
23.4636231381282
 20
-15.49863783191742
 30
0.0
 10
24.3404881381282
 20
-17.63251983191742
 30
0.0
 10
24.3404881381282
 20
-20.15897383191742
 30
0.0
  0
SPLINE
  5
5B0
330
1F
100
AcDbEntity
  8
0
 62
     7
100
AcDbSpline
210
0.0
220
0.0
230
1.0
 70
     8
 71
     3
 72
     8
 73
     4
 74
     0
 42
0.000000001
 43
0.0000001
 40
0.0
 40
0.0
 40
0.0
 40
0.0
 40
1.0
 40
1.0
 40
1.0
 40
1.0
 10
24.3404881381282
 20
-20.15897383191742
 30
0.0
 10
24.3404881381282
 20
-22.68599183191742
 30
0.0
 10
23.4799921381282
 20
-24.80350483191742
 30
0.0
 10
21.7595651381282
 20
-26.51292483191742
 30
0.0
  0
SPLINE
  5
5B1
330
1F
100
AcDbEntity
  8
0
 62
     7
100
AcDbSpline
210
0.0
220
0.0
230
1.0
 70
     8
 71
     3
 72
     8
 73
     4
 74
     0
 42
0.000000001
 43
0.0000001
 40
0.0
 40
0.0
 40
0.0
 40
0.0
 40
1.0
 40
1.0
 40
1.0
 40
1.0
 10
21.7595651381282
 20
-26.51292483191742
 30
0.0
 10
19.9429011381282
 20
-28.29769783191742
 30
0.0
 10
17.7870051381282
 20
-29.19008483191742
 30
0.0
 10
15.2932901381282
 20
-29.19008483191742
 30
0.0
  0
SPLINE
  5
5B2
330
1F
100
AcDbEntity
  8
0
 62
     7
100
AcDbSpline
210
0.0
220
0.0
230
1.0
 70
     8
 71
     3
 72
     8
 73
     4
 74
     0
 42
0.000000001
 43
0.0000001
 40
0.0
 40
0.0
 40
0.0
 40
0.0
 40
1.0
 40
1.0
 40
1.0
 40
1.0
 10
15.2932901381282
 20
-29.19008483191742
 30
0.0
 10
12.8523501381282
 20
-29.19008483191742
 30
0.0
 10
10.7345541381282
 20
-28.30305983191742
 30
0.0
 10
8.939339138128197
 20
-26.52901183191742
 30
0.0
  0
SPLINE
  5
5B3
330
1F
100
AcDbEntity
  8
0
 62
     7
100
AcDbSpline
210
0.0
220
0.0
230
1.0
 70
     8
 71
     3
 72
     8
 73
     4
 74
     0
 42
0.000000001
 43
0.0000001
 40
0.0
 40
0.0
 40
0.0
 40
0.0
 40
1.0
 40
1.0
 40
1.0
 40
1.0
 10
8.939339138128197
 20
-26.52901183191742
 30
0.0
 10
7.165572138128198
 20
-24.75524483191742
 30
0.0
 10
6.278265138128198
 20
-22.63236883191742
 30
0.0
 10
6.278265138128198
 20
-20.15925583191742
 30
0.0
  0
SPLINE
  5
5B4
330
1F
100
AcDbEntity
  8
0
 62
     7
100
AcDbSpline
210
0.0
220
0.0
230
1.0
 70
     8
 71
     3
 72
     8
 73
     4
 74
     0
 42
0.000000001
 43
0.0000001
 40
0.0
 40
0.0
 40
0.0
 40
0.0
 40
1.0
 40
1.0
 40
1.0
 40
1.0
 10
6.278265138128198
 20
-20.15925583191742
 30
0.0
 10
6.278265138128198
 20
-17.69743183191741
 30
0.0
 10
7.165572138128198
 20
-15.56326683191742
 30
0.0
 10
8.939339138128197
 20
-13.75704483191741
 30
0.0
  0
SPLINE
  5
5B5
330
1F
100
AcDbEntity
  8
0
 62
     7
100
AcDbSpline
210
0.0
220
0.0
230
1.0
 70
     8
 71
     3
 72
     8
 73
     4
 74
     0
 42
0.000000001
 43
0.0000001
 40
0.0
 40
0.0
 40
0.0
 40
0.0
 40
1.0
 40
1.0
 40
1.0
 40
1.0
 10
8.939339138128197
 20
-13.75704483191741
 30
0.0
 10
10.6916571381282
 20
-12.00416283191741
 30
0.0
 10
12.8097341381282
 20
-11.12786283191741
 30
0.0
 10
15.2932901381282
 20
-11.12786283191741
 30
0.0
  0
LINE
  5
5B6
330
1F
100
AcDbEntity
  8
0
 62
     7
100
AcDbLine
 10
15.2932901381282
 20
-11.12786283191741
 30
0.0
 11
15.2932901381282
 21
-11.12786283191741
 31
0.0
  0
SPLINE
  5
5B7
330
1F
100
AcDbEntity
  8
0
 62
     7
100
AcDbSpline
210
0.0
220
0.0
230
1.0
 70
     8
 71
     3
 72
     8
 73
     4
 74
     0
 42
0.000000001
 43
0.0000001
 40
0.0
 40
0.0
 40
0.0
 40
0.0
 40
1.0
 40
1.0
 40
1.0
 40
1.0
 10
15.3254631381282
 20
-12.75684883191742
 30
0.0
 10
13.2720141381282
 20
-12.75684883191742
 30
0.0
 10
11.5357831381282
 20
-13.48272483191742
 30
0.0
 10
10.1164881381282
 20
-14.93419383191741
 30
0.0
  0
SPLINE
  5
5B8
330
1F
100
AcDbEntity
  8
0
 62
     7
100
AcDbSpline
210
0.0
220
0.0
230
1.0
 70
     8
 71
     3
 72
     8
 73
     4
 74
     0
 42
0.000000001
 43
0.0000001
 40
0.0
 40
0.0
 40
0.0
 40
0.0
 40
1.0
 40
1.0
 40
1.0
 40
1.0
 10
10.1164881381282
 20
-14.93419383191741
 30
0.0
 10
8.643288138128199
 20
-16.42884283191742
 30
0.0
 10
7.906970138128198
 20
-18.17043583191742
 30
0.0
 10
7.906970138128198
 20
-20.15897383191742
 30
0.0
  0
SPLINE
  5
5B9
330
1F
100
AcDbEntity
  8
0
 62
     7
100
AcDbSpline
210
0.0
220
0.0
230
1.0
 70
     8
 71
     3
 72
     8
 73
     4
 74
     0
 42
0.000000001
 43
0.0000001
 40
0.0
 40
0.0
 40
0.0
 40
0.0
 40
1.0
 40
1.0
 40
1.0
 40
1.0
 10
7.906970138128198
 20
-20.15897383191742
 30
0.0
 10
7.906970138128198
 20
-22.16980683191741
 30
0.0
 10
8.637925138128198
 20
-23.90039383191741
 30
0.0
 10
10.0998371381282
 20
-25.35186283191742
 30
0.0
  0
SPLINE
  5
5BA
330
1F
100
AcDbEntity
  8
0
 62
     7
100
AcDbSpline
210
0.0
220
0.0
230
1.0
 70
     8
 71
     3
 72
     8
 73
     4
 74
     0
 42
0.000000001
 43
0.0000001
 40
0.0
 40
0.0
 40
0.0
 40
0.0
 40
1.0
 40
1.0
 40
1.0
 40
1.0
 10
10.0998371381282
 20
-25.35186283191742
 30
0.0
 10
11.5620301381282
 20
-26.81433783191741
 30
0.0
 10
13.3036231381282
 20
-27.54501183191742
 30
0.0
 10
15.3248991381282
 20
-27.54501183191742
 30
0.0
  0
SPLINE
  5
5BB
330
1F
100
AcDbEntity
  8
0
 62
     7
100
AcDbSpline
210
0.0
220
0.0
230
1.0
 70
     8
 71
     3
 72
     8
 73
     4
 74
     0
 42
0.000000001
 43
0.0000001
 40
0.0
 40
0.0
 40
0.0
 40
0.0
 40
1.0
 40
1.0
 40
1.0
 40
1.0
 10
15.3248991381282
 20
-27.54501183191742
 30
0.0
 10
17.3351681381282
 20
-27.54501183191742
 30
0.0
 10
19.0880501381282
 20
-26.80869383191742
 30
0.0
 10
20.5824171381282
 20
-25.33577583191742
 30
0.0
  0
SPLINE
  5
5BC
330
1F
100
AcDbEntity
  8
0
 62
     7
100
AcDbSpline
210
0.0
220
0.0
230
1.0
 70
     8
 71
     3
 72
     8
 73
     4
 74
     0
 42
0.000000001
 43
0.0000001
 40
0.0
 40
0.0
 40
0.0
 40
0.0
 40
1.0
 40
1.0
 40
1.0
 40
1.0
 10
20.5824171381282
 20
-25.33577583191742
 30
0.0
 10
22.0017121381282
 20
-23.95965983191742
 30
0.0
 10
22.7112191381282
 20
-22.23415383191742
 30
0.0
 10
22.7112191381282
 20
-20.15897383191742
 30
0.0
  0
SPLINE
  5
5BD
330
1F
100
AcDbEntity
  8
0
 62
     7
100
AcDbSpline
210
0.0
220
0.0
230
1.0
 70
     8
 71
     3
 72
     8
 73
     4
 74
     0
 42
0.000000001
 43
0.0000001
 40
0.0
 40
0.0
 40
0.0
 40
0.0
 40
1.0
 40
1.0
 40
1.0
 40
1.0
 10
22.7112191381282
 20
-20.15897383191742
 30
0.0
 10
22.7112191381282
 20
-18.09508283191742
 30
0.0
 10
21.9907051381282
 20
-16.35320683191742
 30
0.0
 10
20.5505251381282
 20
-14.93419383191741
 30
0.0
  0
SPLINE
  5
5BE
330
1F
100
AcDbEntity
  8
0
 62
     7
100
AcDbSpline
210
0.0
220
0.0
230
1.0
 70
     8
 71
     3
 72
     8
 73
     4
 74
     0
 42
0.000000001
 43
0.0000001
 40
0.0
 40
0.0
 40
0.0
 40
0.0
 40
1.0
 40
1.0
 40
1.0
 40
1.0
 10
20.5505251381282
 20
-14.93419383191741
 30
0.0
 10
19.1205051381282
 20
-13.48215983191741
 30
0.0
 10
17.3786301381282
 20
-12.75684883191742
 30
0.0
 10
15.3254631381282
 20
-12.75684883191742
 30
0.0
  0
LINE
  5
5BF
330
1F
100
AcDbEntity
  8
0
 62
     7
100
AcDbLine
 10
15.3254631381282
 20
-12.75684883191742
 30
0.0
 11
15.3254631381282
 21
-12.75684883191742
 31
0.0
  0
LINE
  5
5C0
330
1F
100
AcDbEntity
  8
0
 62
     7
100
AcDbLine
 10
21.2117721381282
 20
-20.32040483191741
 30
0.0
 11
21.3892901381282
 21
-20.40111983191741
 31
0.0
  0
LINE
  5
5C1
330
1F
100
AcDbEntity
  8
0
 62
     7
100
AcDbLine
 10
21.3892901381282
 20
-20.40111983191741
 30
0.0
 11
21.3892901381282
 21
-22.94902283191742
 31
0.0
  0
LINE
  5
5C2
330
1F
100
AcDbEntity
  8
0
 62
     7
100
AcDbLine
 10
21.3892901381282
 20
-22.94902283191742
 30
0.0
 11
21.2278591381282
 21
-23.02917383191742
 31
0.0
  0
LINE
  5
5C3
330
1F
100
AcDbEntity
  8
0
 62
     7
100
AcDbLine
 10
21.2278591381282
 20
-23.02917383191742
 30
0.0
 11
19.0347101381282
 21
-23.96473983191741
 31
0.0
  0
LINE
  5
5C4
330
1F
100
AcDbEntity
  8
0
 62
     7
100
AcDbLine
 10
19.0347101381282
 20
-23.96473983191741
 30
0.0
 11
18.9379081381282
 21
-23.99719583191742
 31
0.0
  0
LINE
  5
5C5
330
1F
100
AcDbEntity
  8
0
 62
     7
100
AcDbLine
 10
18.9379081381282
 20
-23.99719583191742
 30
0.0
 11
18.8250191381282
 21
-23.96502283191742
 31
0.0
  0
LINE
  5
5C6
330
1F
100
AcDbEntity
  8
0
 62
     7
100
AcDbLine
 10
18.8250191381282
 20
-23.96502283191742
 30
0.0
 11
14.0997721381282
 21
-22.01373783191742
 31
0.0
  0
LINE
  5
5C7
330
1F
100
AcDbEntity
  8
0
 62
     7
100
AcDbLine
 10
14.0997721381282
 20
-22.01373783191742
 30
0.0
 11
13.9383411381282
 21
-21.94910883191741
 31
0.0
  0
LINE
  5
5C8
330
1F
100
AcDbEntity
  8
0
 62
     7
100
AcDbLine
 10
13.9383411381282
 20
-21.94910883191741
 30
0.0
 11
11.6001301381282
 21
-22.91684883191742
 31
0.0
  0
LINE
  5
5C9
330
1F
100
AcDbEntity
  8
0
 62
     7
100
AcDbLine
 10
11.6001301381282
 20
-22.91684883191742
 30
0.0
 11
9.294092138128198
 21
-21.91665383191742
 31
0.0
  0
LINE
  5
5CA
330
1F
100
AcDbEntity
  8
0
 62
     7
100
AcDbLine
 10
9.294092138128198
 20
-21.91665383191742
 30
0.0
 11
9.294092138128198
 21
-19.59452883191742
 31
0.0
  0
LINE
  5
5CB
330
1F
100
AcDbEntity
  8
0
 62
     7
100
AcDbLine
 10
9.294092138128198
 20
-19.59452883191742
 30
0.0
 11
11.4550681381282
 21
-18.69113583191742
 31
0.0
  0
LINE
  5
5CC
330
1F
100
AcDbEntity
  8
0
 62
     7
100
AcDbLine
 10
11.4550681381282
 20
-18.69113583191742
 30
0.0
 11
11.4389811381282
 21
-18.67504883191742
 31
0.0
  0
LINE
  5
5CD
330
1F
100
AcDbEntity
  8
0
 62
     7
100
AcDbLine
 10
11.4389811381282
 20
-18.67504883191742
 30
0.0
 11
11.4389811381282
 21
-16.12686483191742
 31
0.0
  0
LINE
  5
5CE
330
1F
100
AcDbEntity
  8
0
 62
     7
100
AcDbLine
 10
11.4389811381282
 20
-16.12686483191742
 30
0.0
 11
13.8903631381282
 21
-15.04651783191741
 31
0.0
  0
LINE
  5
5CF
330
1F
100
AcDbEntity
  8
0
 62
     7
100
AcDbLine
 10
13.8903631381282
 20
-15.04651783191741
 30
0.0
 11
19.4219191381282
 21
-17.33646883191741
 31
0.0
  0
LINE
  5
5D0
330
1F
100
AcDbEntity
  8
0
 62
     7
100
AcDbLine
 10
19.4219191381282
 20
-17.33646883191741
 30
0.0
 11
19.4219191381282
 21
-19.57815983191742
 31
0.0
  0
LINE
  5
5D1
330
1F
100
AcDbEntity
  8
0
 62
     7
100
AcDbLine
 10
19.4219191381282
 20
-19.57815983191742
 30
0.0
 11
21.2117721381282
 21
-20.32040483191741
 31
0.0
  0
LINE
  5
5D2
330
1F
100
AcDbEntity
  8
0
 62
     7
100
AcDbLine
 10
21.2117721381282
 20
-20.32040483191741
 30
0.0
 11
21.2117721381282
 21
-20.32040483191741
 31
0.0
  0
LINE
  5
5D3
330
1F
100
AcDbEntity
  8
0
 62
     7
100
AcDbLine
 10
18.6475011381282
 20
-23.28712483191742
 30
0.0
 11
18.6475011381282
 21
-21.69115783191742
 31
0.0
  0
LINE
  5
5D4
330
1F
100
AcDbEntity
  8
0
 62
     7
100
AcDbLine
 10
18.6475011381282
 20
-21.69115783191742
 30
0.0
 11
18.6314141381282
 21
-21.69115783191742
 31
0.0
  0
LINE
  5
5D5
330
1F
100
AcDbEntity
  8
0
 62
     7
100
AcDbLine
 10
18.6314141381282
 20
-21.69115783191742
 30
0.0
 11
18.6314141381282
 21
-21.62652883191741
 31
0.0
  0
LINE
  5
5D6
330
1F
100
AcDbEntity
  8
0
 62
     7
100
AcDbLine
 10
18.6314141381282
 20
-21.62652883191741
 30
0.0
 11
14.4866991381282
 21
-19.93319583191742
 31
0.0
  0
LINE
  5
5D7
330
1F
100
AcDbEntity
  8
0
 62
     7
100
AcDbLine
 10
14.4866991381282
 20
-19.93319583191742
 30
0.0
 11
14.4866991381282
 21
-21.57855183191742
 31
0.0
  0
LINE
  5
5D8
330
1F
100
AcDbEntity
  8
0
 62
     7
100
AcDbLine
 10
14.4866991381282
 20
-21.57855183191742
 30
0.0
 11
18.6314141381282
 21
-23.28825383191742
 31
0.0
  0
LINE
  5
5D9
330
1F
100
AcDbEntity
  8
0
 62
     7
100
AcDbLine
 10
18.6314141381282
 20
-23.28825383191742
 30
0.0
 11
18.6314141381282
 21
-23.27188483191742
 31
0.0
  0
LINE
  5
5DA
330
1F
100
AcDbEntity
  8
0
 62
     7
100
AcDbLine
 10
18.6314141381282
 20
-23.27188483191742
 30
0.0
 11
18.6475011381282
 21
-23.28712483191742
 31
0.0
  0
LINE
  5
5DB
330
1F
100
AcDbEntity
  8
0
 62
     7
100
AcDbLine
 10
18.6475011381282
 20
-23.28712483191742
 30
0.0
 11
18.6475011381282
 21
-23.28712483191742
 31
0.0
  0
LINE
  5
5DC
330
1F
100
AcDbEntity
  8
0
 62
     7
100
AcDbLine
 10
18.9215391381282
 20
-21.19105983191741
 30
0.0
 11
20.3735721381282
 21
-20.59444283191742
 31
0.0
  0
LINE
  5
5DD
330
1F
100
AcDbEntity
  8
0
 62
     7
100
AcDbLine
 10
20.3735721381282
 20
-20.59444283191742
 30
0.0
 11
19.0347101381282
 21
-20.02999783191741
 31
0.0
  0
LINE
  5
5DE
330
1F
100
AcDbEntity
  8
0
 62
     7
100
AcDbLine
 10
19.0347101381282
 20
-20.02999783191741
 30
0.0
 11
17.6154141381282
 21
-20.62661583191742
 31
0.0
  0
LINE
  5
5DF
330
1F
100
AcDbEntity
  8
0
 62
     7
100
AcDbLine
 10
17.6154141381282
 20
-20.62661583191742
 30
0.0
 11
18.9215391381282
 21
-21.19105983191741
 31
0.0
  0
LINE
  5
5E0
330
1F
100
AcDbEntity
  8
0
 62
     7
100
AcDbLine
 10
18.9215391381282
 20
-21.19105983191741
 30
0.0
 11
18.9215391381282
 21
-21.19105983191741
 31
0.0
  0
LINE
  5
5E1
330
1F
100
AcDbEntity
  8
0
 62
     7
100
AcDbLine
 10
20.8248451381282
 20
-22.57818283191742
 30
0.0
 11
20.8248451381282
 21
-21.01410683191742
 31
0.0
  0
LINE
  5
5E2
330
1F
100
AcDbEntity
  8
0
 62
     7
100
AcDbLine
 10
20.8248451381282
 20
-21.01410683191742
 30
0.0
 11
19.2119451381282
 21
-21.69143983191742
 31
0.0
  0
LINE
  5
5E3
330
1F
100
AcDbEntity
  8
0
 62
     7
100
AcDbLine
 10
19.2119451381282
 20
-21.69143983191742
 30
0.0
 11
19.2119451381282
 21
-23.27188483191742
 31
0.0
  0
LINE
  5
5E4
330
1F
100
AcDbEntity
  8
0
 62
     7
100
AcDbLine
 10
19.2119451381282
 20
-23.27188483191742
 30
0.0
 11
20.8248451381282
 21
-22.57818283191742
 31
0.0
  0
LINE
  5
5E5
330
1F
100
AcDbEntity
  8
0
 62
     7
100
AcDbLine
 10
20.8248451381282
 20
-22.57818283191742
 30
0.0
 11
20.8248451381282
 21
-22.57818283191742
 31
0.0
  0
SPLINE
  5
5E6
330
1F
100
AcDbEntity
  8
-01
100
AcDbSpline
210
0.0
220
0.0
230
1.0
 70
     8
 71
     3
 72
     8
 73
     4
 74
     0
 42
0.000000001
 43
0.0000001
 40
0.0
 40
0.0
 40
0.0
 40
0.0
 40
1.0
 40
1.0
 40
1.0
 40
1.0
 10
66.84276199999965
 20
136.5960209108367
 30
0.0
 10
66.79774799999967
 20
130.0044039108367
 30
0.0
 10
58.61795999999964
 20
79.89531891083669
 30
0.0
 10
52.58725899999968
 20
69.24799191083673
 30
0.0
  0
SPLINE
  5
5E7
330
1F
100
AcDbEntity
  8
-01
100
AcDbSpline
210
0.0
220
0.0
230
1.0
 70
     8
 71
     3
 72
     8
 73
     4
 74
     0
 42
0.000000001
 43
0.0000001
 40
0.0
 40
0.0
 40
0.0
 40
0.0
 40
1.0
 40
1.0
 40
1.0
 40
1.0
 10
52.58725899999968
 20
69.24799191083673
 30
0.0
 10
51.07789899999966
 20
66.58324991083668
 30
0.0
 10
49.68640299999964
 20
66.08170491083672
 30
0.0
 10
47.23272699999967
 20
65.99968491083672
 30
0.0
  0
LINE
  5
5E8
330
1F
100
AcDbEntity
  8
-01
100
AcDbLine
 10
47.23272699999967
 20
65.99968491083672
 30
0.0
 11
47.23272699999967
 21
75.98385991083671
 31
0.0
  0
LINE
  5
5E9
330
1F
100
AcDbEntity
  8
-01
100
AcDbLine
 10
47.23272699999967
 20
75.98385991083671
 30
0.0
 11
41.23275399999966
 21
75.98385991083671
 31
0.0
  0
LINE
  5
5EA
330
1F
100
AcDbEntity
  8
-01
100
AcDbLine
 10
41.23275399999966
 20
75.98385991083671
 30
0.0
 11
41.23275399999966
 21
65.99968491083672
 31
0.0
  0
SPLINE
  5
5EB
330
1F
100
AcDbEntity
  8
-01
100
AcDbSpline
210
0.0
220
0.0
230
1.0
 70
     8
 71
     3
 72
     8
 73
     4
 74
     0
 42
0.000000001
 43
0.0000001
 40
0.0
 40
0.0
 40
0.0
 40
0.0
 40
1.0
 40
1.0
 40
1.0
 40
1.0
 10
41.23275399999966
 20
65.99968491083672
 30
0.0
 10
38.77897199999967
 20
66.08170491083672
 30
0.0
 10
37.38758199999967
 20
66.58324991083668
 30
0.0
 10
35.87825699999968
 20
69.24799191083673
 30
0.0
  0
SPLINE
  5
5EC
330
1F
100
AcDbEntity
  8
-01
100
AcDbSpline
210
0.0
220
0.0
230
1.0
 70
     8
 71
     3
 72
     8
 73
     4
 74
     0
 42
0.000000001
 43
0.0000001
 40
0.0
 40
0.0
 40
0.0
 40
0.0
 40
1.0
 40
1.0
 40
1.0
 40
1.0
 10
35.87825699999968
 20
69.24799191083673
 30
0.0
 10
29.84752099999969
 20
79.89531891083669
 30
0.0
 10
21.66829799999965
 20
130.0044039108367
 30
0.0
 10
21.62328299999967
 20
136.5960209108367
 30
0.0
  0
SPLINE
  5
5ED
330
1F
100
AcDbEntity
  8
-01
100
AcDbSpline
210
0.0
220
0.0
230
1.0
 70
     8
 71
     3
 72
     8
 73
     4
 74
     0
 42
0.000000001
 43
0.0000001
 40
0.0
 40
0.0
 40
0.0
 40
0.0
 40
1.0
 40
1.0
 40
1.0
 40
1.0
 10
21.62328299999967
 20
136.5960209108367
 30
0.0
 10
21.55900699999967
 20
146.0034759108367
 30
0.0
 10
33.37670999999966
 20
149.9839379108367
 30
0.0
 10
44.23302299999966
 20
149.9839379108367
 30
0.0
  0
SPLINE
  5
5EE
330
1F
100
AcDbEntity
  8
-01
100
AcDbSpline
210
0.0
220
0.0
230
1.0
 70
     8
 71
     3
 72
     8
 73
     4
 74
     0
 42
0.000000001
 43
0.0000001
 40
0.0
 40
0.0
 40
0.0
 40
0.0
 40
1.0
 40
1.0
 40
1.0
 40
1.0
 10
44.23302299999966
 20
149.9839379108367
 30
0.0
 10
55.08937099999969
 20
149.9839379108367
 30
0.0
 10
66.90700299999969
 20
146.0034759108367
 30
0.0
 10
66.84276199999965
 20
136.5960209108367
 30
0.0
  0
LINE
  5
5EF
330
1F
100
AcDbEntity
  8
-03
100
AcDbLine
 10
59.45040999999969
 20
114.3147019108367
 30
0.0
 11
59.45040999999969
 21
120.3147109108367
 31
0.0
  0
LINE
  5
5F0
330
1F
100
AcDbEntity
  8
-03
100
AcDbLine
 10
59.45040999999969
 20
120.3147109108367
 30
0.0
 11
53.45043599999968
 21
120.3147109108367
 31
0.0
  0
LINE
  5
5F1
330
1F
100
AcDbEntity
  8
-03
100
AcDbLine
 10
53.45043599999968
 20
120.3147109108367
 30
0.0
 11
53.45043599999968
 21
114.3147019108367
 31
0.0
  0
LINE
  5
5F2
330
1F
100
AcDbEntity
  8
-03
100
AcDbLine
 10
53.45043599999968
 20
114.3147019108367
 30
0.0
 11
59.45040999999969
 21
114.3147019108367
 31
0.0
  0
LINE
  5
5F3
330
1F
100
AcDbEntity
  8
-03
100
AcDbLine
 10
59.45040999999969
 20
114.3147019108367
 30
0.0
 11
59.45040999999969
 21
114.3147019108367
 31
0.0
  0
LINE
  5
5F4
330
1F
100
AcDbEntity
  8
-03
100
AcDbLine
 10
59.45040999999969
 20
131.3143029108367
 30
0.0
 11
59.45040999999969
 21
141.3144239108367
 31
0.0
  0
LINE
  5
5F5
330
1F
100
AcDbEntity
  8
-03
100
AcDbLine
 10
59.45040999999969
 20
141.3144239108367
 30
0.0
 11
53.45043599999968
 21
141.3144239108367
 31
0.0
  0
LINE
  5
5F6
330
1F
100
AcDbEntity
  8
-03
100
AcDbLine
 10
53.45043599999968
 20
141.3144239108367
 30
0.0
 11
53.45043599999968
 21
131.3143029108367
 31
0.0
  0
LINE
  5
5F7
330
1F
100
AcDbEntity
  8
-03
100
AcDbLine
 10
53.45043599999968
 20
131.3143029108367
 30
0.0
 11
59.45040999999969
 21
131.3143029108367
 31
0.0
  0
LINE
  5
5F8
330
1F
100
AcDbEntity
  8
-03
100
AcDbLine
 10
59.45040999999969
 20
131.3143029108367
 30
0.0
 11
59.45040999999969
 21
131.3143029108367
 31
0.0
  0
LINE
  5
5F9
330
1F
100
AcDbEntity
  8
-03
100
AcDbLine
 10
47.23272699999967
 20
137.6725579108368
 30
0.0
 11
47.23272699999967
 21
143.6725319108367
 31
0.0
  0
LINE
  5
5FA
330
1F
100
AcDbEntity
  8
-03
100
AcDbLine
 10
47.23272699999967
 20
143.6725319108367
 30
0.0
 11
41.23275399999966
 21
143.6725319108367
 31
0.0
  0
LINE
  5
5FB
330
1F
100
AcDbEntity
  8
-03
100
AcDbLine
 10
41.23275399999966
 20
143.6725319108367
 30
0.0
 11
41.23275399999966
 21
137.6725579108368
 31
0.0
  0
LINE
  5
5FC
330
1F
100
AcDbEntity
  8
-03
100
AcDbLine
 10
41.23275399999966
 20
137.6725579108368
 30
0.0
 11
47.23272699999967
 21
137.6725579108368
 31
0.0
  0
LINE
  5
5FD
330
1F
100
AcDbEntity
  8
-03
100
AcDbLine
 10
47.23272699999967
 20
137.6725579108368
 30
0.0
 11
47.23272699999967
 21
137.6725579108368
 31
0.0
  0
LINE
  5
5FE
330
1F
100
AcDbEntity
  8
-03
100
AcDbLine
 10
35.01560999999964
 20
114.3147019108367
 30
0.0
 11
35.01560999999964
 21
120.3147109108367
 31
0.0
  0
LINE
  5
5FF
330
1F
100
AcDbEntity
  8
-03
100
AcDbLine
 10
35.01560999999964
 20
120.3147109108367
 30
0.0
 11
29.01563599999963
 21
120.3147109108367
 31
0.0
  0
LINE
  5
600
330
1F
100
AcDbEntity
  8
-03
100
AcDbLine
 10
29.01563599999963
 20
120.3147109108367
 30
0.0
 11
29.01563599999963
 21
114.3147019108367
 31
0.0
  0
LINE
  5
601
330
1F
100
AcDbEntity
  8
-03
100
AcDbLine
 10
29.01563599999963
 20
114.3147019108367
 30
0.0
 11
35.01560999999964
 21
114.3147019108367
 31
0.0
  0
LINE
  5
602
330
1F
100
AcDbEntity
  8
-03
100
AcDbLine
 10
35.01560999999964
 20
114.3147019108367
 30
0.0
 11
35.01560999999964
 21
114.3147019108367
 31
0.0
  0
LINE
  5
603
330
1F
100
AcDbEntity
  8
-03
100
AcDbLine
 10
35.01560999999964
 20
131.3143029108367
 30
0.0
 11
35.01560999999964
 21
141.3144239108367
 31
0.0
  0
LINE
  5
604
330
1F
100
AcDbEntity
  8
-03
100
AcDbLine
 10
35.01560999999964
 20
141.3144239108367
 30
0.0
 11
29.01563599999963
 21
141.3144239108367
 31
0.0
  0
LINE
  5
605
330
1F
100
AcDbEntity
  8
-03
100
AcDbLine
 10
29.01563599999963
 20
141.3144239108367
 30
0.0
 11
29.01563599999963
 21
131.3143029108367
 31
0.0
  0
LINE
  5
606
330
1F
100
AcDbEntity
  8
-03
100
AcDbLine
 10
29.01563599999963
 20
131.3143029108367
 30
0.0
 11
35.01560999999964
 21
131.3143029108367
 31
0.0
  0
LINE
  5
607
330
1F
100
AcDbEntity
  8
-03
100
AcDbLine
 10
35.01560999999964
 20
131.3143029108367
 30
0.0
 11
35.01560999999964
 21
131.3143029108367
 31
0.0
  0
SPLINE
  5
608
330
1F
100
AcDbEntity
  8
-01
100
AcDbSpline
210
0.0
220
0.0
230
1.0
 70
     8
 71
     3
 72
     8
 73
     4
 74
     0
 42
0.000000001
 43
0.0000001
 40
0.0
 40
0.0
 40
0.0
 40
0.0
 40
1.0
 40
1.0
 40
1.0
 40
1.0
 10
65.44286899999997
 20
143.9839599108367
 30
0.0
 10
70.05797899999999
 20
134.6588509108367
 30
0.0
 10
69.16848500000003
 20
122.3571589108367
 30
0.0
 10
79.535777
 20
113.3297759108367
 30
0.0
  0
SPLINE
  5
609
330
1F
100
AcDbEntity
  8
-01
100
AcDbSpline
210
0.0
220
0.0
230
1.0
 70
     8
 71
     3
 72
     8
 73
     4
 74
     0
 42
0.000000001
 43
0.0000001
 40
0.0
 40
0.0
 40
0.0
 40
0.0
 40
1.0
 40
1.0
 40
1.0
 40
1.0
 10
79.535777
 20
113.3297759108367
 30
0.0
 10
84.03164800000002
 20
109.4149909108368
 30
0.0
 10
89.49624599999999
 20
105.7555069108367
 30
0.0
 10
92.80851200000001
 20
98.49271191083673
 30
0.0
  0
SPLINE
  5
60A
330
1F
100
AcDbEntity
  8
-01
100
AcDbSpline
210
0.0
220
0.0
230
1.0
 70
     8
 71
     3
 72
     8
 73
     4
 74
     0
 42
0.000000001
 43
0.0000001
 40
0.0
 40
0.0
 40
0.0
 40
0.0
 40
1.0
 40
1.0
 40
1.0
 40
1.0
 10
92.80851200000001
 20
98.49271191083673
 30
0.0
 10
93.26493600000003
 20
97.4919129108367
 30
0.0
 10
93.97606499999995
 20
96.00981591083664
 30
0.0
 10
94.57733999999994
 20
94.76870191083671
 30
0.0
  0
SPLINE
  5
60B
330
1F
100
AcDbEntity
  8
-01
100
AcDbSpline
210
0.0
220
0.0
230
1.0
 70
     8
 71
     3
 72
     8
 73
     4
 74
     0
 42
0.000000001
 43
0.0000001
 40
0.0
 40
0.0
 40
0.0
 40
0.0
 40
1.0
 40
1.0
 40
1.0
 40
1.0
 10
103.416081
 20
96.21950391083666
 30
0.0
 10
100.3984899999999
 20
102.0202009108367
 30
0.0
 10
95.16005800000005
 20
112.9067149108367
 30
0.0
 10
94.49634200000003
 20
119.7872609108367
 30
0.0
  0
SPLINE
  5
60C
330
1F
100
AcDbEntity
  8
-01
100
AcDbSpline
210
0.0
220
0.0
230
1.0
 70
     8
 71
     3
 72
     8
 73
     4
 74
     0
 42
0.000000001
 43
0.0000001
 40
0.0
 40
0.0
 40
0.0
 40
0.0
 40
1.0
 40
1.0
 40
1.0
 40
1.0
 10
94.49634200000003
 20
119.7872609108367
 30
0.0
 10
93.71261099999998
 20
127.9115279108367
 30
0.0
 10
98.37859100000003
 20
135.8854559108367
 30
0.0
 10
98.90218400000003
 20
143.9839599108367
 30
0.0
  0
LINE
  5
613
330
1F
100
AcDbEntity
  8
-01
100
AcDbLine
 10
52.55370999999991
 20
0.4839299108366788
 30
0.0
 11
52.75489899999991
 21
10.01443291083669
 31
0.0
  0
SPLINE
  5
614
330
1F
100
AcDbEntity
  8
-01
100
AcDbSpline
210
0.0
220
0.0
230
1.0
 70
     8
 71
     3
 72
     8
 73
     4
 74
     0
 42
0.000000001
 43
0.0000001
 40
0.0
 40
0.0
 40
0.0
 40
0.0
 40
1.0
 40
1.0
 40
1.0
 40
1.0
 10
52.75489899999991
 20
10.01443291083669
 30
0.0
 10
53.06509699999987
 20
12.59274491083667
 30
0.0
 10
50.97816899999987
 20
19.67997991083669
 30
0.0
 10
52.5327549999999
 20
27.10817491083665
 30
0.0
  0
SPLINE
  5
615
330
1F
100
AcDbEntity
  8
-01
100
AcDbSpline
210
0.0
220
0.0
230
1.0
 70
     8
 71
     3
 72
     8
 73
     4
 74
     0
 42
0.000000001
 43
0.0000001
 40
0.0
 40
0.0
 40
0.0
 40
0.0
 40
1.0
 40
1.0
 40
1.0
 40
1.0
 10
52.5327549999999
 20
27.10817491083665
 30
0.0
 10
52.06461899999988
 20
31.34101391083666
 30
0.0
 10
51.13356799999985
 20
35.79613891083667
 30
0.0
 10
49.5115659999999
 20
39.44548391083666
 30
0.0
  0
SPLINE
  5
616
330
1F
100
AcDbEntity
  8
-01
100
AcDbSpline
210
0.0
220
0.0
230
1.0
 70
     8
 71
     3
 72
     8
 73
     4
 74
     0
 42
0.000000001
 43
0.0000001
 40
0.0
 40
0.0
 40
0.0
 40
0.0
 40
1.0
 40
1.0
 40
1.0
 40
1.0
 10
49.5115659999999
 20
39.44548391083666
 30
0.0
 10
44.25119099999989
 20
51.28071991083667
 30
0.0
 10
56.59156899999988
 20
55.56647591083666
 30
0.0
 10
63.0681459999999
 20
47.9524019108367
 30
0.0
  0
SPLINE
  5
617
330
1F
100
AcDbEntity
  8
-01
100
AcDbSpline
210
0.0
220
0.0
230
1.0
 70
     8
 71
     3
 72
     8
 73
     4
 74
     0
 42
0.000000001
 43
0.0000001
 40
0.0
 40
0.0
 40
0.0
 40
0.0
 40
1.0
 40
1.0
 40
1.0
 40
1.0
 10
63.0681459999999
 20
47.9524019108367
 30
0.0
 10
65.0720649999999
 20
45.5965169108367
 30
0.0
 10
65.99800099999987
 20
43.36650291083666
 30
0.0
 10
67.67464699999988
 20
40.63995391083668
 30
0.0
  0
SPLINE
  5
618
330
1F
100
AcDbEntity
  8
-01
100
AcDbSpline
210
0.0
220
0.0
230
1.0
 70
     8
 71
     3
 72
     8
 73
     4
 74
     0
 42
0.000000001
 43
0.0000001
 40
0.0
 40
0.0
 40
0.0
 40
0.0
 40
1.0
 40
1.0
 40
1.0
 40
1.0
 10
67.67464699999988
 20
40.63995391083668
 30
0.0
 10
71.95811099999992
 20
33.67425091083666
 30
0.0
 10
76.4475609999999
 20
39.55837291083665
 30
0.0
 10
76.8424599999999
 20
41.44693291083669
 30
0.0
  0
SPLINE
  5
619
330
1F
100
AcDbEntity
  8
-01
100
AcDbSpline
210
0.0
220
0.0
230
1.0
 70
     8
 71
     3
 72
     8
 73
     4
 74
     0
 42
0.000000001
 43
0.0000001
 40
0.0
 40
0.0
 40
0.0
 40
0.0
 40
1.0
 40
1.0
 40
1.0
 40
1.0
 10
76.8424599999999
 20
41.44693291083669
 30
0.0
 10
78.1594849999999
 20
47.74560391083671
 30
0.0
 10
80.4624189999999
 20
54.88261591083668
 30
0.0
 10
78.04962999999987
 20
66.84252391083666
 30
0.0
  0
SPLINE
  5
61A
330
1F
100
AcDbEntity
  8
-01
100
AcDbSpline
210
0.0
220
0.0
230
1.0
 70
     8
 71
     3
 72
     8
 73
     4
 74
     0
 42
0.000000001
 43
0.0000001
 40
0.0
 40
0.0
 40
0.0
 40
0.0
 40
1.0
 40
1.0
 40
1.0
 40
1.0
 10
78.04962999999987
 20
66.84252391083666
 30
0.0
 10
76.68903699999987
 20
73.5867879108367
 30
0.0
 10
62.50352499999985
 20
88.9045399108367
 30
0.0
 10
64.21467399999983
 20
111.3074209108367
 30
0.0
  0
LINE
  5
61B
330
1F
100
AcDbEntity
  8
-01
100
AcDbLine
 10
64.21467399999989
 20
111.3074209108367
 30
0.0
 11
67.0798989999999
 21
111.6938219108367
 31
0.0
  0
LINE
  5
61C
330
1F
100
AcDbEntity
  8
-01
100
AcDbLine
 10
67.0798989999999
 20
111.6938219108367
 30
0.0
 11
66.27785899999986
 21
117.6397819108367
 31
0.0
  0
LINE
  5
61D
330
1F
100
AcDbEntity
  8
-01
100
AcDbLine
 10
66.27785899999986
 20
117.6397819108367
 30
0.0
 11
72.22438699999987
 21
118.4418019108367
 31
0.0
  0
LINE
  5
61E
330
1F
100
AcDbEntity
  8
-01
100
AcDbLine
 10
72.22438699999987
 20
118.4418019108367
 30
0.0
 11
73.02582799999988
 21
112.4952879108367
 31
0.0
  0
LINE
  5
61F
330
1F
100
AcDbEntity
  8
-01
100
AcDbLine
 10
73.02582799999988
 20
112.4952879108367
 30
0.0
 11
75.64026399999989
 21
112.8475149108367
 31
0.0
  0
SPLINE
  5
620
330
1F
100
AcDbEntity
  8
-01
100
AcDbSpline
210
0.0
220
0.0
230
1.0
 70
     8
 71
     3
 72
     8
 73
     4
 74
     0
 42
0.000000001
 43
0.0000001
 40
0.0
 40
0.0
 40
0.0
 40
0.0
 40
1.0
 40
1.0
 40
1.0
 40
1.0
 10
75.64026399999989
 20
112.8475149108367
 30
0.0
 10
73.56508399999984
 20
90.24844691083669
 30
0.0
 10
96.24770699999988
 20
79.16688591083667
 30
0.0
 10
100.9873469999999
 20
62.48021491083668
 30
0.0
  0
LINE
  5
621
330
1F
100
AcDbEntity
  8
-01
100
AcDbLine
 10
100.9873469999999
 20
62.48021491083668
 30
0.0
 11
90.12951699999985
 21
62.48021491083668
 31
0.0
  0
LINE
  5
622
330
1F
100
AcDbEntity
  8
-01
100
AcDbLine
 10
90.12951699999985
 20
62.48021491083668
 30
0.0
 11
90.12951699999985
 21
56.48024091083667
 31
0.0
  0
LINE
  5
623
330
1F
100
AcDbEntity
  8
-01
100
AcDbLine
 10
90.12951699999985
 20
56.48024091083667
 30
0.0
 11
99.10112646043422
 21
56.48024091083667
 31
0.0
  0
SPLINE
  5
624
330
1F
100
AcDbEntity
  8
-01
100
AcDbSpline
210
0.0
220
0.0
230
1.0
 70
     8
 71
     3
 72
     8
 73
     4
 74
     0
 42
0.000000001
 43
0.0000001
 40
0.0737160767862046
 40
0.0737160767862046
 40
0.0737160767862046
 40
0.0737160767862046
 40
1.0
 40
1.0
 40
1.0
 40
1.0
 10
101.5388453229007
 20
50.48024091083676
 30
0.0
 10
99.49836021273643
 20
27.80983736537966
 30
0.0
 10
87.74917537646525
 20
8.93845846849878
 30
0.0
 10
67.01484699999992
 20
6.031359910836699
 30
0.0
  0
SPLINE
  5
625
330
1F
100
AcDbEntity
  8
-01
100
AcDbSpline
210
0.0
220
0.0
230
1.0
 70
     8
 71
     3
 72
     8
 73
     4
 74
     0
 42
0.000000001
 43
0.0000001
 40
0.0
 40
0.0
 40
0.0
 40
0.0
 40
1.0
 40
1.0
 40
1.0
 40
1.0
 10
67.01484699999992
 20
6.031359910836699
 30
0.0
 10
62.14863099999985
 20
3.586539910836706
 30
0.0
 10
57.3383639999999
 20
1.873803910836699
 30
0.0
 10
52.55314599999986
 20
0.4839299108366788
 30
0.0
  0
LINE
  5
626
330
1F
100
AcDbEntity
  8
-01
100
AcDbLine
 10
52.55314599999986
 20
0.4839299108366788
 30
0.0
 11
52.55370999999991
 21
0.4839299108366788
 31
0.0
  0
LINE
  5
629
330
1F
100
AcDbEntity
  8
-01
100
AcDbLine
 10
101.5388453229007
 20
50.48024091083668
 30
0.0
 11
99.10112646043422
 21
50.48024091083668
 31
0.0
  0
LINE
  5
62A
330
1F
100
AcDbEntity
  8
-01
100
AcDbLine
 10
99.10112646043422
 20
50.48024091083668
 30
0.0
 11
99.10112646043422
 21
56.48024091083668
 31
0.0
  0
SPLINE
  5
63C
330
1F
100
AcDbEntity
  8
-01
100
AcDbSpline
210
0.0
220
0.0
230
1.0
 70
     8
 71
     3
 72
     8
 73
     4
 74
     0
 42
0.000000001
 43
0.0000001
 40
0.0
 40
0.0
 40
0.0
 40
0.0
 40
1.0
 40
1.0
 40
1.0
 40
1.0
 10
12.34497023189874
 20
6.233907910836678
 30
0.0
 10
16.96008023189876
 20
15.55901691083668
 30
0.0
 10
16.0705862318988
 20
27.86070891083669
 30
0.0
 10
26.43787823189877
 20
36.88809191083669
 30
0.0
  0
SPLINE
  5
63D
330
1F
100
AcDbEntity
  8
-01
100
AcDbSpline
210
0.0
220
0.0
230
1.0
 70
     8
 71
     3
 72
     8
 73
     4
 74
     0
 42
0.000000001
 43
0.0000001
 40
0.0
 40
0.0
 40
0.0
 40
0.0
 40
1.0
 40
1.0
 40
1.0
 40
1.0
 10
26.43787823189877
 20
36.88809191083669
 30
0.0
 10
30.93374923189879
 20
40.80287691083659
 30
0.0
 10
36.39834723189876
 20
44.46236091083669
 30
0.0
 10
39.71061323189878
 20
51.72515591083663
 30
0.0
  0
SPLINE
  5
63E
330
1F
100
AcDbEntity
  8
-01
100
AcDbSpline
210
0.0
220
0.0
230
1.0
 70
     8
 71
     3
 72
     8
 73
     4
 74
     0
 42
0.000000001
 43
0.0000001
 40
0.0
 40
0.0
 40
0.0
 40
0.0
 40
1.0
 40
1.0
 40
1.0
 40
1.0
 10
39.71061323189878
 20
51.72515591083663
 30
0.0
 10
40.16703723189881
 20
52.72595491083666
 30
0.0
 10
40.87816623189872
 20
54.20805191083673
 30
0.0
 10
41.47944123189871
 20
55.44916591083665
 30
0.0
  0
SPLINE
  5
63F
330
1F
100
AcDbEntity
  8
-01
100
AcDbSpline
210
0.0
220
0.0
230
1.0
 70
     8
 71
     3
 72
     8
 73
     4
 74
     0
 42
0.000000001
 43
0.0000001
 40
0.0
 40
0.0
 40
0.0
 40
0.0
 40
1.0
 40
1.0
 40
1.0
 40
1.0
 10
50.31818223189874
 20
53.9983639108367
 30
0.0
 10
47.3005912318987
 20
48.19766691083669
 30
0.0
 10
42.06215923189882
 20
37.31115291083668
 30
0.0
 10
41.3984432318988
 20
30.43060691083669
 30
0.0
  0
SPLINE
  5
640
330
1F
100
AcDbEntity
  8
-01
100
AcDbSpline
210
0.0
220
0.0
230
1.0
 70
     8
 71
     3
 72
     8
 73
     4
 74
     0
 42
0.000000001
 43
0.0000001
 40
0.0
 40
0.0
 40
0.0
 40
0.0
 40
1.0
 40
1.0
 40
1.0
 40
1.0
 10
41.3984432318988
 20
30.43060691083669
 30
0.0
 10
40.61471223189875
 20
22.30633991083668
 30
0.0
 10
45.2806922318988
 20
14.33241191083669
 30
0.0
 10
45.8042852318988
 20
6.233907910836674
 30
0.0
  0
LINE
  5
647
330
1F
100
AcDbEntity
  8
-03
100
AcDbLine
 10
141.2801154922276
 20
11.54519691083661
 30
0.0
 11
141.2801154922276
 21
5.545222910836657
 31
0.0
  0
LINE
  5
648
330
1F
100
AcDbEntity
  8
-03
100
AcDbLine
 10
141.2801154922276
 20
5.545222910836657
 30
0.0
 11
147.2800884922276
 21
5.545222910836657
 31
0.0
  0
LINE
  5
649
330
1F
100
AcDbEntity
  8
-03
100
AcDbLine
 10
147.2800884922276
 20
5.545222910836657
 30
0.0
 11
147.2800884922276
 21
11.54519691083649
 31
0.0
  0
LINE
  5
64A
330
1F
100
AcDbEntity
  8
-03
100
AcDbLine
 10
147.2800884922276
 20
11.54519691083649
 30
0.0
 11
141.2801154922276
 21
11.54519691083661
 31
0.0
  0
LINE
  5
64B
330
1F
100
AcDbEntity
  8
-03
100
AcDbLine
 10
141.2801154922276
 20
11.54519691083661
 30
0.0
 11
141.2801154922276
 21
11.54519691083661
 31
0.0
  0
LINE
  5
64C
330
1F
100
AcDbEntity
  8
-01
100
AcDbLine
 10
147.2800884922277
 20
67.33440283650046
 30
0.0
 11
147.2800884922277
 21
64.26227359219857
 31
0.0
  0
LINE
  5
64D
330
1F
100
AcDbEntity
  8
-01
100
AcDbLine
 10
141.2801154922277
 20
67.33455880859472
 30
0.0
 11
141.2801154922277
 21
64.26229730860601
 31
0.0
  0
LINE
  5
64E
330
1F
100
AcDbEntity
  8
-01
100
AcDbLine
 10
147.2800884922277
 20
64.26227359219857
 30
0.0
 11
141.2801154922277
 21
64.26229730860601
 31
0.0
  0
SPLINE
  5
64F
330
1F
100
AcDbEntity
  8
-01
100
AcDbSpline
210
0.0
220
0.0
230
1.0
 70
  1064
 71
     3
 72
    36
 73
    32
 74
    30
 42
0.000000001
 43
0.0000000001
 44
0.0000000001
 12
1.0
 22
-1.836970198721030E-16
 32
0.0
 13
-0.006828680974886855
 23
0.9999766842862604
 33
0.0
 40
0.0
 40
0.0
 40
0.0
 40
0.0
 40
1.998211328923849
 40
4.003459498537215
 40
6.000615827967803
 40
6.991653668831376
 40
7.975252846742675
 40
8.949709141991047
 40
9.913383332530309
 40
10.86471282370959
 40
11.80222543919791
 40
12.72455588023964
 40
13.63046547075158
 40
14.51886593028887
 40
15.38884804618805
 40
16.23971622910978
 40
17.07102999188549
 40
17.8826533186521
 40
18.67481257624171
 40
19.44816290086964
 40
20.20386167352178
 40
20.94364560186618
 40
21.66990502881931
 40
22.38574571511043
 40
23.09502539088001
 40
23.80235134260122
 40
24.51302790005048
 40
25.23294984485543
 40
25.96844848657848
 40
26.72610816386691
 40
27.51257789105426
 40
27.51257789105426
 40
27.51257789105426
 40
27.51257789105426
 10
144.2795854922276
 20
0.2339299108366788
 30
0.0
 10
144.9456559352022
 20
0.2339299108366787
 30
0.0
 10
146.2803495327393
 20
0.2645722115567024
 30
0.0
 10
148.2764436154253
 20
0.4028664468362934
 30
0.0
 10
149.9302895713504
 20
0.5972385579922173
 30
0.0
 10
151.2384628022273
 20
0.8016959814604436
 30
0.0
 10
152.2055042306436
 20
0.9789546835712397
 30
0.0
 10
153.1584262149196
 20
1.180656701967972
 30
0.0
 10
154.0947623568165
 20
1.406938426391037
 30
0.0
 10
155.0120375182318
 20
1.657906203201263
 30
0.0
 10
155.9077810644905
 20
1.933638225756917
 30
0.0
 10
156.7795274197017
 20
2.234179034344228
 30
0.0
 10
157.6248219811282
 20
2.559535739671146
 30
0.0
 10
158.4412282467541
 20
2.909673990737686
 30
0.0
 10
159.2263379413738
 20
3.284514916242854
 30
0.0
 10
159.9777843901762
 20
3.683933833612175
 30
0.0
 10
160.6932596664458
 20
4.107762171838223
 30
0.0
 10
161.370535577794
 20
4.555794528054564
 30
0.0
 10
162.00748786324
 20
5.027803304421882
 30
0.0
 10
162.6021217522652
 20
5.523563661881274
 30
0.0
 10
163.1525952765332
 20
6.042891251273691
 30
0.0
 10
163.6572345807934
 20
6.585693836179279
 30
0.0
 10
164.1145335274783
 20
7.152035054934759
 30
0.0
 10
164.5231292221049
 20
7.7422039352784
 30
0.0
 10
164.8817471451472
 20
8.356778517201052
 30
0.0
 10
165.1891154238637
 20
8.99666652843947
 30
0.0
 10
165.4438570370661
 20
9.663109001242612
 30
0.0
 10
165.6443784107424
 20
10.35762566688354
 30
0.0
 10
165.7887790345026
 20
11.08194222469134
 30
0.0
 10
165.8748025650825
 20
11.83776572714733
 30
0.0
 10
165.8911469915625
 20
12.35286676650037
 30
0.0
 10
165.8893568079414
 20
12.61501722986181
 30
0.0
 11
144.2795854922276
 21
0.2339299108366788
 31
0.0
 11
146.2772686498407
 21
0.2798702724872157
 31
0.0
 11
148.2776840028779
 21
0.4190055917660231
 31
0.0
 11
150.2610666678628
 21
0.6531564158565573
 31
0.0
 11
151.2401894229226
 21
0.8063707511767291
 31
0.0
 11
152.2076319425549
 21
0.9839159961010466
 31
0.0
 11
153.1609150762984
 21
1.185946534063675
 31
0.0
 11
154.0975574663835
 21
1.41259378996395
 31
0.0
 11
155.0150766612484
 21
1.663962697830158
 31
0.0
 11
155.9109911805795
 21
1.94012764537311
 31
0.0
 11
156.7828238748668
 21
2.241127970363124
 31
0.0
 11
157.6281070214522
 21
2.566963186814888
 31
0.0
 11
158.4443897035899
 21
2.917588284815707
 31
0.0
 11
159.2292481091265
 21
3.29290970072887
 31
0.0
 11
159.9802994213783
 21
3.692782919478674
 31
0.0
 11
160.6952198870094
 21
4.117013163570412
 31
0.0
 11
161.3717673248331
 21
4.565361230284132
 31
0.0
 11
162.0078076350316
 21
5.037557178156838
 31
0.0
 11
162.6013436124746
 21
5.53332503520587
 31
0.0
 11
163.150542450783
 21
6.052421626399244
 31
0.0
 11
163.6537558479235
 21
6.594691427858855
 31
0.0
 11
164.1095241320947
 21
7.160136408720767
 31
0.0
 11
164.516554502129
 21
7.748994766918621
 31
0.0
 11
164.8736650616773
 21
8.361815871906764
 31
0.0
 11
165.1796924132378
 21
8.999512713733019
 31
0.0
 11
165.4333711940738
 21
9.663371317248469
 31
0.0
 11
165.633206143039
 21
10.35500243264439
 31
0.0
 11
165.7773653602544
 21
11.07623496939541
 31
0.0
 11
165.8636217329596
 21
11.82896867048535
 31
0.0
 11
165.8893568079414
 21
12.61501722986181
 31
0.0
  0
SPLINE
  5
650
330
1F
100
AcDbEntity
  8
-01
100
AcDbSpline
210
0.0
220
0.0
230
1.0
 70
  1064
 71
     3
 72
    36
 73
    32
 74
    30
 42
0.000000001
 43
0.0000000001
 44
0.0000000001
 12
-1.0
 22
1.836970198721030E-16
 32
0.0
 13
0.006828680974887223
 23
0.9999766842862604
 33
0.0
 40
0.0
 40
0.0
 40
0.0
 40
0.0
 40
1.99821132892382
 40
4.003459498537186
 40
6.000615827967803
 40
6.991653668831376
 40
7.975252846742675
 40
8.94970914199102
 40
9.91338333253031
 40
10.86471282370959
 40
11.80222543919789
 40
12.72455588023964
 40
13.63046547075158
 40
14.51886593028887
 40
15.38884804618806
 40
16.23971622910978
 40
17.07102999188549
 40
17.88265331865211
 40
18.67481257624168
 40
19.44816290086964
 40
20.20386167352178
 40
20.94364560186617
 40
21.66990502881929
 40
22.38574571511042
 40
23.09502539088
 40
23.80235134260121
 40
24.51302790005047
 40
25.23294984485542
 40
25.96844848657847
 40
26.7261081638669
 40
27.51257789105425
 40
27.51257789105425
 40
27.51257789105425
 40
27.51257789105425
 10
144.2795854922276
 20
0.2339299108366788
 30
0.0
 10
143.613515049253
 20
0.2339299108366789
 30
0.0
 10
142.278821451716
 20
0.2645722115567027
 30
0.0
 10
140.2827273690299
 20
0.4028664468362957
 30
0.0
 10
138.6288814131049
 20
0.597238557992215
 30
0.0
 10
137.320708182228
 20
0.8016959814604445
 30
0.0
 10
136.3536667538117
 20
0.9789546835712355
 30
0.0
 10
135.4007447695357
 20
1.18065670196798
 30
0.0
 10
134.4644086276388
 20
1.406938426391033
 30
0.0
 10
133.5471334662235
 20
1.657906203201257
 30
0.0
 10
132.6513899199648
 20
1.933638225756929
 30
0.0
 10
131.7796435647536
 20
2.23417903434422
 30
0.0
 10
130.934349003327
 20
2.559535739671147
 30
0.0
 10
130.1179427377012
 20
2.909673990737687
 30
0.0
 10
129.3328330430815
 20
3.284514916242853
 30
0.0
 10
128.5813865942791
 20
3.683933833612175
 30
0.0
 10
127.8659113180095
 20
4.107762171838233
 30
0.0
 10
127.1886354066612
 20
4.555794528054561
 30
0.0
 10
126.5516831212153
 20
5.027803304421909
 30
0.0
 10
125.9570492321902
 20
5.52356366188127
 30
0.0
 10
125.406575707922
 20
6.042891251273694
 30
0.0
 10
124.9019364036619
 20
6.585693836179288
 30
0.0
 10
124.444637456977
 20
7.152035054934778
 30
0.0
 10
124.0360417623504
 20
7.742203935278395
 30
0.0
 10
123.677423839308
 20
8.356778517201064
 30
0.0
 10
123.3700555605916
 20
8.996666528439475
 30
0.0
 10
123.1153139473892
 20
9.663109001242617
 30
0.0
 10
122.9147925737129
 20
10.35762566688355
 30
0.0
 10
122.7703919499527
 20
11.08194222469135
 30
0.0
 10
122.6843684193727
 20
11.83776572714734
 30
0.0
 10
122.6680239928928
 20
12.35286676650038
 30
0.0
 10
122.6698141765139
 20
12.61501722986182
 30
0.0
 11
144.2795854922276
 21
0.2339299108366788
 31
0.0
 11
142.2819023346146
 21
0.2798702724872157
 31
0.0
 11
140.2814869815774
 21
0.4190055917660231
 31
0.0
 11
138.2981043165925
 21
0.6531564158565573
 31
0.0
 11
137.3189815615327
 21
0.8063707511767291
 31
0.0
 11
136.3515390419003
 21
0.9839159961010466
 31
0.0
 11
135.3982559081569
 21
1.185946534063675
 31
0.0
 11
134.4616135180718
 21
1.41259378996395
 31
0.0
 11
133.5440943232068
 21
1.663962697830158
 31
0.0
 11
132.6481798038757
 21
1.94012764537311
 31
0.0
 11
131.7763471095885
 21
2.241127970363124
 31
0.0
 11
130.9310639630031
 21
2.566963186814888
 31
0.0
 11
130.1147812808653
 21
2.917588284815707
 31
0.0
 11
129.3299228753288
 21
3.29290970072887
 31
0.0
 11
128.5788715630769
 21
3.692782919478674
 31
0.0
 11
127.8639510974459
 21
4.117013163570419
 31
0.0
 11
127.1874036596222
 21
4.56536123028414
 31
0.0
 11
126.5513633494236
 21
5.037557178156845
 31
0.0
 11
125.9578273719807
 21
5.533325035205877
 31
0.0
 11
125.4086285336722
 21
6.052421626399251
 31
0.0
 11
124.9054151365318
 21
6.594691427858862
 31
0.0
 11
124.4496468523606
 21
7.160136408720774
 31
0.0
 11
124.0426164823263
 21
7.748994766918628
 31
0.0
 11
123.6855059227779
 21
8.36181587190677
 31
0.0
 11
123.3794785712174
 21
8.999512713733026
 31
0.0
 11
123.1257997903814
 21
9.663371317248476
 31
0.0
 11
122.9259648414162
 21
10.3550024326444
 31
0.0
 11
122.7818056242008
 21
11.07623496939541
 31
0.0
 11
122.6955492514957
 21
11.82896867048535
 31
0.0
 11
122.6698141765139
 21
12.61501722986182
 31
0.0
  0
SPLINE
  5
651
330
1F
100
AcDbEntity
  8
-01
100
AcDbSpline
210
0.0
220
0.0
230
1.0
 70
  1064
 71
     3
 72
    32
 73
    28
 74
    26
 42
0.000000001
 43
0.0000000001
 44
0.0000000001
 12
0.006833653975922039
 22
0.9999766503140648
 32
0.0
 13
0.1639234761720142
 23
0.9864730578985333
 33
0.0
 40
0.0
 40
0.0
 40
0.0
 40
0.0
 40
0.2073438104222065
 40
0.450064316277766
 40
0.7259820562609891
 40
1.0335052011915
 40
1.371375320478141
 40
1.7385341157556
 40
2.134049105024751
 40
2.557070008819318
 40
3.006802034146218
 40
3.482488902092548
 40
3.983401722040229
 40
4.508831496890847
 40
5.058083952062376
 40
5.630475891492548
 40
6.225332580892526
 40
6.84198583668343
 40
7.479772608923156
 40
8.138033915970556
 40
9.513358944016225
 40
10.96274494382087
 40
12.48100375625
 40
14.06296714663811
 40
15.70348101711953
 40
17.39740156857546
 40
19.13959269460776
 40
19.13959269460776
 40
19.13959269460776
 40
19.13959269460776
 10
122.6698141425417
 20
12.61501225686075
 30
0.0
 10
122.6702864478265
 20
12.68412524653054
 30
0.0
 10
122.6733727803236
 20
12.83413001774755
 30
0.0
 10
122.6829357716719
 20
13.07594459019742
 30
0.0
 10
122.6979525898168
 20
13.35093082664839
 30
0.0
 10
122.7184306539383
 20
13.65735702082462
 30
0.0
 10
122.7443345273335
 20
13.9938837216895
 30
0.0
 10
122.7756042420717
 20
14.35940032816778
 30
0.0
 10
122.8121693002428
 20
14.75293988893942
 30
0.0
 10
122.8539535158976
 20
15.17362836133558
 30
0.0
 10
122.9008780080331
 20
15.62065426850934
 30
0.0
 10
122.9528625540902
 20
16.0932494185086
 30
0.0
 10
123.0098263496321
 20
16.59067636951631
 30
0.0
 10
123.0716883904165
 20
17.11222000157505
 30
0.0
 10
123.1383676721445
 20
17.65718171842845
 30
0.0
 10
123.2097832970594
 20
18.22487536294459
 30
0.0
 10
123.2858544864813
 20
18.81462429444903
 30
0.0
 10
123.366500721137
 20
19.42575921736824
 30
0.0
 10
123.4516412449424
 20
20.05761671196017
 30
0.0
 10
123.572827311399
 20
20.93979034497068
 30
0.0
 10
123.7350872849298
 20
22.08939116342094
 30
0.0
 10
123.9437268414844
 20
23.52193824960367
 30
0.0
 10
124.1684032958038
 20
25.02174295774573
 30
0.0
 10
124.4084814403772
 20
26.58364861185722
 30
0.0
 10
124.6633275797285
 20
28.20251485799711
 30
0.0
 10
124.9323075619738
 20
29.87321236658406
 30
0.0
 10
125.1182012082811
 20
31.00339956548435
 30
0.0
 10
125.2133965501262
 20
31.57627443466461
 30
0.0
 11
122.6698141425417
 21
12.61501225686075
 31
0.0
 11
122.6737334061042
 21
12.82231902253309
 31
0.0
 11
122.6830669109472
 21
13.06486000803889
 31
0.0
 11
122.6979066390522
 21
13.34037839527869
 31
0.0
 11
122.7182478398682
 21
13.64722806566684
 31
0.0
 11
122.7440435011246
 21
13.98411202397759
 31
0.0
 11
122.7752272833374
 21
14.34994416127077
 31
0.0
 11
122.8117238045485
 21
14.74377167513447
 31
0.0
 11
122.8534534709965
 21
15.16472929768727
 31
0.0
 11
122.9003348185707
 21
15.61201112590552
 31
0.0
 11
122.9522856665401
 21
16.08485264875631
 31
0.0
 11
123.0092236851118
 21
16.58251891768467
 31
0.0
 11
123.0710666667658
 21
17.10429654648809
 31
0.0
 11
123.137732645904
 21
17.64948817035761
 31
0.0
 11
123.2091399407776
 21
18.21740852618532
 31
0.0
 11
123.2852071562627
 21
18.80738162697233
 31
0.0
 11
123.3658531678261
 21
19.41873869014935
 31
0.0
 11
123.4509970974255
 21
20.05081659523412
 31
0.0
 11
123.540558286964
 21
20.70295671950512
 31
0.0
 11
123.7326107581025
 21
22.06480648401603
 31
0.0
 11
123.9413687697647
 21
23.49907977352419
 31
0.0
 11
124.1661925713431
 21
25.00060036271455
 31
0.0
 11
124.406443948263
 21
26.56421394810459
 31
0.0
 11
124.661485817473
 21
28.18478156600636
 31
0.0
 11
124.9306819148937
 21
29.85717514880267
 31
0.0
 11
125.2133965501262
 21
31.57627443466461
 31
0.0
  0
SPLINE
  5
652
330
1F
100
AcDbEntity
  8
-01
100
AcDbSpline
210
0.0
220
0.0
230
1.0
 70
  1064
 71
     3
 72
    11
 73
     7
 74
     5
 42
0.000000001
 43
0.0000000001
 44
0.0000000001
 12
0.1639233383608688
 22
0.9864730807987759
 32
0.0
 13
0.1704624073797757
 23
0.9853641802249011
 33
0.0
 40
0.0
 40
0.0
 40
0.0
 40
0.0
 40
0.8875056816783351
 40
1.785149698279209
 40
2.692333839076269
 40
3.608460138585322
 40
3.608460138585322
 40
3.608460138585322
 40
3.608460138585322
 10
125.2133965730264
 20
31.5762745724758
 30
0.0
 10
125.2618908710781
 20
31.86810806048635
 30
0.0
 10
125.3599470084612
 20
32.45502354709207
 30
0.0
 10
125.5093332371846
 20
33.33994801220243
 30
0.0
 10
125.6617868240875
 20
34.23402858847826
 30
0.0
 10
125.7649156409598
 20
34.83298549009084
 30
0.0
 10
125.8169706724525
 20
35.13389150345691
 30
0.0
 11
125.2133965730264
 21
31.5762745724758
 31
0.0
 11
125.3596358756212
 21
32.45164900743944
 31
0.0
 11
125.509046620484
 21
33.33677115147319
 31
0.0
 11
125.6615258607707
 21
34.23104915444279
 31
0.0
 11
125.8169706724525
 21
35.13389150345691
 31
0.0
  0
SPLINE
  5
653
330
1F
100
AcDbEntity
  8
-01
100
AcDbSpline
210
0.0
220
0.0
230
1.0
 70
  1064
 71
     3
 72
    11
 73
     7
 74
     5
 42
0.000000001
 43
0.0000000001
 44
0.0000000001
 12
0.1704631972036508
 22
0.9853640435895301
 32
0.0
 13
0.1803760233464989
 23
0.9835977278347604
 33
0.0
 40
0.0
 40
0.0
 40
0.0
 40
0.0
 40
0.925415358046139
 40
1.857073100055839
 40
2.794385200220655
 40
3.736767246635827
 40
3.736767246635827
 40
3.736767246635827
 40
3.736767246635827
 10
125.8169705358172
 20
35.13389071363306
 30
0.0
 10
125.8695536227085
 20
35.43784772003446
 30
0.0
 10
125.9750418701738
 20
36.04781771846349
 30
0.0
 10
126.1349017514837
 20
36.96545970758945
 30
0.0
 10
126.2980738004902
 20
37.88826316325863
 30
0.0
 10
126.4095281780606
 20
38.50483794095476
 30
0.0
 10
126.4661892200624
 20
38.81381288749017
 30
0.0
 11
125.8169705358172
 21
35.13389071363306
 31
0.0
 11
125.9748736024053
 21
36.04573511180072
 31
0.0
 11
126.1349650897574
 21
36.96353512483407
 31
0.0
 11
126.298365399634
 21
37.88649466449309
 31
0.0
 11
126.4661892200624
 21
38.81381288749017
 31
0.0
  0
LINE
  5
654
330
1F
100
AcDbEntity
  8
-01
100
AcDbLine
 10
126.4661890717389
 20
38.81381207867801
 30
0.0
 11
127.1585170717389
 21
42.58908707867798
 31
0.0
  0
LINE
  5
655
330
1F
100
AcDbEntity
  8
-01
100
AcDbLine
 10
127.1571698759993
 20
42.58188943607936
 30
0.0
 11
127.8864268759993
 21
46.40070843607933
 31
0.0
  0
LINE
  5
656
330
1F
100
AcDbEntity
  8
-01
100
AcDbLine
 10
127.8849795148479
 20
46.39328180617557
 30
0.0
 11
128.6451055148479
 21
50.21651080617565
 31
0.0
  0
LINE
  5
657
330
1F
100
AcDbEntity
  8
-01
100
AcDbLine
 10
128.6433919000253
 20
50.20808150126541
 30
0.0
 11
130.2354533656923
 21
57.64174198389654
 31
0.0
  0
LINE
  5
658
330
1F
100
AcDbEntity
  8
-01
100
AcDbLine
 10
159.9157790844299
 20
50.20808150126541
 30
0.0
 11
158.3237176187629
 21
57.64174198389654
 31
0.0
  0
LINE
  5
659
330
1F
100
AcDbEntity
  8
-01
100
AcDbLine
 10
160.6741914696074
 20
46.39328180617557
 30
0.0
 11
159.9140654696074
 21
50.21651080617565
 31
0.0
  0
LINE
  5
65A
330
1F
100
AcDbEntity
  8
-01
100
AcDbLine
 10
162.0929819127164
 20
38.81381207867801
 30
0.0
 11
161.4006539127164
 21
42.58908707867798
 31
0.0
  0
LINE
  5
65B
330
1F
100
AcDbEntity
  8
-01
100
AcDbLine
 10
161.402001108456
 20
42.58188943607936
 30
0.0
 11
160.672744108456
 21
46.40070843607933
 31
0.0
  0
SPLINE
  5
65C
330
1F
100
AcDbEntity
  8
-01
100
AcDbSpline
210
0.0
220
0.0
230
1.0
 70
  1064
 71
     3
 72
    32
 73
    28
 74
    26
 42
0.000000001
 43
0.0000000001
 44
0.0000000001
 12
-0.006833653975921671
 22
0.9999766503140648
 32
0.0
 13
-0.1639234761720139
 23
0.9864730578985333
 33
0.0
 40
0.0
 40
0.0
 40
0.0
 40
0.0
 40
0.2073438104222062
 40
0.4500643162777652
 40
0.7259820562609891
 40
1.033505201191501
 40
1.371375320478141
 40
1.7385341157556
 40
2.134049105024751
 40
2.557070008819319
 40
3.00680203414622
 40
3.482488902092548
 40
3.983401722040228
 40
4.508831496890847
 40
5.058083952062376
 40
5.630475891492546
 40
6.225332580892526
 40
6.841985836683429
 40
7.479772608923158
 40
8.138033915970555
 40
9.513358944016229
 40
10.96274494382087
 40
12.48100375625
 40
14.06296714663811
 40
15.70348101711953
 40
17.39740156857546
 40
19.13959269460776
 40
19.13959269460776
 40
19.13959269460776
 40
19.13959269460776
 10
165.8893568419136
 20
12.61501225686074
 30
0.0
 10
165.8888845366287
 20
12.68412524653053
 30
0.0
 10
165.8857982041316
 20
12.83413001774753
 30
0.0
 10
165.8762352127833
 20
13.07594459019741
 30
0.0
 10
165.8612183946385
 20
13.35093082664839
 30
0.0
 10
165.8407403305169
 20
13.6573570208246
 30
0.0
 10
165.8148364571218
 20
13.9938837216895
 30
0.0
 10
165.7835667423836
 20
14.35940032816777
 30
0.0
 10
165.7470016842124
 20
14.75293988893942
 30
0.0
 10
165.7052174685577
 20
15.17362836133557
 30
0.0
 10
165.6582929764222
 20
15.62065426850933
 30
0.0
 10
165.6063084303651
 20
16.09324941850859
 30
0.0
 10
165.5493446348231
 20
16.59067636951631
 30
0.0
 10
165.4874825940387
 20
17.11222000157505
 30
0.0
 10
165.4208033123108
 20
17.65718171842844
 30
0.0
 10
165.3493876873958
 20
18.22487536294459
 30
0.0
 10
165.2733164979739
 20
18.81462429444903
 30
0.0
 10
165.1926702633182
 20
19.42575921736824
 30
0.0
 10
165.1075297395129
 20
20.05761671196016
 30
0.0
 10
164.9863436730563
 20
20.93979034497067
 30
0.0
 10
164.8240836995254
 20
22.08939116342093
 30
0.0
 10
164.6154441429709
 20
23.52193824960366
 30
0.0
 10
164.3907676886515
 20
25.02174295774572
 30
0.0
 10
164.150689544078
 20
26.58364861185722
 30
0.0
 10
163.8958434047267
 20
28.2025148579971
 30
0.0
 10
163.6268634224815
 20
29.87321236658405
 30
0.0
 10
163.4409697761742
 20
31.00339956548435
 30
0.0
 10
163.3457744343291
 20
31.5762744346646
 30
0.0
 11
165.8893568419136
 21
12.61501225686074
 31
0.0
 11
165.8854375783511
 21
12.82231902253309
 31
0.0
 11
165.876104073508
 21
13.06486000803888
 31
0.0
 11
165.861264345403
 21
13.34037839527868
 31
0.0
 11
165.840923144587
 21
13.64722806566683
 31
0.0
 11
165.8151274833307
 21
13.98411202397758
 31
0.0
 11
165.7839437011179
 21
14.34994416127076
 31
0.0
 11
165.7474471799067
 21
14.74377167513446
 31
0.0
 11
165.7057175134587
 21
15.16472929768727
 31
0.0
 11
165.6588361658845
 21
15.61201112590552
 31
0.0
 11
165.6068853179151
 21
16.0848526487563
 31
0.0
 11
165.5499472993435
 21
16.58251891768466
 31
0.0
 11
165.4881043176895
 21
17.10429654648808
 31
0.0
 11
165.4214383385513
 21
17.64948817035761
 31
0.0
 11
165.3500310436777
 21
18.21740852618532
 31
0.0
 11
165.2739638281925
 21
18.80738162697232
 31
0.0
 11
165.1933178166291
 21
19.41873869014935
 31
0.0
 11
165.1081738870298
 21
20.05081659523412
 31
0.0
 11
165.0186126974913
 21
20.70295671950512
 31
0.0
 11
164.8265602263527
 21
22.06480648401602
 31
0.0
 11
164.6178022146906
 21
23.49907977352418
 31
0.0
 11
164.3929784131122
 21
25.00060036271454
 31
0.0
 11
164.1527270361922
 21
26.56421394810459
 31
0.0
 11
163.8976851669823
 21
28.18478156600636
 31
0.0
 11
163.6284890695616
 21
29.85717514880266
 31
0.0
 11
163.3457744343291
 21
31.5762744346646
 31
0.0
  0
SPLINE
  5
65D
330
1F
100
AcDbEntity
  8
-01
100
AcDbSpline
210
0.0
220
0.0
230
1.0
 70
  1064
 71
     3
 72
    11
 73
     7
 74
     5
 42
0.000000001
 43
0.0000000001
 44
0.0000000001
 12
-0.1704631972036504
 22
0.9853640435895301
 32
0.0
 13
-0.1803760233464985
 23
0.9835977278347604
 33
0.0
 40
0.0
 40
0.0
 40
0.0
 40
0.0
 40
0.925415358046139
 40
1.857073100055839
 40
2.794385200220655
 40
3.736767246635827
 40
3.736767246635827
 40
3.736767246635827
 40
3.736767246635827
 10
162.7422004486381
 20
35.13389071363306
 30
0.0
 10
162.6896173617468
 20
35.43784772003446
 30
0.0
 10
162.5841291142815
 20
36.04781771846349
 30
0.0
 10
162.4242692329715
 20
36.96545970758945
 30
0.0
 10
162.2610971839651
 20
37.88826316325863
 30
0.0
 10
162.1496428063947
 20
38.50483794095476
 30
0.0
 10
162.0929817643929
 20
38.81381288749017
 30
0.0
 11
162.7422004486381
 21
35.13389071363306
 31
0.0
 11
162.58429738205
 21
36.04573511180072
 31
0.0
 11
162.4242058946979
 21
36.96353512483407
 31
0.0
 11
162.2608055848212
 21
37.88649466449309
 31
0.0
 11
162.0929817643929
 21
38.81381288749017
 31
0.0
  0
SPLINE
  5
65E
330
1F
100
AcDbEntity
  8
-01
100
AcDbSpline
210
0.0
220
0.0
230
1.0
 70
  1064
 71
     3
 72
    11
 73
     7
 74
     5
 42
0.000000001
 43
0.0000000001
 44
0.0000000001
 12
-0.1639233383608684
 22
0.9864730807987759
 32
0.0
 13
-0.1704624073797753
 23
0.9853641802249011
 33
0.0
 40
0.0
 40
0.0
 40
0.0
 40
0.0
 40
0.8875056816783398
 40
1.785149698279216
 40
2.692333839076276
 40
3.608460138585326
 40
3.608460138585326
 40
3.608460138585326
 40
3.608460138585326
 10
163.3457744114289
 20
31.57627457247579
 30
0.0
 10
163.2972801133772
 20
31.86810806048634
 30
0.0
 10
163.1992239759941
 20
32.45502354709206
 30
0.0
 10
163.0498377472706
 20
33.33994801220241
 30
0.0
 10
162.8973841603678
 20
34.23402858847827
 30
0.0
 10
162.7942553434955
 20
34.83298549009084
 30
0.0
 10
162.7422003120028
 20
35.13389150345691
 30
0.0
 11
163.3457744114289
 21
31.57627457247579
 31
0.0
 11
163.1995351088341
 21
32.45164900743944
 31
0.0
 11
163.0501243639713
 21
33.33677115147319
 31
0.0
 11
162.8976451236846
 21
34.23104915444279
 31
0.0
 11
162.7422003120028
 21
35.13389150345691
 31
0.0
  0
SPLINE
  5
65F
330
1F
100
AcDbEntity
  8
-01
100
AcDbSpline
210
0.0
220
0.0
230
1.0
 70
     8
 71
     3
 72
    34
 73
    30
 74
     0
 42
0.000000001
 43
0.0000000001
 40
0.0
 40
0.0
 40
0.0
 40
0.0
 40
0.6431018768372836
 40
1.272071055483647
 40
1.888437806085567
 40
2.493698289596495
 40
3.08930364129532
 40
3.676649237870379
 40
4.257064566384608
 40
4.831804088087771
 40
5.402039431699223
 40
5.968853166598132
 40
6.533234306835964
 40
7.096075593817968
 40
7.658172509903283
 40
8.220223895558975
 40
8.782833984201096
 40
9.34651563308721
 40
9.91169451421204
 40
10.47871403270773
 40
11.04784075726383
 40
11.61927017292723
 40
12.19313259709478
 40
12.76949913118289
 40
13.34838755087054
 40
13.92976806537924
 40
14.5135689001353
 40
15.09968167707626
 40
15.67195377499002
 40
15.67195377499002
 40
15.67195377499002
 40
15.67195377499002
 10
158.3237176187629
 20
57.64174198389654
 30
0.0
 10
158.2775030473513
 20
57.85106840217261
 30
0.0
 10
158.1761939696838
 20
58.26301508511952
 30
0.0
 10
157.9960391446842
 20
58.86641749653486
 30
0.0
 10
157.790412938852
 20
59.44827577260699
 30
0.0
 10
157.5602068476267
 20
60.00884462585989
 30
0.0
 10
157.3062710918205
 20
60.54839666973831
 30
0.0
 10
157.0294231256962
 20
61.06718579805957
 30
0.0
 10
156.7304494512467
 20
61.56544800108546
 30
0.0
 10
156.4101109130196
 20
62.04339363511727
 30
0.0
 10
156.0691483954597
 20
62.50120357531344
 30
0.0
 10
155.7082892117939
 20
62.93902627271623
 30
0.0
 10
155.3282535626872
 20
63.3569765912039
 30
0.0
 10
154.9297607142154
 20
63.75513611520401
 30
0.0
 10
154.5135345550624
 20
64.13355478812926
 30
0.0
 10
154.0803083040183
 20
64.49225359690402
 30
0.0
 10
153.6308282357614
 20
64.83122800446156
 30
0.0
 10
153.1658563883878
 20
65.15045182885072
 30
0.0
 10
152.6861722937859
 20
65.44988129771448
 30
0.0
 10
152.1925738287864
 20
65.72945905256248
 30
0.0
 10
151.6858773197729
 20
65.98911793133121
 30
0.0
 10
151.1669170485333
 20
66.2287844118953
 30
0.0
 10
150.6365443065731
 20
66.44838164828073
 30
0.0
 10
150.0956261332118
 20
66.64783207202723
 30
0.0
 10
149.5450438551448
 20
66.82705956240832
 30
0.0
 10
148.985691520745
 20
66.98599121104431
 30
0.0
 10
148.4184743114961
 20
67.12455872041645
 30
0.0
 10
147.8495361856459
 20
67.24162351372948
 30
0.0
 10
147.4687171096332
 20
67.30591579223588
 30
0.0
 10
147.2800884922388
 20
67.33440283649875
 30
0.0
  0
SPLINE
  5
660
330
1F
100
AcDbEntity
  8
-01
100
AcDbSpline
210
0.0
220
0.0
230
1.0
 70
     8
 71
     3
 72
    34
 73
    30
 74
     0
 42
0.000000001
 43
0.0000000001
 40
0.0
 40
0.0
 40
0.0
 40
0.0
 40
0.6431018768372834
 40
1.272071055483647
 40
1.888437806085567
 40
2.493698289596495
 40
3.08930364129532
 40
3.676649237870379
 40
4.257064566384609
 40
4.83180408808777
 40
5.402039431699222
 40
5.968853166598131
 40
6.533234306835964
 40
7.096075593817966
 40
7.658172509903281
 40
8.220223895558973
 40
8.782833984201094
 40
9.34651563308721
 40
9.911694514212039
 40
10.47871403270773
 40
11.04784075726382
 40
11.61927017292723
 40
12.19313259709478
 40
12.76949913118289
 40
13.34838755087054
 40
13.92976806537924
 40
14.5135689001353
 40
15.09968167707626
 40
15.6729984278249
 40
15.6729984278249
 40
15.6729984278249
 40
15.6729984278249
 10
130.2354533656923
 20
57.64174198389654
 30
0.0
 10
130.281667937104
 20
57.85106840217261
 30
0.0
 10
130.3829770147715
 20
58.26301508511963
 30
0.0
 10
130.5631318397711
 20
58.86641749653452
 30
0.0
 10
130.7687580456032
 20
59.4482757726071
 30
0.0
 10
130.9989641368286
 20
60.00884462586012
 30
0.0
 10
131.2528998926348
 20
60.54839666973797
 30
0.0
 10
131.5297478587591
 20
61.0671857980598
 30
0.0
 10
131.8287215332086
 20
61.56544800108557
 30
0.0
 10
132.1490600714357
 20
62.04339363511727
 30
0.0
 10
132.4900225889956
 20
62.50120357531333
 30
0.0
 10
132.8508817726614
 20
62.93902627271623
 30
0.0
 10
133.2309174217681
 20
63.35697659120402
 30
0.0
 10
133.6294102702398
 20
63.7551361152039
 30
0.0
 10
134.0456364293929
 20
64.13355478812915
 30
0.0
 10
134.478862680437
 20
64.49225359690413
 30
0.0
 10
134.9283427486939
 20
64.83122800446134
 30
0.0
 10
135.3933145960675
 20
65.15045182885072
 30
0.0
 10
135.8729986906693
 20
65.44988129771426
 30
0.0
 10
136.3665971556689
 20
65.72945905256282
 30
0.0
 10
136.8732936646824
 20
65.98911793133132
 30
0.0
 10
137.3922539359219
 20
66.22878441189519
 30
0.0
 10
137.9226266778822
 20
66.44838164828073
 30
0.0
 10
138.4635448512435
 20
66.64783207202734
 30
0.0
 10
139.0141271293105
 20
66.82705956240855
 30
0.0
 10
139.5734794637103
 20
66.98599121104431
 30
0.0
 10
140.1406966729593
 20
67.12455872041622
 30
0.0
 10
140.7099759466117
 20
67.24169370835207
 30
0.0
 10
141.0911407362061
 20
67.30603174114438
 30
0.0
 10
141.2801154922323
 20
67.3345588085954
 30
0.0
  0
SPLINE
  5
661
330
1F
100
AcDbEntity
  8
-01
100
AcDbSpline
210
0.0
220
0.0
230
1.0
 70
     8
 71
     3
 72
     8
 73
     4
 74
     0
 42
0.000000001
 43
0.0000001
 40
0.0
 40
0.0
 40
0.0
 40
0.0
 40
1.0
 40
1.0
 40
1.0
 40
1.0
 10
143.6849330650938
 20
150.233783834434
 30
0.0
 10
143.3551958879238
 20
150.2337701256571
 30
0.0
 10
143.0180442859437
 20
150.2274250860772
 30
0.0
 10
142.6740164731567
 20
150.2119006047966
 30
0.0
  0
SPLINE
  5
662
330
1F
100
AcDbEntity
  8
-01
100
AcDbSpline
210
0.0
220
0.0
230
1.0
 70
     8
 71
     3
 72
     8
 73
     4
 74
     0
 42
0.000000001
 43
0.0000001
 40
0.0
 40
0.0
 40
0.0
 40
0.0
 40
1.0
 40
1.0
 40
1.0
 40
1.0
 10
142.6740164731567
 20
150.2119006047966
 30
0.0
 10
130.9697363542807
 20
149.67815726564
 30
0.0
 10
127.8780829667471
 20
134.3207905085423
 30
0.0
 10
127.1413453073965
 20
128.7806296673699
 30
0.0
  0
LINE
  5
663
330
1F
100
AcDbEntity
  8
-01
100
AcDbLine
 10
127.1413453073965
 20
128.7806296673699
 30
0.0
 11
128.8115381127686
 21
128.7806298762227
 31
0.0
  0
LINE
  5
664
330
1F
100
AcDbEntity
  8
-01
100
AcDbLine
 10
128.8115381127686
 20
128.7806298762227
 30
0.0
 11
128.8115391861784
 21
116.7806374806275
 31
0.0
  0
LINE
  5
665
330
1F
100
AcDbEntity
  8
-01
100
AcDbLine
 10
128.8115391861784
 20
116.7806374806275
 30
0.0
 11
134.8115174060337
 21
116.7806365419731
 31
0.0
  0
LINE
  5
666
330
1F
100
AcDbEntity
  8
-01
100
AcDbLine
 10
134.8115174060337
 20
116.7806365419731
 30
0.0
 11
134.811515987765
 21
128.7806298762227
 31
0.0
  0
LINE
  5
667
330
1F
100
AcDbEntity
  8
-01
100
AcDbLine
 10
134.8115159877649
 20
128.7806298762227
 30
0.0
 11
136.365923877926
 21
128.7806359634556
 31
0.0
  0
SPLINE
  5
668
330
1F
100
AcDbEntity
  8
-01
100
AcDbSpline
210
0.0
220
0.0
230
1.0
 70
     8
 71
     3
 72
     8
 73
     4
 74
     0
 42
0.000000001
 43
0.0000001
 40
0.0
 40
0.0
 40
0.0
 40
0.0
 40
1.0
 40
1.0
 40
1.0
 40
1.0
 10
136.365923877926
 20
128.7806359634556
 30
0.0
 10
136.9013635539838
 20
129.4030239364114
 30
0.0
 10
137.486906815475
 20
129.9382112133224
 30
0.0
 10
138.0570603459453
 20
130.1774127997327
 30
0.0
  0
SPLINE
  5
669
330
1F
100
AcDbEntity
  8
-01
100
AcDbSpline
210
0.0
220
0.0
230
1.0
 70
     8
 71
     3
 72
     8
 73
     4
 74
     0
 42
0.000000001
 43
0.0000001
 40
0.0
 40
0.0
 40
0.0
 40
0.0
 40
1.0
 40
1.0
 40
1.0
 40
1.0
 10
138.0570603459453
 20
130.1774127997327
 30
0.0
 10
139.963797386113
 20
130.9773127204282
 30
0.0
 10
142.3699152262072
 20
128.8020294406435
 30
0.0
 10
144.2405947292236
 20
129.6829786005927
 30
0.0
  0
SPLINE
  5
66A
330
1F
100
AcDbEntity
  8
-01
100
AcDbSpline
210
0.0
220
0.0
230
1.0
 70
     8
 71
     3
 72
     8
 73
     4
 74
     0
 42
0.000000001
 43
0.0000001
 40
0.0
 40
0.0
 40
0.0
 40
0.0
 40
1.0
 40
1.0
 40
1.0
 40
1.0
 10
144.2405947292236
 20
129.6829786005927
 30
0.0
 10
146.3650197379958
 20
130.6834248200444
 30
0.0
 10
146.3866690265853
 20
134.0657620753613
 30
0.0
 10
148.2804489369584
 20
135.4542306745213
 30
0.0
  0
SPLINE
  5
66B
330
1F
100
AcDbEntity
  8
-01
100
AcDbSpline
210
0.0
220
0.0
230
1.0
 70
     8
 71
     3
 72
     8
 73
     4
 74
     0
 42
0.000000001
 43
0.0000001
 40
0.0
 40
0.0
 40
0.0
 40
0.0
 40
1.0
 40
1.0
 40
1.0
 40
1.0
 10
148.2804489369584
 20
135.4542306745213
 30
0.0
 10
149.9767466242047
 20
136.6979084605267
 30
0.0
 10
153.2149295472516
 20
135.5479697132643
 30
0.0
 10
154.2991509694598
 20
137.350423863392
 30
0.0
  0
SPLINE
  5
66C
330
1F
100
AcDbEntity
  8
-01
100
AcDbSpline
210
0.0
220
0.0
230
1.0
 70
     8
 71
     3
 72
     8
 73
     4
 74
     0
 42
0.000000001
 43
0.0000001
 40
0.0
 40
0.0
 40
0.0
 40
0.0
 40
1.0
 40
1.0
 40
1.0
 40
1.0
 10
154.2991509694598
 20
137.350423863392
 30
0.0
 10
157.2846336519473
 20
142.3135184610389
 30
0.0
 10
153.9073390703921
 20
150.202156419581
 30
0.0
 10
143.684943575191
 20
150.2339379108367
 30
0.0
  0
LINE
  5
66D
330
1F
100
AcDbEntity
  8
-01
100
AcDbLine
 10
143.684943575191
 20
150.2339379108367
 30
0.0
 11
143.6849330650938
 21
150.233783834434
 31
0.0
  0
LINE
  5
66E
330
1F
100
AcDbEntity
  8
-01
100
AcDbLine
 10
137.1894593358679
 20
77.00208954948269
 30
0.0
 11
137.1894593358679
 21
121.0020895494827
 31
0.0
  0
LINE
  5
66F
330
1F
100
AcDbEntity
  8
-01
100
AcDbLine
 10
143.1894593358679
 20
121.0020895494827
 30
0.0
 11
143.1894593358679
 21
77.00208954948269
 31
0.0
  0
LINE
  5
670
330
1F
100
AcDbEntity
  8
-01
100
AcDbLine
 10
149.1894593358679
 20
121.0020895494827
 30
0.0
 11
149.1894593358679
 21
77.00208954948269
 31
0.0
  0
LINE
  5
671
330
1F
100
AcDbEntity
  8
-01
100
AcDbLine
 10
151.3167580792215
 20
96.5375899934368
 30
0.0
 11
151.3167580792215
 21
121.5375899934368
 31
0.0
  0
LINE
  5
672
330
1F
100
AcDbEntity
  8
-01
100
AcDbLine
 10
151.3167580792215
 20
77.5375899934368
 30
0.0
 11
151.3167580792215
 21
90.5375899934368
 31
0.0
  0
LINE
  5
673
330
1F
100
AcDbEntity
  8
-01
100
AcDbLine
 10
157.3167580792215
 20
90.5375899934368
 30
0.0
 11
157.3167580792215
 21
77.5375899934368
 31
0.0
  0
LINE
  5
674
330
1F
100
AcDbEntity
  8
-01
100
AcDbLine
 10
157.3167580792215
 20
121.5375899934368
 30
0.0
 11
157.3167580792215
 21
96.5375899934368
 31
0.0
  0
LINE
  5
675
330
1F
100
AcDbEntity
  8
-01
100
AcDbLine
 10
158.1167580792217
 20
96.5375899934368
 30
0.0
 11
158.1167580792217
 21
71.5375899934368
 31
0.0
  0
LINE
  5
676
330
1F
100
AcDbEntity
  8
-01
100
AcDbLine
 10
158.1167580792217
 20
115.5375899934368
 30
0.0
 11
158.1167580792217
 21
102.5375899934368
 31
0.0
  0
LINE
  5
677
330
1F
100
AcDbEntity
  8
-01
100
AcDbLine
 10
164.1167580792217
 20
102.5375899934368
 30
0.0
 11
164.1167580792217
 21
115.5375899934368
 31
0.0
  0
LINE
  5
678
330
1F
100
AcDbEntity
  8
-01
100
AcDbLine
 10
164.1167580792217
 20
71.5375899934368
 30
0.0
 11
164.1167580792217
 21
96.5375899934368
 31
0.0
  0
LINE
  5
679
330
1F
100
AcDbEntity
  8
-01
100
AcDbLine
 10
102.2673659999999
 20
96.03098591083673
 30
0.0
 11
103.416081
 21
96.21950391083666
 31
0.0
  0
LINE
  5
67A
330
1F
100
AcDbEntity
  8
-01
100
AcDbLine
 10
94.57733999999994
 20
94.76870191083671
 30
0.0
 11
96.346767
 21
95.05863891083672
 31
0.0
  0
LINE
  5
67B
330
1F
100
AcDbEntity
  8
-01
100
AcDbLine
 10
96.346767
 20
95.05863891083672
 30
0.0
 11
97.31909299999995
 21
89.13803991083668
 31
0.0
  0
LINE
  5
67C
330
1F
100
AcDbEntity
  8
-01
100
AcDbLine
 10
97.31909299999995
 20
89.13803991083668
 30
0.0
 11
103.239692
 21
90.11038091083665
 31
0.0
  0
LINE
  5
67D
330
1F
100
AcDbEntity
  8
-01
100
AcDbLine
 10
103.239692
 20
90.11038091083665
 30
0.0
 11
102.2673659999999
 21
96.03098591083673
 31
0.0
  0
LINE
  5
67E
330
1F
100
AcDbEntity
  8
-01
100
AcDbLine
 10
98.90218400000003
 20
143.9839599108367
 30
0.0
 11
96.11899800000003
 21
143.9839599108367
 31
0.0
  0
LINE
  5
67F
330
1F
100
AcDbEntity
  8
-01
100
AcDbLine
 10
96.11899800000003
 20
143.9839599108367
 30
0.0
 11
96.11899800000003
 21
149.9839379108367
 31
0.0
  0
LINE
  5
680
330
1F
100
AcDbEntity
  8
-01
100
AcDbLine
 10
96.11899800000003
 20
149.9839379108367
 30
0.0
 11
87.11884099999997
 21
149.9839379108367
 31
0.0
  0
LINE
  5
681
330
1F
100
AcDbEntity
  8
-01
100
AcDbLine
 10
87.11884099999997
 20
149.9839379108367
 30
0.0
 11
87.11884099999997
 21
143.9839599108367
 31
0.0
  0
LINE
  5
682
330
1F
100
AcDbEntity
  8
-01
100
AcDbLine
 10
87.11884099999997
 20
143.9839599108367
 30
0.0
 11
76.11924899999997
 21
143.9839599108367
 31
0.0
  0
LINE
  5
683
330
1F
100
AcDbEntity
  8
-01
100
AcDbLine
 10
76.11924899999997
 20
143.9839599108367
 30
0.0
 11
76.11924899999997
 21
149.9839379108367
 31
0.0
  0
LINE
  5
684
330
1F
100
AcDbEntity
  8
-01
100
AcDbLine
 10
76.11924899999997
 20
149.9839379108367
 30
0.0
 11
70.11927600000001
 21
149.9839379108367
 31
0.0
  0
LINE
  5
685
330
1F
100
AcDbEntity
  8
-01
100
AcDbLine
 10
70.11927600000001
 20
149.9839379108367
 30
0.0
 11
70.11927600000001
 21
143.9839599108367
 31
0.0
  0
LINE
  5
686
330
1F
100
AcDbEntity
  8
-01
100
AcDbLine
 10
70.11927600000001
 20
143.9839599108367
 30
0.0
 11
65.44286899999997
 21
143.9839599108367
 31
0.0
  0
LINE
  5
687
330
1F
100
AcDbEntity
  8
-03
100
AcDbLine
 10
75.39822635860685
 20
95.26741050385388
 30
0.0
 11
69.7782604435505
 21
93.16598643584544
 31
0.0
  0
LINE
  5
688
330
1F
100
AcDbEntity
  8
-03
100
AcDbLine
 10
69.7782604435505
 20
93.16598643584544
 30
0.0
 11
71.87968451155893
 21
87.54602052078913
 31
0.0
  0
LINE
  5
689
330
1F
100
AcDbEntity
  8
-03
100
AcDbLine
 10
71.87968451155893
 20
87.54602052078913
 30
0.0
 11
77.4996504266154
 21
89.64744458879757
 31
0.0
  0
LINE
  5
68A
330
1F
100
AcDbEntity
  8
-03
100
AcDbLine
 10
77.4996504266154
 20
89.64744458879757
 30
0.0
 11
75.39822635860685
 21
95.26741050385388
 31
0.0
  0
LINE
  5
68B
330
1F
100
AcDbEntity
  8
-03
100
AcDbLine
 10
59.41906316202903
 20
19.52881359308064
 30
0.0
 11
59.41906316202903
 21
13.52881359308063
 31
0.0
  0
LINE
  5
68C
330
1F
100
AcDbEntity
  8
-03
100
AcDbLine
 10
59.41906316202903
 20
13.52881359308063
 30
0.0
 11
65.41906316202903
 21
13.52881359308064
 31
0.0
  0
LINE
  5
68D
330
1F
100
AcDbEntity
  8
-03
100
AcDbLine
 10
65.41906316202903
 20
13.52881359308064
 30
0.0
 11
65.41906316202903
 21
19.52881359308064
 31
0.0
  0
LINE
  5
68E
330
1F
100
AcDbEntity
  8
-03
100
AcDbLine
 10
65.41906316202903
 20
19.52881359308064
 30
0.0
 11
59.41906316202903
 21
19.52881359308064
 31
0.0
  0
LINE
  5
68F
330
1F
100
AcDbEntity
  8
-03
100
AcDbLine
 10
106.8218827783892
 20
113.4278225417515
 30
0.0
 11
112.7896846466168
 21
114.0483294814826
 31
0.0
  0
LINE
  5
690
330
1F
100
AcDbEntity
  8
-03
100
AcDbLine
 10
112.7896846466168
 20
114.0483294814826
 30
0.0
 11
111.7555073100236
 21
123.9946573083332
 31
0.0
  0
LINE
  5
691
330
1F
100
AcDbEntity
  8
-03
100
AcDbLine
 10
111.7555073100236
 20
123.9946573083332
 30
0.0
 11
105.787705441796
 21
123.3741503686022
 31
0.0
  0
LINE
  5
692
330
1F
100
AcDbEntity
  8
-03
100
AcDbLine
 10
105.787705441796
 20
123.3741503686022
 30
0.0
 11
106.8218827783892
 21
113.4278225417515
 31
0.0
  0
ARC
  5
693
330
1F
100
AcDbEntity
  8
-01
100
AcDbCircle
 10
-188.3803146684441
 20
87.74634012300143
 30
0.0
 40
304.8931372583885
100
AcDbArc
 50
344.2161933464213
 51
10.65433181438694
  0
ARC
  5
694
330
1F
100
AcDbEntity
  8
-01
100
AcDbCircle
 10
99.62504403708542
 20
6.336947227540048
 30
0.0
 40
5.60301731670333
100
AcDbArc
 50
164.2161933464228
 51
344.2161933464216
  0
ARC
  5
695
330
1F
100
AcDbEntity
  8
-01
100
AcDbCircle
 10
-188.3803146684444
 20
87.74634012300123
 30
0.0
 40
293.6871026249821
100
AcDbArc
 50
344.2161933464214
 51
10.65433181438693
  0
ARC
  5
696
330
1F
100
AcDbEntity
  8
-01
100
AcDbCircle
 10
105.7501848310558
 20
143.0801015971954
 30
0.0
 40
5.603017316703377
100
AcDbArc
 50
10.65433181438825
 51
190.6543318143883
  0
LINE
  5
697
330
1F
100
AcDbEntity
  8
-03
100
AcDbLine
 10
101.3385922125641
 20
25.98201449994947
 30
0.0
 11
107.2270083896231
 21
24.83038829044108
 31
0.0
  0
LINE
  5
698
330
1F
100
AcDbEntity
  8
-03
100
AcDbLine
 10
107.2270083896231
 20
24.83038829044108
 30
0.0
 11
109.1463837420032
 21
34.64440674667905
 31
0.0
  0
LINE
  5
699
330
1F
100
AcDbEntity
  8
-03
100
AcDbLine
 10
109.1463837420032
 20
34.64440674667905
 30
0.0
 11
103.2579675649443
 21
35.79603295618742
 31
0.0
  0
LINE
  5
69A
330
1F
100
AcDbEntity
  8
-03
100
AcDbLine
 10
103.2579675649443
 20
35.79603295618742
 30
0.0
 11
101.3385922125641
 21
25.98201449994947
 31
0.0
  0
LINE
  5
69B
330
1F
100
AcDbEntity
  8
-03
100
AcDbLine
 10
119.6749397732076
 20
113.4278225417515
 30
0.0
 11
125.6427416414352
 21
114.0483294814826
 31
0.0
  0
LINE
  5
69C
330
1F
100
AcDbEntity
  8
-03
100
AcDbLine
 10
125.6427416414352
 20
114.0483294814826
 30
0.0
 11
124.6085643048421
 21
123.9946573083332
 31
0.0
  0
LINE
  5
69D
330
1F
100
AcDbEntity
  8
-03
100
AcDbLine
 10
124.6085643048421
 20
123.9946573083332
 30
0.0
 11
118.6407624366144
 21
123.3741503686022
 31
0.0
  0
LINE
  5
69E
330
1F
100
AcDbEntity
  8
-03
100
AcDbLine
 10
118.6407624366144
 20
123.3741503686022
 30
0.0
 11
119.6749397732076
 21
113.4278225417515
 31
0.0
  0
ARC
  5
69F
330
1F
100
AcDbEntity
  8
-01
100
AcDbCircle
 10
-175.5272576736257
 20
87.74634012300143
 30
0.0
 40
304.8931372583885
100
AcDbArc
 50
344.2161933464213
 51
10.65433181438694
  0
ARC
  5
6A0
330
1F
100
AcDbEntity
  8
-01
100
AcDbCircle
 10
112.4781010319038
 20
6.336947227540048
 30
0.0
 40
5.60301731670333
100
AcDbArc
 50
164.2161933464228
 51
344.2161933464216
  0
ARC
  5
6A1
330
1F
100
AcDbEntity
  8
-01
100
AcDbCircle
 10
-175.527257673626
 20
87.74634012300123
 30
0.0
 40
293.6871026249821
100
AcDbArc
 50
344.2161933464214
 51
10.65433181438693
  0
ARC
  5
6A2
330
1F
100
AcDbEntity
  8
-01
100
AcDbCircle
 10
118.6032418258742
 20
143.0801015971954
 30
0.0
 40
5.603017316703377
100
AcDbArc
 50
10.65433181438825
 51
190.6543318143883
  0
LINE
  5
6A3
330
1F
100
AcDbEntity
  8
-03
100
AcDbLine
 10
114.1916492073825
 20
25.98201449994947
 30
0.0
 11
120.0800653844415
 21
24.83038829044108
 31
0.0
  0
LINE
  5
6A4
330
1F
100
AcDbEntity
  8
-03
100
AcDbLine
 10
120.0800653844415
 20
24.83038829044108
 30
0.0
 11
121.9994407368216
 21
34.64440674667905
 31
0.0
  0
LINE
  5
6A5
330
1F
100
AcDbEntity
  8
-03
100
AcDbLine
 10
121.9994407368216
 20
34.64440674667905
 30
0.0
 11
116.1110245597627
 21
35.79603295618742
 31
0.0
  0
LINE
  5
6A6
330
1F
100
AcDbEntity
  8
-03
100
AcDbLine
 10
116.1110245597627
 20
35.79603295618742
 30
0.0
 11
114.1916492073825
 21
25.98201449994947
 31
0.0
  0
LINE
  5
6A7
330
1F
100
AcDbEntity
  8
-01
100
AcDbLine
 10
49.1694672318987
 20
54.18688191083663
 30
0.0
 11
50.31818223189874
 21
53.9983639108367
 31
0.0
  0
LINE
  5
6A8
330
1F
100
AcDbEntity
  8
-01
100
AcDbLine
 10
41.47944123189871
 20
55.44916591083665
 30
0.0
 11
43.24886823189878
 21
55.15922891083665
 31
0.0
  0
LINE
  5
6A9
330
1F
100
AcDbEntity
  8
-01
100
AcDbLine
 10
43.24886823189878
 20
55.15922891083665
 30
0.0
 11
44.22119423189873
 21
61.07982791083668
 31
0.0
  0
LINE
  5
6AA
330
1F
100
AcDbEntity
  8
-01
100
AcDbLine
 10
44.22119423189873
 20
61.07982791083668
 30
0.0
 11
50.14179323189877
 21
60.10748691083671
 31
0.0
  0
LINE
  5
6AB
330
1F
100
AcDbEntity
  8
-01
100
AcDbLine
 10
50.14179323189877
 20
60.10748691083671
 30
0.0
 11
49.1694672318987
 21
54.18688191083663
 31
0.0
  0
LINE
  5
6AC
330
1F
100
AcDbEntity
  8
-01
100
AcDbLine
 10
45.8042852318988
 20
6.233907910836674
 30
0.0
 11
43.0210992318988
 21
6.233907910836675
 31
0.0
  0
LINE
  5
6AD
330
1F
100
AcDbEntity
  8
-01
100
AcDbLine
 10
43.0210992318988
 20
6.233907910836675
 30
0.0
 11
43.0210992318988
 21
0.2339299108366761
 31
0.0
  0
LINE
  5
6AE
330
1F
100
AcDbEntity
  8
-01
100
AcDbLine
 10
43.0210992318988
 20
0.2339299108366761
 30
0.0
 11
34.02094223189874
 21
0.233929910836677
 31
0.0
  0
LINE
  5
6AF
330
1F
100
AcDbEntity
  8
-01
100
AcDbLine
 10
34.02094223189874
 20
0.233929910836677
 30
0.0
 11
34.02094223189874
 21
6.233907910836676
 31
0.0
  0
LINE
  5
6B0
330
1F
100
AcDbEntity
  8
-01
100
AcDbLine
 10
34.02094223189874
 20
6.233907910836676
 30
0.0
 11
23.02135023189874
 21
6.233907910836678
 31
0.0
  0
LINE
  5
6B1
330
1F
100
AcDbEntity
  8
-01
100
AcDbLine
 10
23.02135023189874
 20
6.233907910836678
 30
0.0
 11
23.02135023189874
 21
0.2339299108366788
 31
0.0
  0
LINE
  5
6B2
330
1F
100
AcDbEntity
  8
-01
100
AcDbLine
 10
23.02135023189874
 20
0.2339299108366788
 30
0.0
 11
17.02137723189878
 21
0.2339299108366788
 31
0.0
  0
LINE
  5
6B3
330
1F
100
AcDbEntity
  8
-01
100
AcDbLine
 10
17.02137723189878
 20
0.2339299108366788
 30
0.0
 11
17.02137723189878
 21
6.233907910836678
 31
0.0
  0
LINE
  5
6B4
330
1F
100
AcDbEntity
  8
-01
100
AcDbLine
 10
17.02137723189878
 20
6.233907910836678
 30
0.0
 11
12.34497023189874
 21
6.233907910836678
 31
0.0
  0
ENDSEC
  0
SECTION
  2
OBJECTS
  0
DICTIONARY
  5
C
330
0
100
AcDbDictionary
  3
ACAD_DETAILVIEWSTYLE
350
122
  3
ACAD_GROUP
350
D
  3
ACAD_IMAGE_VARS
350
DC
  3
ACAD_MLINESTYLE
350
17
  3
ACAD_SCALELIST
350
B6
  3
ACAD_SECTIONVIEWSTYLE
350
123
  3
ACDBVARIABLEDICTIONARY
350
66
  3
APPDATA
350
E1
  3
DWGPROPS
350
6B5
1001
ACAD
1000
TREAT_AS_HARD
1070
     0
  0
DICTIONARY
  5
2D1
330
2
100
AcDbDictionary
  3
ACAD_LAYERSTATES
360
2D2
1001
ACAD
1000
TREAT_AS_HARD
1070
     1
  0
DICTIONARY
  5
122
102
{ACAD_REACTORS
330
C
102
}
330
C
100
AcDbDictionary
1001
ACAD
1000
TREAT_AS_HARD
1070
     0
  0
DICTIONARY
  5
D
102
{ACAD_REACTORS
330
C
102
}
330
C
100
AcDbDictionary
1001
ACAD
1000
TREAT_AS_HARD
1070
     0
  0
RASTERVARIABLES
  5
DC
102
{ACAD_REACTORS
330
C
102
}
330
C
100
AcDbRasterVariables
 90
        0
 70
     1
 71
     1
 72
     5
  0
DICTIONARY
  5
17
102
{ACAD_REACTORS
330
C
102
}
330
C
100
AcDbDictionary
  3
STANDARD
350
18
1001
ACAD
1000
TREAT_AS_HARD
1070
     0
  0
DICTIONARY
  5
B6
102
{ACAD_REACTORS
330
C
102
}
330
C
100
AcDbDictionary
1001
ACAD
1000
TREAT_AS_HARD
1070
     0
  0
DICTIONARY
  5
123
102
{ACAD_REACTORS
330
C
102
}
330
C
100
AcDbDictionary
1001
ACAD
1000
TREAT_AS_HARD
1070
     0
  0
DICTIONARY
  5
66
102
{ACAD_REACTORS
330
C
102
}
330
C
100
AcDbDictionary
  3
DIMASSOC
350
67
  3
HIDETEXT
350
6B
1001
ACAD
1000
TREAT_AS_HARD
1070
     0
  0
DICTIONARY
  5
E1
102
{ACAD_REACTORS
330
C
102
}
330
C
100
AcDbDictionary
1001
ACAD
1000
TREAT_AS_HARD
1070
     0
  0
XRECORD
  5
6B5
102
{ACAD_REACTORS
330
C
102
}
330
C
100
AcDbXrecord
  1
DWGPROPS COOKIE
  2

  3

  4

  6

  7

  8
JO
  9

300
=
301
=
302
=
303
=
304
=
305
=
306
=
307
=
308
=
309
=
 40
0.0
 41
2452643.063384271
 42
2457740.783244004
  1

 90
        0
  0
DICTIONARY
  5
2D2
102
{ACAD_REACTORS
330
2D1
102
}
330
2D1
100
AcDbDictionary
1001
ACAD
1000
TREAT_AS_HARD
1070
     0
  0
MLINESTYLE
  5
18
102
{ACAD_REACTORS
330
17
102
}
330
17
100
AcDbMlineStyle
  2
STANDARD
 70
     0
  3

 62
   256
 51
90.0
 52
90.0
 71
     2
 49
0.5
 62
   256
  6
BYLAYER
 49
-0.5
 62
   256
  6
BYLAYER
  0
DICTIONARYVAR
  5
67
102
{ACAD_REACTORS
330
66
102
}
330
66
100
DictionaryVariables
280
     0
  1
2
  0
DICTIONARYVAR
  5
6B
102
{ACAD_REACTORS
330
66
102
}
330
66
100
DictionaryVariables
280
     0
  1
1
  0
ENDSEC
  0
EOF
